  0
SECTION
  2
HEADER
  9
$ACADVER
  1
AC1009
  9
$INSBASE
 10
0
 20
0
 30
0
  9
$EXTMIN
 10
0
 20
0
  9
$EXTMAX
 10
1485
 20
1050
  9
$LIMMIN
 10
0
 20
0
  9
$LIMMAX
 10
1485
 20
1050
  9
$LTSCALE
 40
5
  0
ENDSEC
  0
SECTION
  2
TABLES
  0
TABLE
  2
LTYPE
 70
     9
  0
LTYPE
  2
CONTINUOUS
 70
    64
  3
実線
 72
    65
 73
     0
 40
0.0
  0
LTYPE
  2
DASHED1
 70
    64
  3
--  --  --  --  --  --  --  --  
 72
    65
 73
     2
 40
2.5
 49
1.25
 49
-1.25
  0
LTYPE
  2
DASHED2
 70
    64
  3
----    ----    ----    ----    
 72
    65
 73
     2
 40
5.0
 49
2.5
 49
-2.5
  0
LTYPE
  2
DASHED3
 70
    64
  3
------  ------  ------  ------  
 72
    65
 73
     2
 40
5.0
 49
3.75
 49
-1.25
  0
LTYPE
  2
CENTER1
 70
    64
  3
----- - ----- - ----- - ----- - 
 72
    65
 73
     4
 40
10.0
 49
6.25
 49
-1.25
 49
1.25
 49
-1.25
  0
LTYPE
  2
CENTER2
 70
    64
  3
----------  --  ----------  --  
 72
    65
 73
     4
 40
20.0
 49
12.5
 49
-2.5
 49
2.5
 49
-2.5
  0
LTYPE
  2
PHANTOM1
 70
    64
  3
--- - - --- - - --- - - --- - - 
 72
    65
 73
     6
 40
10.0
 49
3.25
 49
-1.25
 49
1.25
 49
-1.25
 49
1.25
 49
-1.25
  0
LTYPE
  2
PHANTOM2
 70
    64
  3
--------  -  -  --------  -  -  
 72
    65
 73
     6
 40
20.0
 49
10.0
 49
-2.5
 49
1.25
 49
-2.5
 49
1.25
 49
-2.5
  0
LTYPE
  2
DOT
 70
    64
  3
-   -   -   -   -   -   -   -   
 72
    65
 73
     2
 40
2.5
 49
0.625
 49
-1.875
  0
LTYPE
  2
DUMMY
 70
    64
  3
ダミー
 72
    65
 73
     0
 40
0.0
  0
LTYPE
  2
RAND1
 70
    64
  3
ランダム線1
 72
    65
 73
     4
 40
10.0
 49
1.0
 49
-2.0
 49
3.0
 49
-4.0
  0
LTYPE
  2
RAND2
 70
    64
  3
ランダム線2
 72
    65
 73
     4
 40
14.0
 49
2.0
 49
-3.0
 49
4.0
 49
-5.0
  0
LTYPE
  2
RAND3
 70
    64
  3
ランダム線3
 72
    65
 73
     4
 40
18.0
 49
3.0
 49
-4.0
 49
5.0
 49
-6.0
  0
LTYPE
  2
RAND4
 70
    64
  3
ランダム線4
 72
    65
 73
     4
 40
22.0
 49
4.0
 49
-5.0
 49
6.0
 49
-7.0
  0
LTYPE
  2
RAND5
 70
    64
  3
ランダム線5
 72
    65
 73
     4
 40
26.0
 49
5.0
 49
-6.0
 49
7.0
 49
-8.0
  0
LTYPE
  2
LONG1
 70
    64
  3
----------  --  ----------  --  
 72
    65
 73
     4
 40
40.0
 49
32.5
 49
-2.5
 49
2.5
 49
-2.5
  0
LTYPE
  2
LONG2
 70
    64
  3
--------  -  -  --------  -  -  
 72
    65
 73
     6
 40
40.0
 49
30.0
 49
-2.5
 49
1.25
 49
-2.5
 49
1.25
 49
-2.5
  0
LTYPE
  2
LONG3
 70
    64
  3
+++++++++++++++..+++++++++++++++
 72
    65
 73
     2
 40
40.0
 49
37.5
 49
-2.5
  0
LTYPE
  2
LONG4
 70
    64
  3
+++++++++++++++..+++++++++++++++
 72
    65
 73
     2
 40
80.0
 49
75.0
 49
-5.0
  0
LTYPE
  2
LONG5
 70
    64
  3
----------  --  ----------  --  
 72
    65
 73
     4
 40
60.0
 49
37.5
 49
-7.5
 49
7.5
 49
-7.5
  0
LTYPE
  2
dashed
 70
   64
  3
-------   -------------   ------
 72
   65
 73
    2
 40
7.5
 49
6
 49
-1.5
  0
LTYPE
  2
dashed_spaced
 70
   64
  3
----        --------        ----
 72
   65
 73
    2
 40
12
 49
6
 49
-6
  0
LTYPE
  2
long_dashed_dotted
 70
   64
  3
------------- --- --------------
 72
   65
 73
    4
 40
15.25
 49
12
 49
-1.5
 49
0.25
 49
-1.5
  0
LTYPE
  2
long_dashed_double-dotted
 70
   64
  3
----------- --- --- ------------
 72
   65
 73
    6
 40
17
 49
12
 49
-1.5
 49
0.25
 49
-1.5
 49
0.25
 49
-1.5
  0
LTYPE
  2
long_dashed_triplicate-dotted
 70
   64
  3
--------- --- --- --- ----------
 72
   65
 73
    8
 40
18.75
 49
12
 49
-1.5
 49
0.25
 49
-1.5
 49
0.25
 49
-1.5
 49
0.25
 49
-1.5
  0
LTYPE
  2
dotted
 70
   64
  3
   -       -       -       -    
 72
   65
 73
    2
 40
1.75
 49
0.25
 49
-1.5
  0
LTYPE
  2
chain
 70
   64
  3
-------------- -- --------------
 72
   65
 73
    4
 40
18.5
 49
12
 49
-1.5
 49
3.5
 49
-1.5
  0
LTYPE
  2
chain_double_dash
 70
   64
  3
------------ -- -- -------------
 72
   65
 73
    6
 40
23.5
 49
12
 49
-1.5
 49
3.5
 49
-1.5
 49
3.5
 49
-1.5
  0
LTYPE
  2
dashed_dotted
 70
   64
  3
-----------     -     ----------
 72
   65
 73
    4
 40
9.25
 49
6
 49
-1.5
 49
0.25
 49
-1.5
  0
LTYPE
  2
double-dashed_dotted
 70
   64
  3
------   -----------   -   -----
 72
   65
 73
    6
 40
16.75
 49
6
 49
-1.5
 49
6
 49
-1.5
 49
0.25
 49
-1.5
  0
LTYPE
  2
dashed_double-dotted
 70
   64
  3
---------    -    -    ---------
 72
   65
 73
    6
 40
11
 49
6
 49
-1.5
 49
0.25
 49
-1.5
 49
0.25
 49
-1.5
  0
LTYPE
  2
double-dashed_double-dotted
 70
   64
  3
-----   ---------   -   -   ----
 72
   65
 73
    8
 40
18.5
 49
6
 49
-1.5
 49
6
 49
-1.5
 49
0.25
 49
-1.5
 49
0.25
 49
-1.5
  0
LTYPE
  2
dashed_triplicate-dotted
 70
   64
  3
-------    -    -    -    ------
 72
   65
 73
    8
 40
12.75
 49
6
 49
-1.5
 49
0.25
 49
-1.5
 49
0.25
 49
-1.5
 49
0.25
 49
-1.5
  0
LTYPE
  2
double-dashed_triplicate-dotted
 70
   64
  3
-----  ---------  -  -  -  -----
 72
   65
 73
   10
 40
20.25
 49
6
 49
-1.5
 49
6
 49
-1.5
 49
0.25
 49
-1.5
 49
0.25
 49
-1.5
 49
0.25
 49
-1.5
  0
LTYPE
  2
undefined
 70
   64
  3
--------------------------------
 72
   65
 73
    0
 40
0
  0
ENDTAB
  0
TABLE
  2
STYLE
  5
3
100
AcDbSymbolTable
 70
     1
  0
STYLE
  5
10
100
AcDbSymbolTableRecord
100
AcDbTextStyleTableRecord
  2
STANDARD
 70
     0
 40
0.0
 41
1.0
 50
0.0
 71
     0
 42
0.2
  3
txt
  4
bigfont.shx
  0
STYLE
  5
26
100
AcDbSymbolTableRecord
100
AcDbTextStyleTableRecord
  2
TATEGAKI
 70
    68
 40
0.0
 41
1.0
 50
0.0
 71
     0
 42
1.0
  3
txt
  4
bigfont.shx
  0
ENDTAB
  0
TABLE
  2
LAYER
 70
    4
  0
LAYER
  2
_0-0_0
 70
   64
 62
    7
  6
CONTINUOUS
  0
LAYER
  2
_0-2_用紙枠
 70
   64
 62
    7
  6
CONTINUOUS
  0
LAYER
  2
_0-3_図面枠
 70
   64
 62
    7
  6
CONTINUOUS
  0
LAYER
  2
ADD_LINE
 70
   64
 62
    7
  6
CONTINUOUS
  0
ENDTAB
  0
ENDSEC
  0
SECTION
  2
BLOCKS
  0
ENDSEC
  0
SECTION
  2
ENTITIES
  0
LINE
  8
_0-3_図面枠
  6
CONTINUOUS
 62
    7
 10
1435
 20
946.69437877621112
 11
100
 21
946.69437877621112
  0
TEXT
  8
_0-3_図面枠
 62
    7
 10
125
 20
959.19437877621112
 40
25
 41
1
 50
0
  1
表示器／カラー表示器　TPV-CM002D
  0
LINE
  8
_0-0_0
  6
CONTINUOUS
 62
    7
 10
310.25001737384503
 20
599.28245684382227
 11
310.28934302478172
 21
600.29538092363816
  0
LINE
  8
_0-0_0
  6
CONTINUOUS
 62
    7
 10
310.28934302478172
 20
600.29538092363816
 11
310.40451512201543
 21
601.28366313008394
  0
LINE
  8
_0-0_0
  6
CONTINUOUS
 62
    7
 10
310.40451512201543
 20
601.28366313008394
 11
310.59132638218239
 21
602.24566220191548
  0
LINE
  8
_0-0_0
  6
CONTINUOUS
 62
    7
 10
310.59132638218239
 20
602.24566220191548
 11
310.84556952191866
 21
603.17973687788822
  0
LINE
  8
_0-0_0
  6
CONTINUOUS
 62
    7
 10
310.84556952191866
 20
603.17973687788822
 11
311.16303725786048
 21
604.08424589675769
  0
LINE
  8
_0-0_0
  6
CONTINUOUS
 62
    7
 10
311.16303725786048
 20
604.08424589675769
 11
311.53952230664339
 21
604.95754799727911
  0
LINE
  8
_0-0_0
  6
CONTINUOUS
 62
    7
 10
311.53952230664339
 20
604.95754799727911
 11
311.97081738490397
 21
605.79800191820834
  0
LINE
  8
_0-0_0
  6
CONTINUOUS
 62
    7
 10
311.97081738490397
 20
605.79800191820834
 11
312.4527152092781
 21
606.60396639830094
  0
LINE
  8
_0-0_0
  6
CONTINUOUS
 62
    7
 10
312.4527152092781
 20
606.60396639830094
 11
312.98100849640173
 21
607.37380017631222
  0
LINE
  8
_0-0_0
  6
CONTINUOUS
 62
    7
 10
312.98100849640173
 20
607.37380017631222
 11
313.55148996291092
 21
608.10586199099782
  0
LINE
  8
_0-0_0
  6
CONTINUOUS
 62
    7
 10
313.55148996291092
 20
608.10586199099782
 11
314.15995232544174
 21
608.79851058111331
  0
LINE
  8
_0-0_0
  6
CONTINUOUS
 62
    7
 10
314.15995232544174
 20
608.79851058111331
 11
314.80218830063041
 21
609.45010468541398
  0
LINE
  8
_0-0_0
  6
CONTINUOUS
 62
    7
 10
314.80218830063041
 20
609.45010468541398
 11
315.47399060511282
 21
610.0590030426556
  0
LINE
  8
_0-0_0
  6
CONTINUOUS
 62
    7
 10
315.47399060511282
 20
610.0590030426556
 11
316.17115195552492
 21
610.62356439159362
  0
LINE
  8
_0-0_0
  6
CONTINUOUS
 62
    7
 10
316.17115195552492
 20
610.62356439159362
 11
316.88946506850306
 21
611.14214747098367
  0
LINE
  8
_0-0_0
  6
CONTINUOUS
 62
    7
 10
316.88946506850306
 20
611.14214747098367
 11
317.62472266068306
 21
611.61311101958097
  0
LINE
  8
_0-0_0
  6
CONTINUOUS
 62
    7
 10
317.62472266068306
 20
611.61311101958097
 11
318.37271744870122
 21
612.03481377614139
  0
LINE
  8
_0-0_0
  6
CONTINUOUS
 62
    7
 10
318.37271744870122
 20
612.03481377614139
 11
319.12924214919315
 21
612.40561447942014
  0
LINE
  8
_0-0_0
  6
CONTINUOUS
 62
    7
 10
319.12924214919315
 20
612.40561447942014
 11
319.89008947879529
 21
612.72387186817286
  0
LINE
  8
_0-0_0
  6
CONTINUOUS
 62
    7
 10
319.89008947879529
 20
612.72387186817286
 11
320.65105215414354
 21
612.98794468115534
  0
LINE
  8
_0-0_0
  6
CONTINUOUS
 62
    7
 10
320.65105215414354
 20
612.98794468115534
 11
321.40792289187402
 21
613.19619165712265
  0
LINE
  8
_0-0_0
  6
CONTINUOUS
 62
    7
 10
321.40792289187402
 20
613.19619165712265
 11
322.15649440862279
 21
613.34697153483069
  0
LINE
  8
_0-0_0
  6
CONTINUOUS
 62
    7
 10
322.15649440862279
 20
613.34697153483069
 11
322.89255942102585
 21
613.43864305303475
  0
LINE
  8
_0-0_0
  6
CONTINUOUS
 62
    7
 10
322.89255942102585
 20
613.43864305303475
 11
323.61191064571921
 21
613.46956495049039
  0
LINE
  8
_0-0_0
  6
CONTINUOUS
 62
    7
 10
323.61191064571921
 20
613.46956495049039
 11
324.802313727973
 21
613.46956495049039
  0
LINE
  8
_0-0_0
  6
CONTINUOUS
 62
    7
 10
324.802313727973
 20
613.46956495049039
 11
326.91826431379252
 21
613.46956495049051
  0
LINE
  8
_0-0_0
  6
CONTINUOUS
 62
    7
 10
326.91826431379252
 20
613.46956495049051
 11
329.87297512922083
 21
613.46956495049039
  0
LINE
  8
_0-0_0
  6
CONTINUOUS
 62
    7
 10
329.87297512922083
 20
613.46956495049039
 11
333.57965890030039
 21
613.46956495049039
  0
LINE
  8
_0-0_0
  6
CONTINUOUS
 62
    7
 10
333.57965890030039
 20
613.46956495049039
 11
337.95152835307397
 21
613.46956495049051
  0
LINE
  8
_0-0_0
  6
CONTINUOUS
 62
    7
 10
337.95152835307397
 20
613.46956495049051
 11
342.90179621358402
 21
613.46956495049051
  0
LINE
  8
_0-0_0
  6
CONTINUOUS
 62
    7
 10
342.90179621358402
 20
613.46956495049051
 11
348.34367520787345
 21
613.46956495049051
  0
LINE
  8
_0-0_0
  6
CONTINUOUS
 62
    7
 10
348.34367520787345
 20
613.46956495049051
 11
354.19037806198492
 21
613.46956495049039
  0
LINE
  8
_0-0_0
  6
CONTINUOUS
 62
    7
 10
354.19037806198492
 20
613.46956495049039
 11
360.35511750196088
 21
613.46956495049051
  0
LINE
  8
_0-0_0
  6
CONTINUOUS
 62
    7
 10
360.35511750196088
 20
613.46956495049051
 11
366.75110625384428
 21
613.46956495049051
  0
LINE
  8
_0-0_0
  6
CONTINUOUS
 62
    7
 10
366.75110625384428
 20
613.46956495049051
 11
373.29155704367781
 21
613.46956495049039
  0
LINE
  8
_0-0_0
  6
CONTINUOUS
 62
    7
 10
373.29155704367781
 20
613.46956495049039
 11
379.88968259750379
 21
613.46956495049039
  0
LINE
  8
_0-0_0
  6
CONTINUOUS
 62
    7
 10
379.88968259750379
 20
613.46956495049039
 11
386.45869564136518
 21
613.46956495049039
  0
LINE
  8
_0-0_0
  6
CONTINUOUS
 62
    7
 10
386.45869564136518
 20
613.46956495049039
 11
392.91180890130471
 21
613.46956495049039
  0
LINE
  8
_0-0_0
  6
CONTINUOUS
 62
    7
 10
392.91180890130471
 20
613.46956495049039
 11
399.16223510336476
 21
613.46956495049039
  0
LINE
  8
_0-0_0
  6
CONTINUOUS
 62
    7
 10
399.16223510336476
 20
613.46956495049039
 11
405.1231869735883
 21
613.46956495049039
  0
LINE
  8
_0-0_0
  6
CONTINUOUS
 62
    7
 10
405.1231869735883
 20
613.46956495049039
 11
410.70787723801777
 21
613.46956495049039
  0
LINE
  8
_0-0_0
  6
CONTINUOUS
 62
    7
 10
410.70787723801777
 20
613.46956495049039
 11
415.82951862269613
 21
613.46956495049039
  0
LINE
  8
_0-0_0
  6
CONTINUOUS
 62
    7
 10
415.82951862269613
 20
613.46956495049039
 11
420.4013238536657
 21
613.46956495049039
  0
LINE
  8
_0-0_0
  6
CONTINUOUS
 62
    7
 10
420.4013238536657
 20
613.46956495049039
 11
424.33650565696939
 21
613.46956495049039
  0
LINE
  8
_0-0_0
  6
CONTINUOUS
 62
    7
 10
424.33650565696939
 20
613.46956495049039
 11
427.54827675864988
 21
613.46956495049039
  0
LINE
  8
_0-0_0
  6
CONTINUOUS
 62
    7
 10
427.54827675864988
 20
613.46956495049039
 11
429.94984988474971
 21
613.46956495049039
  0
LINE
  8
_0-0_0
  6
CONTINUOUS
 62
    7
 10
429.94984988474971
 20
613.46956495049039
 11
431.45443776131168
 21
613.46956495049039
  0
LINE
  8
_0-0_0
  6
CONTINUOUS
 62
    7
 10
431.45443776131168
 20
613.46956495049039
 11
431.97525311437829
 21
613.46956495049039
  0
LINE
  8
_0-0_0
  6
CONTINUOUS
 62
    7
 10
431.97525311437829
 20
613.46956495049039
 11
432.97274484831541
 21
613.42813043681963
  0
LINE
  8
_0-0_0
  6
CONTINUOUS
 62
    7
 10
432.97274484831541
 20
613.42813043681963
 11
433.93872261167121
 21
613.30685181552133
  0
LINE
  8
_0-0_0
  6
CONTINUOUS
 62
    7
 10
433.93872261167121
 20
613.30685181552133
 11
434.87221447471552
 21
613.11026646616619
  0
LINE
  8
_0-0_0
  6
CONTINUOUS
 62
    7
 10
434.87221447471552
 20
613.11026646616619
 11
435.77224850771898
 21
612.84291176832551
  0
LINE
  8
_0-0_0
  6
CONTINUOUS
 62
    7
 10
435.77224850771898
 20
612.84291176832551
 11
436.63785278095122
 21
612.50932510157008
  0
LINE
  8
_0-0_0
  6
CONTINUOUS
 62
    7
 10
436.63785278095122
 20
612.50932510157008
 11
437.4680553646823
 21
612.11404384547109
  0
LINE
  8
_0-0_0
  6
CONTINUOUS
 62
    7
 10
437.4680553646823
 20
612.11404384547109
 11
438.26188432918252
 21
611.66160537959945
  0
LINE
  8
_0-0_0
  6
CONTINUOUS
 62
    7
 10
438.26188432918252
 20
611.66160537959945
 11
439.01836774472173
 21
611.15654708352599
  0
LINE
  8
_0-0_0
  6
CONTINUOUS
 62
    7
 10
439.01836774472173
 20
611.15654708352599
 11
439.73653368157034
 21
610.60340633682165
  0
LINE
  8
_0-0_0
  6
CONTINUOUS
 62
    7
 10
439.73653368157034
 20
610.60340633682165
 11
440.41541020999819
 21
610.00672051905769
  0
LINE
  8
_0-0_0
  6
CONTINUOUS
 62
    7
 10
440.41541020999819
 20
610.00672051905769
 11
441.05402540027541
 21
609.37102700980483
  0
LINE
  8
_0-0_0
  6
CONTINUOUS
 62
    7
 10
441.05402540027541
 20
609.37102700980483
 11
441.65140732267213
 21
608.70086318863423
  0
LINE
  8
_0-0_0
  6
CONTINUOUS
 62
    7
 10
441.65140732267213
 20
608.70086318863423
 11
442.20658404745836
 21
608.00076643511682
  0
LINE
  8
_0-0_0
  6
CONTINUOUS
 62
    7
 10
442.20658404745836
 20
608.00076643511682
 11
442.71858364490413
 21
607.27527412882341
  0
LINE
  8
_0-0_0
  6
CONTINUOUS
 62
    7
 10
442.71858364490413
 20
607.27527412882341
 11
443.18643418527972
 21
606.52892364932518
  0
LINE
  8
_0-0_0
  6
CONTINUOUS
 62
    7
 10
443.18643418527972
 20
606.52892364932518
 11
443.60916373885505
 21
605.76625237619305
  0
LINE
  8
_0-0_0
  6
CONTINUOUS
 62
    7
 10
443.60916373885505
 20
605.76625237619305
 11
443.98580037590023
 21
604.99179768899785
  0
LINE
  8
_0-0_0
  6
CONTINUOUS
 62
    7
 10
443.98580037590023
 20
604.99179768899785
 11
444.31537216668528
 21
604.21009696731085
  0
LINE
  8
_0-0_0
  6
CONTINUOUS
 62
    7
 10
444.31537216668528
 20
604.21009696731085
 11
444.59690718148039
 21
603.42568759070286
  0
LINE
  8
_0-0_0
  6
CONTINUOUS
 62
    7
 10
444.59690718148039
 20
603.42568759070286
 11
444.82943349055569
 21
602.64310693874495
  0
LINE
  8
_0-0_0
  6
CONTINUOUS
 62
    7
 10
444.82943349055569
 20
602.64310693874495
 11
445.01197916418107
 21
601.86689239100792
  0
LINE
  8
_0-0_0
  6
CONTINUOUS
 62
    7
 10
445.01197916418107
 20
601.86689239100792
 11
445.14357227262678
 21
601.10158132706283
  0
LINE
  8
_0-0_0
  6
CONTINUOUS
 62
    7
 10
445.14357227262678
 20
601.10158132706283
 11
445.22324088616273
 21
600.35171112648072
  0
LINE
  8
_0-0_0
  6
CONTINUOUS
 62
    7
 10
445.22324088616273
 20
600.35171112648072
 11
445.2500130750592
 21
599.62181916883253
  0
LINE
  8
_0-0_0
  6
CONTINUOUS
 62
    7
 10
445.2500130750592
 20
599.62181916883253
 11
445.25001307505903
 21
598.02656552491226
  0
LINE
  8
_0-0_0
  6
CONTINUOUS
 62
    7
 10
445.25001307505903
 20
598.02656552491226
 11
445.25001307505903
 21
594.83879877352422
  0
LINE
  8
_0-0_0
  6
CONTINUOUS
 62
    7
 10
445.25001307505903
 20
594.83879877352422
 11
445.25001307505931
 21
590.20613295629266
  0
LINE
  8
_0-0_0
  6
CONTINUOUS
 62
    7
 10
445.25001307505931
 20
590.20613295629266
 11
445.25001307505903
 21
584.27618211484219
  0
LINE
  8
_0-0_0
  6
CONTINUOUS
 62
    7
 10
445.25001307505903
 20
584.27618211484219
 11
445.25001307505931
 21
577.19656029079738
  0
LINE
  8
_0-0_0
  6
CONTINUOUS
 62
    7
 10
445.25001307505931
 20
577.19656029079738
 11
445.2500130750592
 21
569.11488152578272
  0
LINE
  8
_0-0_0
  6
CONTINUOUS
 62
    7
 10
445.2500130750592
 20
569.11488152578272
 11
445.25001307505903
 21
560.17875986142269
  0
LINE
  8
_0-0_0
  6
CONTINUOUS
 62
    7
 10
445.25001307505903
 20
560.17875986142269
 11
445.25001307505931
 21
550.53580933934199
  0
LINE
  8
_0-0_0
  6
CONTINUOUS
 62
    7
 10
445.25001307505931
 20
550.53580933934199
 11
445.25001307505903
 21
540.33364400116488
  0
LINE
  8
_0-0_0
  6
CONTINUOUS
 62
    7
 10
445.25001307505903
 20
540.33364400116488
 11
445.2500130750592
 21
529.71987788851607
  0
LINE
  8
_0-0_0
  6
CONTINUOUS
 62
    7
 10
445.2500130750592
 20
529.71987788851607
 11
445.25001307505903
 21
518.84212504302013
  0
LINE
  8
_0-0_0
  6
CONTINUOUS
 62
    7
 10
445.25001307505903
 20
518.84212504302013
 11
445.2500130750592
 21
507.84799950630133
  0
LINE
  8
_0-0_0
  6
CONTINUOUS
 62
    7
 10
445.2500130750592
 20
507.84799950630133
 11
445.2500130750592
 21
496.88511531998461
  0
LINE
  8
_0-0_0
  6
CONTINUOUS
 62
    7
 10
445.2500130750592
 20
496.88511531998461
 11
445.25001307505903
 21
486.10108652569409
  0
LINE
  8
_0-0_0
  6
CONTINUOUS
 62
    7
 10
445.25001307505903
 20
486.10108652569409
 11
445.2500130750592
 21
475.64352716505448
  0
LINE
  8
_0-0_0
  6
CONTINUOUS
 62
    7
 10
445.2500130750592
 20
475.64352716505448
 11
445.2500130750592
 21
465.66005127969049
  0
LINE
  8
_0-0_0
  6
CONTINUOUS
 62
    7
 10
445.2500130750592
 20
465.66005127969049
 11
445.2500130750592
 21
456.29827291122632
  0
LINE
  8
_0-0_0
  6
CONTINUOUS
 62
    7
 10
445.2500130750592
 20
456.29827291122632
 11
445.2500130750592
 21
447.70580610128661
  0
LINE
  8
_0-0_0
  6
CONTINUOUS
 62
    7
 10
445.2500130750592
 20
447.70580610128661
 11
445.2500130750592
 21
440.03026489149602
  0
LINE
  8
_0-0_0
  6
CONTINUOUS
 62
    7
 10
445.2500130750592
 20
440.03026489149602
 11
445.25001307505903
 21
433.41926332347884
  0
LINE
  8
_0-0_0
  6
CONTINUOUS
 62
    7
 10
445.25001307505903
 20
433.41926332347884
 11
445.25001307505903
 21
428.0204154388598
  0
LINE
  8
_0-0_0
  6
CONTINUOUS
 62
    7
 10
445.25001307505903
 20
428.0204154388598
 11
445.2500130750592
 21
423.98133527926342
  0
LINE
  8
_0-0_0
  6
CONTINUOUS
 62
    7
 10
445.2500130750592
 20
423.98133527926342
 11
445.2500130750592
 21
421.44963688631412
  0
LINE
  8
_0-0_0
  6
CONTINUOUS
 62
    7
 10
445.2500130750592
 20
421.44963688631412
 11
445.2500130750592
 21
420.57293430163656
  0
LINE
  8
_0-0_0
  6
CONTINUOUS
 62
    7
 10
445.2500130750592
 20
420.57293430163656
 11
445.205617568881
 21
419.57055344430603
  0
LINE
  8
_0-0_0
  6
CONTINUOUS
 62
    7
 10
445.205617568881
 20
419.57055344430603
 11
445.07574141023053
 21
418.59189244645279
  0
LINE
  8
_0-0_0
  6
CONTINUOUS
 62
    7
 10
445.07574141023053
 20
418.59189244645279
 11
444.86535013893439
 21
417.63863465294321
  0
LINE
  8
_0-0_0
  6
CONTINUOUS
 62
    7
 10
444.86535013893439
 20
417.63863465294321
 11
444.57940929481879
 21
416.71246340864298
  0
LINE
  8
_0-0_0
  6
CONTINUOUS
 62
    7
 10
444.57940929481879
 20
416.71246340864298
 11
444.22288441771047
 21
415.81506205841862
  0
LINE
  8
_0-0_0
  6
CONTINUOUS
 62
    7
 10
444.22288441771047
 20
415.81506205841862
 11
443.80074104743528
 21
414.94811394713611
  0
LINE
  8
_0-0_0
  6
CONTINUOUS
 62
    7
 10
443.80074104743528
 20
414.94811394713611
 11
443.31794472381989
 21
414.11330241966152
  0
LINE
  8
_0-0_0
  6
CONTINUOUS
 62
    7
 10
443.31794472381989
 20
414.11330241966152
 11
442.77946098669076
 21
413.31231082086094
  0
LINE
  8
_0-0_0
  6
CONTINUOUS
 62
    7
 10
442.77946098669076
 20
413.31231082086094
 11
442.19025537587413
 21
412.54682249560062
  0
LINE
  8
_0-0_0
  6
CONTINUOUS
 62
    7
 10
442.19025537587413
 20
412.54682249560062
 11
441.55529343119662
 21
411.81852078874658
  0
LINE
  8
_0-0_0
  6
CONTINUOUS
 62
    7
 10
441.55529343119662
 20
411.81852078874658
 11
440.8795406924844
 21
411.12908904516507
  0
LINE
  8
_0-0_0
  6
CONTINUOUS
 62
    7
 10
440.8795406924844
 20
411.12908904516507
 11
440.16796269956387
 21
410.48021060972218
  0
LINE
  8
_0-0_0
  6
CONTINUOUS
 62
    7
 10
440.16796269956387
 20
410.48021060972218
 11
439.42552499226161
 21
409.87356882728409
  0
LINE
  8
_0-0_0
  6
CONTINUOUS
 62
    7
 10
439.42552499226161
 20
409.87356882728409
 11
438.6571931104038
 21
409.31084704271677
  0
LINE
  8
_0-0_0
  6
CONTINUOUS
 62
    7
 10
438.6571931104038
 20
409.31084704271677
 11
437.86793259381693
 21
408.79372860088654
  0
LINE
  8
_0-0_0
  6
CONTINUOUS
 62
    7
 10
437.86793259381693
 20
408.79372860088654
 11
437.06270898232742
 21
408.32389684665941
  0
LINE
  8
_0-0_0
  6
CONTINUOUS
 62
    7
 10
437.06270898232742
 20
408.32389684665941
 11
436.24648781576172
 21
407.90303512490152
  0
LINE
  8
_0-0_0
  6
CONTINUOUS
 62
    7
 10
436.24648781576172
 20
407.90303512490152
 11
435.42423463394596
 21
407.53282678047901
  0
LINE
  8
_0-0_0
  6
CONTINUOUS
 62
    7
 10
435.42423463394596
 20
407.53282678047901
 11
434.60091497670675
 21
407.21495515825802
  0
LINE
  8
_0-0_0
  6
CONTINUOUS
 62
    7
 10
434.60091497670675
 20
407.21495515825802
 11
433.78149438387055
 21
406.95110360310468
  0
LINE
  8
_0-0_0
  6
CONTINUOUS
 62
    7
 10
433.78149438387055
 20
406.95110360310468
 11
432.97093839526354
 21
406.74295545988508
  0
LINE
  8
_0-0_0
  6
CONTINUOUS
 62
    7
 10
432.97093839526354
 20
406.74295545988508
 11
432.17421255071213
 21
406.59219407346552
  0
LINE
  8
_0-0_0
  6
CONTINUOUS
 62
    7
 10
432.17421255071213
 20
406.59219407346552
 11
431.39628239004298
 21
406.50050278871191
  0
LINE
  8
_0-0_0
  6
CONTINUOUS
 62
    7
 10
431.39628239004298
 20
406.50050278871191
 11
430.64211345308223
 21
406.46956495049039
  0
LINE
  8
_0-0_0
  6
CONTINUOUS
 62
    7
 10
430.64211345308223
 20
406.46956495049039
 11
429.38417921828102
 21
406.46956495049039
  0
LINE
  8
_0-0_0
  6
CONTINUOUS
 62
    7
 10
429.38417921828102
 20
406.46956495049039
 11
427.2512359349559
 21
406.46956495049039
  0
LINE
  8
_0-0_0
  6
CONTINUOUS
 62
    7
 10
427.2512359349559
 20
406.46956495049039
 11
424.32583333907803
 21
406.46956495049039
  0
LINE
  8
_0-0_0
  6
CONTINUOUS
 62
    7
 10
424.32583333907803
 20
406.46956495049039
 11
420.69052116661902
 21
406.46956495049039
  0
LINE
  8
_0-0_0
  6
CONTINUOUS
 62
    7
 10
420.69052116661902
 20
406.46956495049039
 11
416.42784915355008
 21
406.46956495049028
  0
LINE
  8
_0-0_0
  6
CONTINUOUS
 62
    7
 10
416.42784915355008
 20
406.46956495049028
 11
411.62036703584283
 21
406.46956495049039
  0
LINE
  8
_0-0_0
  6
CONTINUOUS
 62
    7
 10
411.62036703584283
 20
406.46956495049039
 11
406.35062454946882
 21
406.46956495049039
  0
LINE
  8
_0-0_0
  6
CONTINUOUS
 62
    7
 10
406.35062454946882
 20
406.46956495049039
 11
400.70117143039943
 21
406.46956495049039
  0
LINE
  8
_0-0_0
  6
CONTINUOUS
 62
    7
 10
400.70117143039943
 20
406.46956495049039
 11
394.7545574146061
 21
406.46956495049039
  0
LINE
  8
_0-0_0
  6
CONTINUOUS
 62
    7
 10
394.7545574146061
 20
406.46956495049039
 11
388.5933322380601
 21
406.46956495049039
  0
LINE
  8
_0-0_0
  6
CONTINUOUS
 62
    7
 10
388.5933322380601
 20
406.46956495049039
 11
382.30004563673299
 21
406.46956495049051
  0
LINE
  8
_0-0_0
  6
CONTINUOUS
 62
    7
 10
382.30004563673299
 20
406.46956495049051
 11
375.95724734659632
 21
406.46956495049039
  0
LINE
  8
_0-0_0
  6
CONTINUOUS
 62
    7
 10
375.95724734659632
 20
406.46956495049039
 11
369.6474871036213
 21
406.46956495049039
  0
LINE
  8
_0-0_0
  6
CONTINUOUS
 62
    7
 10
369.6474871036213
 20
406.46956495049039
 11
363.45331464377932
 21
406.46956495049039
  0
LINE
  8
_0-0_0
  6
CONTINUOUS
 62
    7
 10
363.45331464377932
 20
406.46956495049039
 11
357.45727970304216
 21
406.46956495049028
  0
LINE
  8
_0-0_0
  6
CONTINUOUS
 62
    7
 10
357.45727970304216
 20
406.46956495049028
 11
351.7419320173812
 21
406.46956495049039
  0
LINE
  8
_0-0_0
  6
CONTINUOUS
 62
    7
 10
351.7419320173812
 20
406.46956495049039
 11
346.38982132276766
 21
406.46956495049039
  0
LINE
  8
_0-0_0
  6
CONTINUOUS
 62
    7
 10
346.38982132276766
 20
406.46956495049039
 11
341.48349735517291
 21
406.46956495049039
  0
LINE
  8
_0-0_0
  6
CONTINUOUS
 62
    7
 10
341.48349735517291
 20
406.46956495049039
 11
337.10550985056892
 21
406.46956495049039
  0
LINE
  8
_0-0_0
  6
CONTINUOUS
 62
    7
 10
337.10550985056892
 20
406.46956495049039
 11
333.33840854492632
 21
406.46956495049039
  0
LINE
  8
_0-0_0
  6
CONTINUOUS
 62
    7
 10
333.33840854492632
 20
406.46956495049039
 11
330.26474317421736
 21
406.46956495049039
  0
LINE
  8
_0-0_0
  6
CONTINUOUS
 62
    7
 10
330.26474317421736
 20
406.46956495049039
 11
327.96706347441307
 21
406.46956495049039
  0
LINE
  8
_0-0_0
  6
CONTINUOUS
 62
    7
 10
327.96706347441307
 20
406.46956495049039
 11
326.52791918148472
 21
406.46956495049039
  0
LINE
  8
_0-0_0
  6
CONTINUOUS
 62
    7
 10
326.52791918148472
 20
406.46956495049039
 11
326.02986003140427
 21
406.46956495049039
  0
LINE
  8
_0-0_0
  6
CONTINUOUS
 62
    7
 10
326.02986003140427
 20
406.46956495049039
 11
324.98267255970717
 21
406.50399445404781
  0
LINE
  8
_0-0_0
  6
CONTINUOUS
 62
    7
 10
324.98267255970717
 20
406.50399445404781
 11
323.94937574130978
 21
406.60598729927767
  0
LINE
  8
_0-0_0
  6
CONTINUOUS
 62
    7
 10
323.94937574130978
 20
406.60598729927767
 11
322.93269627401457
 21
406.77359998801637
  0
LINE
  8
_0-0_0
  6
CONTINUOUS
 62
    7
 10
322.93269627401457
 20
406.77359998801637
 11
321.93536085562408
 21
407.00488902210009
  0
LINE
  8
_0-0_0
  6
CONTINUOUS
 62
    7
 10
321.93536085562408
 20
407.00488902210009
 11
320.96009618394112
 21
407.29791090336539
  0
LINE
  8
_0-0_0
  6
CONTINUOUS
 62
    7
 10
320.96009618394112
 20
407.29791090336539
 11
320.0096289567681
 21
407.65072213364886
  0
LINE
  8
_0-0_0
  6
CONTINUOUS
 62
    7
 10
320.0096289567681
 20
407.65072213364886
 11
319.08668587190778
 21
408.06137921478643
  0
LINE
  8
_0-0_0
  6
CONTINUOUS
 62
    7
 10
319.08668587190778
 20
408.06137921478643
 11
318.19399362716268
 21
408.52793864861462
  0
LINE
  8
_0-0_0
  6
CONTINUOUS
 62
    7
 10
318.19399362716268
 20
408.52793864861462
 11
317.33427892033541
 21
409.04845693696996
  0
LINE
  8
_0-0_0
  6
CONTINUOUS
 62
    7
 10
317.33427892033541
 20
409.04845693696996
 11
316.51026844922853
 21
409.62099058168872
  0
LINE
  8
_0-0_0
  6
CONTINUOUS
 62
    7
 10
316.51026844922853
 20
409.62099058168872
 11
315.72468891164482
 21
410.24359608460747
  0
LINE
  8
_0-0_0
  6
CONTINUOUS
 62
    7
 10
315.72468891164482
 20
410.24359608460747
 11
314.98026700538674
 21
410.91432994756218
  0
LINE
  8
_0-0_0
  6
CONTINUOUS
 62
    7
 10
314.98026700538674
 20
410.91432994756218
 11
314.27972942825704
 21
411.63124867238957
  0
LINE
  8
_0-0_0
  6
CONTINUOUS
 62
    7
 10
314.27972942825704
 20
411.63124867238957
 11
313.62580287805827
 21
412.39240876092589
  0
LINE
  8
_0-0_0
  6
CONTINUOUS
 62
    7
 10
313.62580287805827
 20
412.39240876092589
 11
313.02121405259305
 21
413.19586671500758
  0
LINE
  8
_0-0_0
  6
CONTINUOUS
 62
    7
 10
313.02121405259305
 20
413.19586671500758
 11
312.46868964966382
 21
414.03967903647083
  0
LINE
  8
_0-0_0
  6
CONTINUOUS
 62
    7
 10
312.46868964966382
 20
414.03967903647083
 11
311.97095636707343
 21
414.92190222715237
  0
LINE
  8
_0-0_0
  6
CONTINUOUS
 62
    7
 10
311.97095636707343
 20
414.92190222715237
 11
311.53074090262442
 21
415.84059278888822
  0
LINE
  8
_0-0_0
  6
CONTINUOUS
 62
    7
 10
311.53074090262442
 20
415.84059278888822
 11
311.15076995411937
 21
416.79380722351488
  0
LINE
  8
_0-0_0
  6
CONTINUOUS
 62
    7
 10
311.15076995411937
 20
416.79380722351488
 11
310.83377021936087
 21
417.77960203286898
  0
LINE
  8
_0-0_0
  6
CONTINUOUS
 62
    7
 10
310.83377021936087
 20
417.77960203286898
 11
310.58246839615157
 21
418.79603371878648
  0
LINE
  8
_0-0_0
  6
CONTINUOUS
 62
    7
 10
310.58246839615157
 20
418.79603371878648
 11
310.39959118229405
 21
419.84115878310388
  0
LINE
  8
_0-0_0
  6
CONTINUOUS
 62
    7
 10
310.39959118229405
 20
419.84115878310388
 11
310.28786527559106
 21
420.91303372765776
  0
LINE
  8
_0-0_0
  6
CONTINUOUS
 62
    7
 10
310.28786527559106
 20
420.91303372765776
 11
310.25001737384503
 21
422.00971505428424
  0
LINE
  8
_0-0_0
  6
CONTINUOUS
 62
    7
 10
310.25001737384503
 20
422.00971505428424
 11
310.25001737384503
 21
423.84743699132878
  0
LINE
  8
_0-0_0
  6
CONTINUOUS
 62
    7
 10
310.25001737384503
 20
423.84743699132878
 11
310.25001737384503
 21
427.21793050912078
  0
LINE
  8
_0-0_0
  6
CONTINUOUS
 62
    7
 10
310.25001737384503
 20
427.21793050912078
 11
310.25001737384503
 21
431.97797547871448
  0
LINE
  8
_0-0_0
  6
CONTINUOUS
 62
    7
 10
310.25001737384503
 20
431.97797547871448
 11
310.25001737384503
 21
437.98435177116431
  0
LINE
  8
_0-0_0
  6
CONTINUOUS
 62
    7
 10
310.25001737384503
 20
437.98435177116431
 11
310.25001737384508
 21
445.09383925752502
  0
LINE
  8
_0-0_0
  6
CONTINUOUS
 62
    7
 10
310.25001737384508
 20
445.09383925752502
 11
310.25001737384503
 21
453.16321780885067
  0
LINE
  8
_0-0_0
  6
CONTINUOUS
 62
    7
 10
310.25001737384503
 20
453.16321780885067
 11
310.25001737384503
 21
462.04926729619604
  0
LINE
  8
_0-0_0
  6
CONTINUOUS
 62
    7
 10
310.25001737384503
 20
462.04926729619604
 11
310.25001737384503
 21
471.60876759061529
  0
LINE
  8
_0-0_0
  6
CONTINUOUS
 62
    7
 10
310.25001737384503
 20
471.60876759061529
 11
310.25001737384503
 21
481.69849856316318
  0
LINE
  8
_0-0_0
  6
CONTINUOUS
 62
    7
 10
310.25001737384503
 20
481.69849856316318
 11
310.25001737384503
 21
492.17524008489409
  0
LINE
  8
_0-0_0
  6
CONTINUOUS
 62
    7
 10
310.25001737384503
 20
492.17524008489409
 11
310.25001737384508
 21
502.89577202686218
  0
LINE
  8
_0-0_0
  6
CONTINUOUS
 62
    7
 10
310.25001737384508
 20
502.89577202686218
 11
310.25001737384503
 21
513.71687426012215
  0
LINE
  8
_0-0_0
  6
CONTINUOUS
 62
    7
 10
310.25001737384503
 20
513.71687426012215
 11
310.25001737384503
 21
524.49532665572838
  0
LINE
  8
_0-0_0
  6
CONTINUOUS
 62
    7
 10
310.25001737384503
 20
524.49532665572838
 11
310.25001737384503
 21
535.08790908473532
  0
LINE
  8
_0-0_0
  6
CONTINUOUS
 62
    7
 10
310.25001737384503
 20
535.08790908473532
 11
310.25001737384503
 21
545.35140141819738
  0
LINE
  8
_0-0_0
  6
CONTINUOUS
 62
    7
 10
310.25001737384503
 20
545.35140141819738
 11
310.25001737384503
 21
555.14258352716911
  0
LINE
  8
_0-0_0
  6
CONTINUOUS
 62
    7
 10
310.25001737384503
 20
555.14258352716911
 11
310.25001737384503
 21
564.31823528270479
  0
LINE
  8
_0-0_0
  6
CONTINUOUS
 62
    7
 10
310.25001737384503
 20
564.31823528270479
 11
310.25001737384503
 21
572.73513655585907
  0
LINE
  8
_0-0_0
  6
CONTINUOUS
 62
    7
 10
310.25001737384503
 20
572.73513655585907
 11
310.25001737384503
 21
580.25006721768636
  0
LINE
  8
_0-0_0
  6
CONTINUOUS
 62
    7
 10
310.25001737384503
 20
580.25006721768636
 11
310.25001737384503
 21
586.71980713924086
  0
LINE
  8
_0-0_0
  6
CONTINUOUS
 62
    7
 10
310.25001737384503
 20
586.71980713924086
 11
310.25001737384503
 21
592.00113619157742
  0
LINE
  8
_0-0_0
  6
CONTINUOUS
 62
    7
 10
310.25001737384503
 20
592.00113619157742
 11
310.25001737384503
 21
595.95083424575012
  0
LINE
  8
_0-0_0
  6
CONTINUOUS
 62
    7
 10
310.25001737384503
 20
595.95083424575012
 11
310.25001737384503
 21
598.4256811728136
  0
LINE
  8
_0-0_0
  6
CONTINUOUS
 62
    7
 10
310.25001737384503
 20
598.4256811728136
 11
310.25001737384503
 21
599.28245684382227
  0
LINE
  8
_0-0_0
  6
CONTINUOUS
 62
    7
 10
310.25001737384503
 20
525.72016376882107
 11
445.2500130750592
 21
525.72016376882107
  0
LINE
  8
_0-0_0
  6
CONTINUOUS
 62
    7
 10
436.90264186249948
 20
501.99124483551748
 11
436.89192353237172
 21
501.72922870013576
  0
LINE
  8
_0-0_0
  6
CONTINUOUS
 62
    7
 10
436.89192353237172
 20
501.72922870013576
 11
436.86037111320832
 21
501.47136927883832
  0
LINE
  8
_0-0_0
  6
CONTINUOUS
 62
    7
 10
436.86037111320832
 20
501.47136927883832
 11
436.8088884618399
 21
501.21828826149027
  0
LINE
  8
_0-0_0
  6
CONTINUOUS
 62
    7
 10
436.8088884618399
 20
501.21828826149027
 11
436.73837943509727
 21
500.97060733795718
  0
LINE
  8
_0-0_0
  6
CONTINUOUS
 62
    7
 10
436.73837943509727
 20
500.97060733795718
 11
436.64974788981067
 21
500.72894819810426
  0
LINE
  8
_0-0_0
  6
CONTINUOUS
 62
    7
 10
436.64974788981067
 20
500.72894819810426
 11
436.54389768281089
 21
500.49393253179682
  0
LINE
  8
_0-0_0
  6
CONTINUOUS
 62
    7
 10
436.54389768281089
 20
500.49393253179682
 11
436.42173267092829
 21
500.26618202890029
  0
LINE
  8
_0-0_0
  6
CONTINUOUS
 62
    7
 10
436.42173267092829
 20
500.26618202890029
 11
436.28415671099361
 21
500.04631837928002
  0
LINE
  8
_0-0_0
  6
CONTINUOUS
 62
    7
 10
436.28415671099361
 20
500.04631837928002
 11
436.13207365983715
 21
499.83496327280108
  0
LINE
  8
_0-0_0
  6
CONTINUOUS
 62
    7
 10
436.13207365983715
 20
499.83496327280108
 11
435.96638737428947
 21
499.63273839932918
  0
LINE
  8
_0-0_0
  6
CONTINUOUS
 62
    7
 10
435.96638737428947
 20
499.63273839932918
 11
435.78800171118132
 21
499.44026544872929
  0
LINE
  8
_0-0_0
  6
CONTINUOUS
 62
    7
 10
435.78800171118132
 20
499.44026544872929
 11
435.59782052734329
 21
499.25816611086708
  0
LINE
  8
_0-0_0
  6
CONTINUOUS
 62
    7
 10
435.59782052734329
 20
499.25816611086708
 11
435.39674767960571
 21
499.08706207560772
  0
LINE
  8
_0-0_0
  6
CONTINUOUS
 62
    7
 10
435.39674767960571
 20
499.08706207560772
 11
435.18568702479911
 21
498.92757503281649
  0
LINE
  8
_0-0_0
  6
CONTINUOUS
 62
    7
 10
435.18568702479911
 20
498.92757503281649
 11
434.96554241975417
 21
498.78032667235891
  0
LINE
  8
_0-0_0
  6
CONTINUOUS
 62
    7
 10
434.96554241975417
 20
498.78032667235891
 11
434.73721772130142
 21
498.64593868409997
  0
LINE
  8
_0-0_0
  6
CONTINUOUS
 62
    7
 10
434.73721772130142
 20
498.64593868409997
 11
434.50161678627126
 21
498.52503275790548
  0
LINE
  8
_0-0_0
  6
CONTINUOUS
 62
    7
 10
434.50161678627126
 20
498.52503275790548
 11
434.25964347149443
 21
498.41823058364042
  0
LINE
  8
_0-0_0
  6
CONTINUOUS
 62
    7
 10
434.25964347149443
 20
498.41823058364042
 11
434.01220163380128
 21
498.32615385117009
  0
LINE
  8
_0-0_0
  6
CONTINUOUS
 62
    7
 10
434.01220163380128
 20
498.32615385117009
 11
433.76019513002262
 21
498.24942425036022
  0
LINE
  8
_0-0_0
  6
CONTINUOUS
 62
    7
 10
433.76019513002262
 20
498.24942425036022
 11
433.50452781698863
 21
498.18866347107559
  0
LINE
  8
_0-0_0
  6
CONTINUOUS
 62
    7
 10
433.50452781698863
 20
498.18866347107559
 11
433.24610355153027
 21
498.14449320318209
  0
LINE
  8
_0-0_0
  6
CONTINUOUS
 62
    7
 10
433.24610355153027
 20
498.14449320318209
 11
432.98582619047778
 21
498.11753513654457
  0
LINE
  8
_0-0_0
  6
CONTINUOUS
 62
    7
 10
432.98582619047778
 20
498.11753513654457
 11
432.7245995906618
 21
498.10841096102882
  0
LINE
  8
_0-0_0
  6
CONTINUOUS
 62
    7
 10
432.7245995906618
 20
498.10841096102882
 11
432.46611607656871
 21
498.11753513654457
  0
LINE
  8
_0-0_0
  6
CONTINUOUS
 62
    7
 10
432.46611607656871
 20
498.11753513654457
 11
432.21169802729941
 21
498.14449320318198
  0
LINE
  8
_0-0_0
  6
CONTINUOUS
 62
    7
 10
432.21169802729941
 20
498.14449320318198
 11
431.96196188077568
 21
498.18866347107576
  0
LINE
  8
_0-0_0
  6
CONTINUOUS
 62
    7
 10
431.96196188077568
 20
498.18866347107576
 11
431.7175240749196
 21
498.24942425036011
  0
LINE
  8
_0-0_0
  6
CONTINUOUS
 62
    7
 10
431.7175240749196
 20
498.24942425036011
 11
431.47900104765358
 21
498.32615385117026
  0
LINE
  8
_0-0_0
  6
CONTINUOUS
 62
    7
 10
431.47900104765358
 20
498.32615385117026
 11
431.24700923689937
 21
498.41823058364042
  0
LINE
  8
_0-0_0
  6
CONTINUOUS
 62
    7
 10
431.24700923689937
 20
498.41823058364042
 11
431.02216508057938
 21
498.52503275790548
  0
LINE
  8
_0-0_0
  6
CONTINUOUS
 62
    7
 10
431.02216508057938
 20
498.52503275790548
 11
430.80508501661541
 21
498.64593868409997
  0
LINE
  8
_0-0_0
  6
CONTINUOUS
 62
    7
 10
430.80508501661541
 20
498.64593868409997
 11
430.59638548292952
 21
498.7803266723588
  0
LINE
  8
_0-0_0
  6
CONTINUOUS
 62
    7
 10
430.59638548292952
 20
498.7803266723588
 11
430.39668291744408
 21
498.92757503281649
  0
LINE
  8
_0-0_0
  6
CONTINUOUS
 62
    7
 10
430.39668291744408
 20
498.92757503281649
 11
430.20659375808088
 21
499.08706207560778
  0
LINE
  8
_0-0_0
  6
CONTINUOUS
 62
    7
 10
430.20659375808088
 20
499.08706207560778
 11
430.02673444276212
 21
499.25816611086708
  0
LINE
  8
_0-0_0
  6
CONTINUOUS
 62
    7
 10
430.02673444276212
 20
499.25816611086708
 11
429.85772140940992
 21
499.44026544872929
  0
LINE
  8
_0-0_0
  6
CONTINUOUS
 62
    7
 10
429.85772140940992
 20
499.44026544872929
 11
429.70017109594659
 21
499.63273839932913
  0
LINE
  8
_0-0_0
  6
CONTINUOUS
 62
    7
 10
429.70017109594659
 20
499.63273839932913
 11
429.55469994029386
 21
499.83496327280108
  0
LINE
  8
_0-0_0
  6
CONTINUOUS
 62
    7
 10
429.55469994029386
 20
499.83496327280108
 11
429.42192438037398
 21
500.04631837928002
  0
LINE
  8
_0-0_0
  6
CONTINUOUS
 62
    7
 10
429.42192438037398
 20
500.04631837928002
 11
429.30246085410897
 21
500.26618202890029
  0
LINE
  8
_0-0_0
  6
CONTINUOUS
 62
    7
 10
429.30246085410897
 20
500.26618202890029
 11
429.19692579942102
 21
500.49393253179687
  0
LINE
  8
_0-0_0
  6
CONTINUOUS
 62
    7
 10
429.19692579942102
 20
500.49393253179687
 11
429.1059356542321
 21
500.72894819810426
  0
LINE
  8
_0-0_0
  6
CONTINUOUS
 62
    7
 10
429.1059356542321
 20
500.72894819810426
 11
429.03010685646439
 21
500.97060733795718
  0
LINE
  8
_0-0_0
  6
CONTINUOUS
 62
    7
 10
429.03010685646439
 20
500.97060733795718
 11
428.97005584403996
 21
501.21828826149027
  0
LINE
  8
_0-0_0
  6
CONTINUOUS
 62
    7
 10
428.97005584403996
 20
501.21828826149027
 11
428.92639905488079
 21
501.47136927883832
  0
LINE
  8
_0-0_0
  6
CONTINUOUS
 62
    7
 10
428.92639905488079
 20
501.47136927883832
 11
428.89975292690917
 21
501.72922870013576
  0
LINE
  8
_0-0_0
  6
CONTINUOUS
 62
    7
 10
428.89975292690917
 20
501.72922870013576
 11
428.89073389804707
 21
501.99124483551748
  0
LINE
  8
_0-0_0
  6
CONTINUOUS
 62
    7
 10
428.89073389804707
 20
501.99124483551748
 11
428.89975292690917
 21
502.29341002121771
  0
LINE
  8
_0-0_0
  6
CONTINUOUS
 62
    7
 10
428.89975292690917
 20
502.29341002121771
 11
428.92639905488079
 21
502.58807475780418
  0
LINE
  8
_0-0_0
  6
CONTINUOUS
 62
    7
 10
428.92639905488079
 20
502.58807475780418
 11
428.97005584403985
 21
502.87476273519542
  0
LINE
  8
_0-0_0
  6
CONTINUOUS
 62
    7
 10
428.97005584403985
 20
502.87476273519542
 11
429.03010685646439
 21
503.15299764331007
  0
LINE
  8
_0-0_0
  6
CONTINUOUS
 62
    7
 10
429.03010685646439
 20
503.15299764331007
 11
429.10593565423221
 21
503.42230317206662
  0
LINE
  8
_0-0_0
  6
CONTINUOUS
 62
    7
 10
429.10593565423221
 20
503.42230317206662
 11
429.19692579942102
 21
503.68220301138371
  0
LINE
  8
_0-0_0
  6
CONTINUOUS
 62
    7
 10
429.19692579942102
 20
503.68220301138371
 11
429.30246085410897
 21
503.93222085117986
  0
LINE
  8
_0-0_0
  6
CONTINUOUS
 62
    7
 10
429.30246085410897
 20
503.93222085117986
 11
429.42192438037398
 21
504.17188038137351
  0
LINE
  8
_0-0_0
  6
CONTINUOUS
 62
    7
 10
429.42192438037398
 20
504.17188038137351
 11
429.55469994029386
 21
504.40070529188353
  0
LINE
  8
_0-0_0
  6
CONTINUOUS
 62
    7
 10
429.55469994029386
 20
504.40070529188353
 11
429.70017109594659
 21
504.61821927262798
  0
LINE
  8
_0-0_0
  6
CONTINUOUS
 62
    7
 10
429.70017109594659
 20
504.61821927262798
 11
429.85772140941009
 21
504.82394601352598
  0
LINE
  8
_0-0_0
  6
CONTINUOUS
 62
    7
 10
429.85772140941009
 20
504.82394601352598
 11
430.02673444276212
 21
505.01740920449578
  0
LINE
  8
_0-0_0
  6
CONTINUOUS
 62
    7
 10
430.02673444276212
 20
505.01740920449578
 11
430.20659375808077
 21
505.19813253545601
  0
LINE
  8
_0-0_0
  6
CONTINUOUS
 62
    7
 10
430.20659375808077
 20
505.19813253545601
 11
430.39668291744391
 21
505.36563969632527
  0
LINE
  8
_0-0_0
  6
CONTINUOUS
 62
    7
 10
430.39668291744391
 20
505.36563969632527
 11
430.59638548292952
 21
505.51945437702187
  0
LINE
  8
_0-0_0
  6
CONTINUOUS
 62
    7
 10
430.59638548292952
 20
505.51945437702187
 11
430.80508501661529
 21
505.65910026746462
  0
LINE
  8
_0-0_0
  6
CONTINUOUS
 62
    7
 10
430.80508501661529
 20
505.65910026746462
 11
431.02216508057938
 21
505.78410105757212
  0
LINE
  8
_0-0_0
  6
CONTINUOUS
 62
    7
 10
431.02216508057938
 20
505.78410105757212
 11
431.24700923689937
 21
505.893980437263
  0
LINE
  8
_0-0_0
  6
CONTINUOUS
 62
    7
 10
431.24700923689937
 20
505.893980437263
 11
431.47900104765358
 21
505.9882620964554
  0
LINE
  8
_0-0_0
  6
CONTINUOUS
 62
    7
 10
431.47900104765358
 20
505.9882620964554
 11
431.71752407491965
 21
506.06646972506837
  0
LINE
  8
_0-0_0
  6
CONTINUOUS
 62
    7
 10
431.71752407491965
 20
506.06646972506837
 11
431.96196188077568
 21
506.12812701302011
  0
LINE
  8
_0-0_0
  6
CONTINUOUS
 62
    7
 10
431.96196188077568
 20
506.12812701302011
 11
432.21169802729941
 21
506.1727576502293
  0
LINE
  8
_0-0_0
  6
CONTINUOUS
 62
    7
 10
432.21169802729941
 20
506.1727576502293
 11
432.46611607656882
 21
506.19988532661461
  0
LINE
  8
_0-0_0
  6
CONTINUOUS
 62
    7
 10
432.46611607656882
 20
506.19988532661461
 11
432.72459959066168
 21
506.20903373209438
  0
LINE
  8
_0-0_0
  6
CONTINUOUS
 62
    7
 10
432.72459959066168
 20
506.20903373209438
 11
432.98582619047778
 21
506.19988532661461
  0
LINE
  8
_0-0_0
  6
CONTINUOUS
 62
    7
 10
432.98582619047778
 20
506.19988532661461
 11
433.24610355153027
 21
506.17275765022941
  0
LINE
  8
_0-0_0
  6
CONTINUOUS
 62
    7
 10
433.24610355153027
 20
506.17275765022941
 11
433.50452781698863
 21
506.12812701301999
  0
LINE
  8
_0-0_0
  6
CONTINUOUS
 62
    7
 10
433.50452781698863
 20
506.12812701301999
 11
433.76019513002262
 21
506.06646972506837
  0
LINE
  8
_0-0_0
  6
CONTINUOUS
 62
    7
 10
433.76019513002262
 20
506.06646972506837
 11
434.0122016338014
 21
505.98826209645563
  0
LINE
  8
_0-0_0
  6
CONTINUOUS
 62
    7
 10
434.0122016338014
 20
505.98826209645563
 11
434.25964347149443
 21
505.893980437263
  0
LINE
  8
_0-0_0
  6
CONTINUOUS
 62
    7
 10
434.25964347149443
 20
505.893980437263
 11
434.50161678627126
 21
505.78410105757229
  0
LINE
  8
_0-0_0
  6
CONTINUOUS
 62
    7
 10
434.50161678627126
 20
505.78410105757229
 11
434.73721772130142
 21
505.65910026746496
  0
LINE
  8
_0-0_0
  6
CONTINUOUS
 62
    7
 10
434.73721772130142
 20
505.65910026746496
 11
434.96554241975417
 21
505.51945437702187
  0
LINE
  8
_0-0_0
  6
CONTINUOUS
 62
    7
 10
434.96554241975417
 20
505.51945437702187
 11
435.18568702479922
 21
505.36563969632527
  0
LINE
  8
_0-0_0
  6
CONTINUOUS
 62
    7
 10
435.18568702479922
 20
505.36563969632527
 11
435.39674767960571
 21
505.19813253545601
  0
LINE
  8
_0-0_0
  6
CONTINUOUS
 62
    7
 10
435.39674767960571
 20
505.19813253545601
 11
435.59782052734329
 21
505.01740920449578
  0
LINE
  8
_0-0_0
  6
CONTINUOUS
 62
    7
 10
435.59782052734329
 20
505.01740920449578
 11
435.78800171118132
 21
504.82394601352598
  0
LINE
  8
_0-0_0
  6
CONTINUOUS
 62
    7
 10
435.78800171118132
 20
504.82394601352598
 11
435.96638737428947
 21
504.61821927262798
  0
LINE
  8
_0-0_0
  6
CONTINUOUS
 62
    7
 10
435.96638737428947
 20
504.61821927262798
 11
436.13207365983715
 21
504.40070529188341
  0
LINE
  8
_0-0_0
  6
CONTINUOUS
 62
    7
 10
436.13207365983715
 20
504.40070529188341
 11
436.28415671099361
 21
504.17188038137351
  0
LINE
  8
_0-0_0
  6
CONTINUOUS
 62
    7
 10
436.28415671099361
 20
504.17188038137351
 11
436.42173267092829
 21
503.93222085117986
  0
LINE
  8
_0-0_0
  6
CONTINUOUS
 62
    7
 10
436.42173267092829
 20
503.93222085117986
 11
436.54389768281089
 21
503.68220301138376
  0
LINE
  8
_0-0_0
  6
CONTINUOUS
 62
    7
 10
436.54389768281089
 20
503.68220301138376
 11
436.64974788981067
 21
503.42230317206668
  0
LINE
  8
_0-0_0
  6
CONTINUOUS
 62
    7
 10
436.64974788981067
 20
503.42230317206668
 11
436.73837943509727
 21
503.15299764331007
  0
LINE
  8
_0-0_0
  6
CONTINUOUS
 62
    7
 10
436.73837943509727
 20
503.15299764331007
 11
436.80888846184007
 21
502.87476273519542
  0
LINE
  8
_0-0_0
  6
CONTINUOUS
 62
    7
 10
436.80888846184007
 20
502.87476273519542
 11
436.86037111320815
 21
502.58807475780418
  0
LINE
  8
_0-0_0
  6
CONTINUOUS
 62
    7
 10
436.86037111320815
 20
502.58807475780418
 11
436.89192353237172
 21
502.29341002121782
  0
LINE
  8
_0-0_0
  6
CONTINUOUS
 62
    7
 10
436.89192353237172
 20
502.29341002121782
 11
436.90264186249948
 21
501.99124483551748
  0
LINE
  8
_0-0_0
  6
CONTINUOUS
 62
    7
 10
328.45216608264712
 20
501.99124483551748
 11
328.44314642348053
 21
501.72922870013576
  0
LINE
  8
_0-0_0
  6
CONTINUOUS
 62
    7
 10
328.44314642348053
 20
501.72922870013576
 11
328.4164958833764
 21
501.47136927883832
  0
LINE
  8
_0-0_0
  6
CONTINUOUS
 62
    7
 10
328.4164958833764
 20
501.47136927883832
 11
328.37282711842943
 21
501.21828826149027
  0
LINE
  8
_0-0_0
  6
CONTINUOUS
 62
    7
 10
328.37282711842943
 20
501.21828826149027
 11
328.31275278473385
 21
500.97060733795718
  0
LINE
  8
_0-0_0
  6
CONTINUOUS
 62
    7
 10
328.31275278473385
 20
500.97060733795718
 11
328.23688553838406
 21
500.72894819810426
  0
LINE
  8
_0-0_0
  6
CONTINUOUS
 62
    7
 10
328.23688553838406
 20
500.72894819810426
 11
328.14583803547453
 21
500.49393253179682
  0
LINE
  8
_0-0_0
  6
CONTINUOUS
 62
    7
 10
328.14583803547453
 20
500.49393253179682
 11
328.04022293209937
 21
500.26618202890029
  0
LINE
  8
_0-0_0
  6
CONTINUOUS
 62
    7
 10
328.04022293209937
 20
500.26618202890029
 11
327.92065288435282
 21
500.04631837928002
  0
LINE
  8
_0-0_0
  6
CONTINUOUS
 62
    7
 10
327.92065288435282
 20
500.04631837928002
 11
327.78774054832957
 21
499.83496327280108
  0
LINE
  8
_0-0_0
  6
CONTINUOUS
 62
    7
 10
327.78774054832957
 20
499.83496327280108
 11
327.64209858012384
 21
499.63273839932918
  0
LINE
  8
_0-0_0
  6
CONTINUOUS
 62
    7
 10
327.64209858012384
 20
499.63273839932918
 11
327.48433963582983
 21
499.44026544872929
  0
LINE
  8
_0-0_0
  6
CONTINUOUS
 62
    7
 10
327.48433963582983
 20
499.44026544872929
 11
327.31507637154215
 21
499.25816611086708
  0
LINE
  8
_0-0_0
  6
CONTINUOUS
 62
    7
 10
327.31507637154215
 20
499.25816611086708
 11
327.13492144335498
 21
499.08706207560772
  0
LINE
  8
_0-0_0
  6
CONTINUOUS
 62
    7
 10
327.13492144335498
 20
499.08706207560772
 11
326.94448750736257
 21
498.92757503281649
  0
LINE
  8
_0-0_0
  6
CONTINUOUS
 62
    7
 10
326.94448750736257
 20
498.92757503281649
 11
326.74438721965942
 21
498.78032667235891
  0
LINE
  8
_0-0_0
  6
CONTINUOUS
 62
    7
 10
326.74438721965942
 20
498.78032667235891
 11
326.53523323633999
 21
498.64593868409997
  0
LINE
  8
_0-0_0
  6
CONTINUOUS
 62
    7
 10
326.53523323633999
 20
498.64593868409997
 11
326.31763821349836
 21
498.52503275790548
  0
LINE
  8
_0-0_0
  6
CONTINUOUS
 62
    7
 10
326.31763821349836
 20
498.52503275790548
 11
326.09221480722903
 21
498.41823058364042
  0
LINE
  8
_0-0_0
  6
CONTINUOUS
 62
    7
 10
326.09221480722903
 20
498.41823058364042
 11
325.85957567362613
 21
498.32615385117009
  0
LINE
  8
_0-0_0
  6
CONTINUOUS
 62
    7
 10
325.85957567362613
 20
498.32615385117009
 11
325.62033346878422
 21
498.24942425036022
  0
LINE
  8
_0-0_0
  6
CONTINUOUS
 62
    7
 10
325.62033346878422
 20
498.24942425036022
 11
325.37510084879779
 21
498.18866347107559
  0
LINE
  8
_0-0_0
  6
CONTINUOUS
 62
    7
 10
325.37510084879779
 20
498.18866347107559
 11
325.12449046976087
 21
498.14449320318209
  0
LINE
  8
_0-0_0
  6
CONTINUOUS
 62
    7
 10
325.12449046976087
 20
498.14449320318209
 11
324.86911498776783
 21
498.11753513654457
  0
LINE
  8
_0-0_0
  6
CONTINUOUS
 62
    7
 10
324.86911498776783
 20
498.11753513654457
 11
324.60958705891329
 21
498.10841096102882
  0
LINE
  8
_0-0_0
  6
CONTINUOUS
 62
    7
 10
324.60958705891329
 20
498.10841096102882
 11
324.31137166255348
 21
498.11753513654457
  0
LINE
  8
_0-0_0
  6
CONTINUOUS
 62
    7
 10
324.31137166255348
 20
498.11753513654457
 11
324.02044384825416
 21
498.14449320318198
  0
LINE
  8
_0-0_0
  6
CONTINUOUS
 62
    7
 10
324.02044384825416
 20
498.14449320318198
 11
323.73728390813869
 21
498.18866347107576
  0
LINE
  8
_0-0_0
  6
CONTINUOUS
 62
    7
 10
323.73728390813869
 20
498.18866347107576
 11
323.46237213433051
 21
498.24942425036011
  0
LINE
  8
_0-0_0
  6
CONTINUOUS
 62
    7
 10
323.46237213433051
 20
498.24942425036011
 11
323.19618881895286
 21
498.32615385117026
  0
LINE
  8
_0-0_0
  6
CONTINUOUS
 62
    7
 10
323.19618881895286
 20
498.32615385117026
 11
322.93921425412918
 21
498.41823058364042
  0
LINE
  8
_0-0_0
  6
CONTINUOUS
 62
    7
 10
322.93921425412918
 20
498.41823058364042
 11
322.69192873198278
 21
498.52503275790548
  0
LINE
  8
_0-0_0
  6
CONTINUOUS
 62
    7
 10
322.69192873198278
 20
498.52503275790548
 11
322.45481254463692
 21
498.64593868409997
  0
LINE
  8
_0-0_0
  6
CONTINUOUS
 62
    7
 10
322.45481254463692
 20
498.64593868409997
 11
322.22834598421485
 21
498.7803266723588
  0
LINE
  8
_0-0_0
  6
CONTINUOUS
 62
    7
 10
322.22834598421485
 20
498.7803266723588
 11
322.01300934284029
 21
498.92757503281649
  0
LINE
  8
_0-0_0
  6
CONTINUOUS
 62
    7
 10
322.01300934284029
 20
498.92757503281649
 11
321.80928291263632
 21
499.08706207560778
  0
LINE
  8
_0-0_0
  6
CONTINUOUS
 62
    7
 10
321.80928291263632
 20
499.08706207560778
 11
321.61764698572625
 21
499.25816611086708
  0
LINE
  8
_0-0_0
  6
CONTINUOUS
 62
    7
 10
321.61764698572625
 20
499.25816611086708
 11
321.43858185423358
 21
499.44026544872929
  0
LINE
  8
_0-0_0
  6
CONTINUOUS
 62
    7
 10
321.43858185423358
 20
499.44026544872929
 11
321.2725678102816
 21
499.63273839932913
  0
LINE
  8
_0-0_0
  6
CONTINUOUS
 62
    7
 10
321.2725678102816
 20
499.63273839932913
 11
321.12008514599353
 21
499.83496327280108
  0
LINE
  8
_0-0_0
  6
CONTINUOUS
 62
    7
 10
321.12008514599353
 20
499.83496327280108
 11
320.9816141534929
 21
500.04631837928002
  0
LINE
  8
_0-0_0
  6
CONTINUOUS
 62
    7
 10
320.9816141534929
 20
500.04631837928002
 11
320.85763512490291
 21
500.26618202890029
  0
LINE
  8
_0-0_0
  6
CONTINUOUS
 62
    7
 10
320.85763512490291
 20
500.26618202890029
 11
320.74862835234694
 21
500.49393253179687
  0
LINE
  8
_0-0_0
  6
CONTINUOUS
 62
    7
 10
320.74862835234694
 20
500.49393253179687
 11
320.65507412794835
 21
500.72894819810426
  0
LINE
  8
_0-0_0
  6
CONTINUOUS
 62
    7
 10
320.65507412794835
 20
500.72894819810426
 11
320.57745274383052
 21
500.97060733795718
  0
LINE
  8
_0-0_0
  6
CONTINUOUS
 62
    7
 10
320.57745274383052
 20
500.97060733795718
 11
320.51624449211681
 21
501.21828826149027
  0
LINE
  8
_0-0_0
  6
CONTINUOUS
 62
    7
 10
320.51624449211681
 20
501.21828826149027
 11
320.47192966493043
 21
501.47136927883832
  0
LINE
  8
_0-0_0
  6
CONTINUOUS
 62
    7
 10
320.47192966493043
 20
501.47136927883832
 11
320.44498855439485
 21
501.72922870013576
  0
LINE
  8
_0-0_0
  6
CONTINUOUS
 62
    7
 10
320.44498855439485
 20
501.72922870013576
 11
320.4359014526334
 21
501.99124483551748
  0
LINE
  8
_0-0_0
  6
CONTINUOUS
 62
    7
 10
320.4359014526334
 20
501.99124483551748
 11
320.44498855439485
 21
502.29341002121771
  0
LINE
  8
_0-0_0
  6
CONTINUOUS
 62
    7
 10
320.44498855439485
 20
502.29341002121771
 11
320.47192966493043
 21
502.58807475780418
  0
LINE
  8
_0-0_0
  6
CONTINUOUS
 62
    7
 10
320.47192966493043
 20
502.58807475780418
 11
320.51624449211687
 21
502.87476273519542
  0
LINE
  8
_0-0_0
  6
CONTINUOUS
 62
    7
 10
320.51624449211687
 20
502.87476273519542
 11
320.57745274383052
 21
503.15299764331007
  0
LINE
  8
_0-0_0
  6
CONTINUOUS
 62
    7
 10
320.57745274383052
 20
503.15299764331007
 11
320.65507412794852
 21
503.42230317206662
  0
LINE
  8
_0-0_0
  6
CONTINUOUS
 62
    7
 10
320.65507412794852
 20
503.42230317206662
 11
320.74862835234694
 21
503.68220301138371
  0
LINE
  8
_0-0_0
  6
CONTINUOUS
 62
    7
 10
320.74862835234694
 20
503.68220301138371
 11
320.85763512490291
 21
503.93222085117986
  0
LINE
  8
_0-0_0
  6
CONTINUOUS
 62
    7
 10
320.85763512490291
 20
503.93222085117986
 11
320.9816141534929
 21
504.17188038137351
  0
LINE
  8
_0-0_0
  6
CONTINUOUS
 62
    7
 10
320.9816141534929
 20
504.17188038137351
 11
321.12008514599353
 21
504.40070529188353
  0
LINE
  8
_0-0_0
  6
CONTINUOUS
 62
    7
 10
321.12008514599353
 20
504.40070529188353
 11
321.27256781028143
 21
504.61821927262798
  0
LINE
  8
_0-0_0
  6
CONTINUOUS
 62
    7
 10
321.27256781028143
 20
504.61821927262798
 11
321.43858185423358
 21
504.82394601352598
  0
LINE
  8
_0-0_0
  6
CONTINUOUS
 62
    7
 10
321.43858185423358
 20
504.82394601352598
 11
321.61764698572625
 21
505.01740920449578
  0
LINE
  8
_0-0_0
  6
CONTINUOUS
 62
    7
 10
321.61764698572625
 20
505.01740920449578
 11
321.80928291263626
 21
505.19813253545601
  0
LINE
  8
_0-0_0
  6
CONTINUOUS
 62
    7
 10
321.80928291263626
 20
505.19813253545601
 11
322.01300934284029
 21
505.36563969632527
  0
LINE
  8
_0-0_0
  6
CONTINUOUS
 62
    7
 10
322.01300934284029
 20
505.36563969632527
 11
322.22834598421485
 21
505.51945437702187
  0
LINE
  8
_0-0_0
  6
CONTINUOUS
 62
    7
 10
322.22834598421485
 20
505.51945437702187
 11
322.45481254463692
 21
505.65910026746462
  0
LINE
  8
_0-0_0
  6
CONTINUOUS
 62
    7
 10
322.45481254463692
 20
505.65910026746462
 11
322.69192873198273
 21
505.78410105757212
  0
LINE
  8
_0-0_0
  6
CONTINUOUS
 62
    7
 10
322.69192873198273
 20
505.78410105757212
 11
322.93921425412918
 21
505.893980437263
  0
LINE
  8
_0-0_0
  6
CONTINUOUS
 62
    7
 10
322.93921425412918
 20
505.893980437263
 11
323.19618881895286
 21
505.9882620964554
  0
LINE
  8
_0-0_0
  6
CONTINUOUS
 62
    7
 10
323.19618881895286
 20
505.9882620964554
 11
323.46237213433051
 21
506.06646972506837
  0
LINE
  8
_0-0_0
  6
CONTINUOUS
 62
    7
 10
323.46237213433051
 20
506.06646972506837
 11
323.73728390813869
 21
506.12812701302011
  0
LINE
  8
_0-0_0
  6
CONTINUOUS
 62
    7
 10
323.73728390813869
 20
506.12812701302011
 11
324.0204438482541
 21
506.1727576502293
  0
LINE
  8
_0-0_0
  6
CONTINUOUS
 62
    7
 10
324.0204438482541
 20
506.1727576502293
 11
324.31137166255348
 21
506.19988532661461
  0
LINE
  8
_0-0_0
  6
CONTINUOUS
 62
    7
 10
324.31137166255348
 20
506.19988532661461
 11
324.60958705891329
 21
506.20903373209438
  0
LINE
  8
_0-0_0
  6
CONTINUOUS
 62
    7
 10
324.60958705891329
 20
506.20903373209438
 11
324.86911498776783
 21
506.19988532661461
  0
LINE
  8
_0-0_0
  6
CONTINUOUS
 62
    7
 10
324.86911498776783
 20
506.19988532661461
 11
325.12449046976081
 21
506.17275765022941
  0
LINE
  8
_0-0_0
  6
CONTINUOUS
 62
    7
 10
325.12449046976081
 20
506.17275765022941
 11
325.37510084879762
 21
506.12812701301999
  0
LINE
  8
_0-0_0
  6
CONTINUOUS
 62
    7
 10
325.37510084879762
 20
506.12812701301999
 11
325.62033346878422
 21
506.06646972506837
  0
LINE
  8
_0-0_0
  6
CONTINUOUS
 62
    7
 10
325.62033346878422
 20
506.06646972506837
 11
325.85957567362613
 21
505.98826209645563
  0
LINE
  8
_0-0_0
  6
CONTINUOUS
 62
    7
 10
325.85957567362613
 20
505.98826209645563
 11
326.09221480722886
 21
505.893980437263
  0
LINE
  8
_0-0_0
  6
CONTINUOUS
 62
    7
 10
326.09221480722886
 20
505.893980437263
 11
326.31763821349836
 21
505.78410105757229
  0
LINE
  8
_0-0_0
  6
CONTINUOUS
 62
    7
 10
326.31763821349836
 20
505.78410105757229
 11
326.53523323633999
 21
505.65910026746496
  0
LINE
  8
_0-0_0
  6
CONTINUOUS
 62
    7
 10
326.53523323633999
 20
505.65910026746496
 11
326.74438721965942
 21
505.51945437702187
  0
LINE
  8
_0-0_0
  6
CONTINUOUS
 62
    7
 10
326.74438721965942
 20
505.51945437702187
 11
326.94448750736257
 21
505.36563969632527
  0
LINE
  8
_0-0_0
  6
CONTINUOUS
 62
    7
 10
326.94448750736257
 20
505.36563969632527
 11
327.13492144335487
 21
505.19813253545601
  0
LINE
  8
_0-0_0
  6
CONTINUOUS
 62
    7
 10
327.13492144335487
 20
505.19813253545601
 11
327.31507637154215
 21
505.01740920449578
  0
LINE
  8
_0-0_0
  6
CONTINUOUS
 62
    7
 10
327.31507637154215
 20
505.01740920449578
 11
327.48433963582983
 21
504.82394601352598
  0
LINE
  8
_0-0_0
  6
CONTINUOUS
 62
    7
 10
327.48433963582983
 20
504.82394601352598
 11
327.64209858012379
 21
504.61821927262798
  0
LINE
  8
_0-0_0
  6
CONTINUOUS
 62
    7
 10
327.64209858012379
 20
504.61821927262798
 11
327.78774054832957
 21
504.40070529188341
  0
LINE
  8
_0-0_0
  6
CONTINUOUS
 62
    7
 10
327.78774054832957
 20
504.40070529188341
 11
327.92065288435282
 21
504.17188038137351
  0
LINE
  8
_0-0_0
  6
CONTINUOUS
 62
    7
 10
327.92065288435282
 20
504.17188038137351
 11
328.04022293209925
 21
503.93222085117986
  0
LINE
  8
_0-0_0
  6
CONTINUOUS
 62
    7
 10
328.04022293209925
 20
503.93222085117986
 11
328.14583803547453
 21
503.68220301138376
  0
LINE
  8
_0-0_0
  6
CONTINUOUS
 62
    7
 10
328.14583803547453
 20
503.68220301138376
 11
328.23688553838406
 21
503.42230317206668
  0
LINE
  8
_0-0_0
  6
CONTINUOUS
 62
    7
 10
328.23688553838406
 20
503.42230317206668
 11
328.31275278473385
 21
503.15299764331007
  0
LINE
  8
_0-0_0
  6
CONTINUOUS
 62
    7
 10
328.31275278473385
 20
503.15299764331007
 11
328.37282711842937
 21
502.87476273519542
  0
LINE
  8
_0-0_0
  6
CONTINUOUS
 62
    7
 10
328.37282711842937
 20
502.87476273519542
 11
328.4164958833764
 21
502.58807475780418
  0
LINE
  8
_0-0_0
  6
CONTINUOUS
 62
    7
 10
328.4164958833764
 20
502.58807475780418
 11
328.44314642348036
 21
502.29341002121782
  0
LINE
  8
_0-0_0
  6
CONTINUOUS
 62
    7
 10
328.44314642348036
 20
502.29341002121782
 11
328.45216608264712
 21
501.99124483551748
  0
LINE
  8
_0-0_0
  6
CONTINUOUS
 62
    7
 10
381.9694458191085
 20
603.5883917988433
 11
381.95700486644375
 21
603.27275252146194
  0
LINE
  8
_0-0_0
  6
CONTINUOUS
 62
    7
 10
381.95700486644375
 20
603.27275252146194
 11
381.92038290719091
 21
602.95896874921698
  0
LINE
  8
_0-0_0
  6
CONTINUOUS
 62
    7
 10
381.92038290719091
 20
602.95896874921698
 11
381.86063128946267
 21
602.64806961794704
  0
LINE
  8
_0-0_0
  6
CONTINUOUS
 62
    7
 10
381.86063128946267
 20
602.64806961794704
 11
381.77880136137162
 21
602.34108426349098
  0
LINE
  8
_0-0_0
  6
CONTINUOUS
 62
    7
 10
381.77880136137162
 20
602.34108426349098
 11
381.67594447103022
 21
602.03904182168719
  0
LINE
  8
_0-0_0
  6
CONTINUOUS
 62
    7
 10
381.67594447103022
 20
602.03904182168719
 11
381.55311196655077
 21
601.7429714283744
  0
LINE
  8
_0-0_0
  6
CONTINUOUS
 62
    7
 10
381.55311196655077
 20
601.7429714283744
 11
381.41135519604609
 21
601.45390221939124
  0
LINE
  8
_0-0_0
  6
CONTINUOUS
 62
    7
 10
381.41135519604609
 20
601.45390221939124
 11
381.25172550762875
 21
601.17286333057632
  0
LINE
  8
_0-0_0
  6
CONTINUOUS
 62
    7
 10
381.25172550762875
 20
601.17286333057632
 11
381.075274249411
 21
600.90088389776804
  0
LINE
  8
_0-0_0
  6
CONTINUOUS
 62
    7
 10
381.075274249411
 20
600.90088389776804
 11
380.88305276950553
 21
600.63899305680525
  0
LINE
  8
_0-0_0
  6
CONTINUOUS
 62
    7
 10
380.88305276950553
 20
600.63899305680525
 11
380.67611241602458
 21
600.38821994352645
  0
LINE
  8
_0-0_0
  6
CONTINUOUS
 62
    7
 10
380.67611241602458
 20
600.38821994352645
 11
380.45550453708108
 21
600.14959369377038
  0
LINE
  8
_0-0_0
  6
CONTINUOUS
 62
    7
 10
380.45550453708108
 20
600.14959369377038
 11
380.22228048078722
 21
599.92414344337556
  0
LINE
  8
_0-0_0
  6
CONTINUOUS
 62
    7
 10
380.22228048078722
 20
599.92414344337556
 11
379.97749159525591
 21
599.71289832818059
  0
LINE
  8
_0-0_0
  6
CONTINUOUS
 62
    7
 10
379.97749159525591
 20
599.71289832818059
 11
379.72218922859918
 21
599.5168874840241
  0
LINE
  8
_0-0_0
  6
CONTINUOUS
 62
    7
 10
379.72218922859918
 20
599.5168874840241
 11
379.45742472892988
 21
599.33714004674471
  0
LINE
  8
_0-0_0
  6
CONTINUOUS
 62
    7
 10
379.45742472892988
 20
599.33714004674471
 11
379.1842494443606
 21
599.17468515218104
  0
LINE
  8
_0-0_0
  6
CONTINUOUS
 62
    7
 10
379.1842494443606
 20
599.17468515218104
 11
378.90371472300342
 21
599.03055193617161
  0
LINE
  8
_0-0_0
  6
CONTINUOUS
 62
    7
 10
378.90371472300342
 20
599.03055193617161
 11
378.61687191297142
 21
598.90576953455525
  0
LINE
  8
_0-0_0
  6
CONTINUOUS
 62
    7
 10
378.61687191297142
 20
598.90576953455525
 11
378.32477236237662
 21
598.80136708317036
  0
LINE
  8
_0-0_0
  6
CONTINUOUS
 62
    7
 10
378.32477236237662
 20
598.80136708317036
 11
378.028467419332
 21
598.71837371785568
  0
LINE
  8
_0-0_0
  6
CONTINUOUS
 62
    7
 10
378.028467419332
 20
598.71837371785568
 11
377.72900843194981
 21
598.65781857444972
  0
LINE
  8
_0-0_0
  6
CONTINUOUS
 62
    7
 10
377.72900843194981
 20
598.65781857444972
 11
377.4274467483425
 21
598.62073078879121
  0
LINE
  8
_0-0_0
  6
CONTINUOUS
 62
    7
 10
377.4274467483425
 20
598.62073078879121
 11
377.12483371662279
 21
598.60813949671865
  0
LINE
  8
_0-0_0
  6
CONTINUOUS
 62
    7
 10
377.12483371662279
 20
598.60813949671865
 11
376.73412174702321
 21
598.62073078879121
  0
LINE
  8
_0-0_0
  6
CONTINUOUS
 62
    7
 10
376.73412174702321
 20
598.62073078879121
 11
376.35518638901488
 21
598.65781857444972
  0
LINE
  8
_0-0_0
  6
CONTINUOUS
 62
    7
 10
376.35518638901488
 20
598.65781857444972
 11
375.98845877096068
 21
598.7183737178558
  0
LINE
  8
_0-0_0
  6
CONTINUOUS
 62
    7
 10
375.98845877096068
 20
598.7183737178558
 11
375.63437002122305
 21
598.80136708317025
  0
LINE
  8
_0-0_0
  6
CONTINUOUS
 62
    7
 10
375.63437002122305
 20
598.80136708317025
 11
375.29335126816483
 21
598.90576953455536
  0
LINE
  8
_0-0_0
  6
CONTINUOUS
 62
    7
 10
375.29335126816483
 20
598.90576953455536
 11
374.96583364014873
 21
599.03055193617172
  0
LINE
  8
_0-0_0
  6
CONTINUOUS
 62
    7
 10
374.96583364014873
 20
599.03055193617172
 11
374.65224826553742
 21
599.17468515218115
  0
LINE
  8
_0-0_0
  6
CONTINUOUS
 62
    7
 10
374.65224826553742
 20
599.17468515218115
 11
374.35302627269351
 21
599.33714004674471
  0
LINE
  8
_0-0_0
  6
CONTINUOUS
 62
    7
 10
374.35302627269351
 20
599.33714004674471
 11
374.06859878997972
 21
599.5168874840241
  0
LINE
  8
_0-0_0
  6
CONTINUOUS
 62
    7
 10
374.06859878997972
 20
599.5168874840241
 11
373.79939694575864
 21
599.71289832818059
  0
LINE
  8
_0-0_0
  6
CONTINUOUS
 62
    7
 10
373.79939694575864
 20
599.71289832818059
 11
373.5458518683933
 21
599.92414344337556
  0
LINE
  8
_0-0_0
  6
CONTINUOUS
 62
    7
 10
373.5458518683933
 20
599.92414344337556
 11
373.30839468624589
 21
600.14959369377038
  0
LINE
  8
_0-0_0
  6
CONTINUOUS
 62
    7
 10
373.30839468624589
 20
600.14959369377038
 11
373.08745652767959
 21
600.38821994352656
  0
LINE
  8
_0-0_0
  6
CONTINUOUS
 62
    7
 10
373.08745652767959
 20
600.38821994352656
 11
372.88346852105667
 21
600.63899305680525
  0
LINE
  8
_0-0_0
  6
CONTINUOUS
 62
    7
 10
372.88346852105667
 20
600.63899305680525
 11
372.69686179474007
 21
600.90088389776804
  0
LINE
  8
_0-0_0
  6
CONTINUOUS
 62
    7
 10
372.69686179474007
 20
600.90088389776804
 11
372.52806747709252
 21
601.17286333057632
  0
LINE
  8
_0-0_0
  6
CONTINUOUS
 62
    7
 10
372.52806747709252
 20
601.17286333057632
 11
372.37751669647639
 21
601.45390221939124
  0
LINE
  8
_0-0_0
  6
CONTINUOUS
 62
    7
 10
372.37751669647639
 20
601.45390221939124
 11
372.24564058125458
 21
601.7429714283744
  0
LINE
  8
_0-0_0
  6
CONTINUOUS
 62
    7
 10
372.24564058125458
 20
601.7429714283744
 11
372.13287025978991
 21
602.03904182168719
  0
LINE
  8
_0-0_0
  6
CONTINUOUS
 62
    7
 10
372.13287025978991
 20
602.03904182168719
 11
372.03963686044472
 21
602.34108426349098
  0
LINE
  8
_0-0_0
  6
CONTINUOUS
 62
    7
 10
372.03963686044472
 20
602.34108426349098
 11
371.96637151158222
 21
602.64806961794704
  0
LINE
  8
_0-0_0
  6
CONTINUOUS
 62
    7
 10
371.96637151158222
 20
602.64806961794704
 11
371.91350534156447
 21
602.95896874921687
  0
LINE
  8
_0-0_0
  6
CONTINUOUS
 62
    7
 10
371.91350534156447
 20
602.95896874921687
 11
371.88146947875464
 21
603.27275252146183
  0
LINE
  8
_0-0_0
  6
CONTINUOUS
 62
    7
 10
371.88146947875464
 20
603.27275252146183
 11
371.87069505151521
 21
603.5883917988433
  0
LINE
  8
_0-0_0
  6
CONTINUOUS
 62
    7
 10
371.87069505151521
 20
603.5883917988433
 11
371.88146947875458
 21
603.89502805052871
  0
LINE
  8
_0-0_0
  6
CONTINUOUS
 62
    7
 10
371.88146947875458
 20
603.89502805052871
 11
371.91350534156447
 21
604.20051465418635
  0
LINE
  8
_0-0_0
  6
CONTINUOUS
 62
    7
 10
371.91350534156447
 20
604.20051465418635
 11
371.96637151158222
 21
604.50379378059915
  0
LINE
  8
_0-0_0
  6
CONTINUOUS
 62
    7
 10
371.96637151158222
 20
604.50379378059915
 11
372.03963686044472
 21
604.80380760054993
  0
LINE
  8
_0-0_0
  6
CONTINUOUS
 62
    7
 10
372.03963686044472
 20
604.80380760054993
 11
372.13287025978991
 21
605.09949828482195
  0
LINE
  8
_0-0_0
  6
CONTINUOUS
 62
    7
 10
372.13287025978991
 20
605.09949828482195
 11
372.24564058125458
 21
605.3898080041979
  0
LINE
  8
_0-0_0
  6
CONTINUOUS
 62
    7
 10
372.24564058125458
 20
605.3898080041979
 11
372.37751669647628
 21
605.67367892946095
  0
LINE
  8
_0-0_0
  6
CONTINUOUS
 62
    7
 10
372.37751669647628
 20
605.67367892946095
 11
372.52806747709235
 21
605.95005323139401
  0
LINE
  8
_0-0_0
  6
CONTINUOUS
 62
    7
 10
372.52806747709235
 20
605.95005323139401
 11
372.69686179474007
 21
606.21787308078024
  0
LINE
  8
_0-0_0
  6
CONTINUOUS
 62
    7
 10
372.69686179474007
 20
606.21787308078024
 11
372.88346852105667
 21
606.47608064840244
  0
LINE
  8
_0-0_0
  6
CONTINUOUS
 62
    7
 10
372.88346852105667
 20
606.47608064840244
 11
373.08745652767959
 21
606.72361810504356
  0
LINE
  8
_0-0_0
  6
CONTINUOUS
 62
    7
 10
373.08745652767959
 20
606.72361810504356
 11
373.30839468624589
 21
606.95942762148684
  0
LINE
  8
_0-0_0
  6
CONTINUOUS
 62
    7
 10
373.30839468624589
 20
606.95942762148684
 11
373.54585186839313
 21
607.18245136851488
  0
LINE
  8
_0-0_0
  6
CONTINUOUS
 62
    7
 10
373.54585186839313
 20
607.18245136851488
 11
373.79939694575882
 21
607.39163151691105
  0
LINE
  8
_0-0_0
  6
CONTINUOUS
 62
    7
 10
373.79939694575882
 20
607.39163151691105
 11
374.06859878997972
 21
607.58591023745817
  0
LINE
  8
_0-0_0
  6
CONTINUOUS
 62
    7
 10
374.06859878997972
 20
607.58591023745817
 11
374.35302627269357
 21
607.76422970093927
  0
LINE
  8
_0-0_0
  6
CONTINUOUS
 62
    7
 10
374.35302627269357
 20
607.76422970093927
 11
374.65224826553742
 21
607.92553207813717
  0
LINE
  8
_0-0_0
  6
CONTINUOUS
 62
    7
 10
374.65224826553742
 20
607.92553207813717
 11
374.96583364014873
 21
608.06875953983513
  0
LINE
  8
_0-0_0
  6
CONTINUOUS
 62
    7
 10
374.96583364014873
 20
608.06875953983513
 11
375.29335126816483
 21
608.19285425681574
  0
LINE
  8
_0-0_0
  6
CONTINUOUS
 62
    7
 10
375.29335126816483
 20
608.19285425681574
 11
375.63437002122299
 21
608.29675839986248
  0
LINE
  8
_0-0_0
  6
CONTINUOUS
 62
    7
 10
375.63437002122299
 20
608.29675839986248
 11
375.98845877096062
 21
608.37941413975796
  0
LINE
  8
_0-0_0
  6
CONTINUOUS
 62
    7
 10
375.98845877096062
 20
608.37941413975796
 11
376.35518638901493
 21
608.43976364728542
  0
LINE
  8
_0-0_0
  6
CONTINUOUS
 62
    7
 10
376.35518638901493
 20
608.43976364728542
 11
376.73412174702321
 21
608.4767490932278
  0
LINE
  8
_0-0_0
  6
CONTINUOUS
 62
    7
 10
376.73412174702321
 20
608.4767490932278
 11
377.12483371662279
 21
608.48931264836779
  0
LINE
  8
_0-0_0
  6
CONTINUOUS
 62
    7
 10
377.12483371662279
 20
608.48931264836779
 11
377.4274467483425
 21
608.47674909322768
  0
LINE
  8
_0-0_0
  6
CONTINUOUS
 62
    7
 10
377.4274467483425
 20
608.47674909322768
 11
377.72900843194981
 21
608.43976364728542
  0
LINE
  8
_0-0_0
  6
CONTINUOUS
 62
    7
 10
377.72900843194981
 20
608.43976364728542
 11
378.028467419332
 21
608.37941413975796
  0
LINE
  8
_0-0_0
  6
CONTINUOUS
 62
    7
 10
378.028467419332
 20
608.37941413975796
 11
378.32477236237662
 21
608.29675839986237
  0
LINE
  8
_0-0_0
  6
CONTINUOUS
 62
    7
 10
378.32477236237662
 20
608.29675839986237
 11
378.61687191297142
 21
608.19285425681585
  0
LINE
  8
_0-0_0
  6
CONTINUOUS
 62
    7
 10
378.61687191297142
 20
608.19285425681585
 11
378.90371472300342
 21
608.06875953983501
  0
LINE
  8
_0-0_0
  6
CONTINUOUS
 62
    7
 10
378.90371472300342
 20
608.06875953983501
 11
379.18424944436049
 21
607.92553207813717
  0
LINE
  8
_0-0_0
  6
CONTINUOUS
 62
    7
 10
379.18424944436049
 20
607.92553207813717
 11
379.45742472892988
 21
607.76422970093915
  0
LINE
  8
_0-0_0
  6
CONTINUOUS
 62
    7
 10
379.45742472892988
 20
607.76422970093915
 11
379.72218922859918
 21
607.58591023745817
  0
LINE
  8
_0-0_0
  6
CONTINUOUS
 62
    7
 10
379.72218922859918
 20
607.58591023745817
 11
379.97749159525574
 21
607.39163151691105
  0
LINE
  8
_0-0_0
  6
CONTINUOUS
 62
    7
 10
379.97749159525574
 20
607.39163151691105
 11
380.22228048078722
 21
607.18245136851488
  0
LINE
  8
_0-0_0
  6
CONTINUOUS
 62
    7
 10
380.22228048078722
 20
607.18245136851488
 11
380.45550453708103
 21
606.95942762148673
  0
LINE
  8
_0-0_0
  6
CONTINUOUS
 62
    7
 10
380.45550453708103
 20
606.95942762148673
 11
380.67611241602458
 21
606.72361810504356
  0
LINE
  8
_0-0_0
  6
CONTINUOUS
 62
    7
 10
380.67611241602458
 20
606.72361810504356
 11
380.88305276950541
 21
606.47608064840233
  0
LINE
  8
_0-0_0
  6
CONTINUOUS
 62
    7
 10
380.88305276950541
 20
606.47608064840233
 11
381.07527424941088
 21
606.21787308078024
  0
LINE
  8
_0-0_0
  6
CONTINUOUS
 62
    7
 10
381.07527424941088
 20
606.21787308078024
 11
381.25172550762869
 21
605.95005323139412
  0
LINE
  8
_0-0_0
  6
CONTINUOUS
 62
    7
 10
381.25172550762869
 20
605.95005323139412
 11
381.4113551960462
 21
605.67367892946095
  0
LINE
  8
_0-0_0
  6
CONTINUOUS
 62
    7
 10
381.4113551960462
 20
605.67367892946095
 11
381.55311196655083
 21
605.3898080041979
  0
LINE
  8
_0-0_0
  6
CONTINUOUS
 62
    7
 10
381.55311196655083
 20
605.3898080041979
 11
381.67594447103022
 21
605.09949828482195
  0
LINE
  8
_0-0_0
  6
CONTINUOUS
 62
    7
 10
381.67594447103022
 20
605.09949828482195
 11
381.77880136137162
 21
604.80380760054993
  0
LINE
  8
_0-0_0
  6
CONTINUOUS
 62
    7
 10
381.77880136137162
 20
604.80380760054993
 11
381.86063128946267
 21
604.50379378059915
  0
LINE
  8
_0-0_0
  6
CONTINUOUS
 62
    7
 10
381.86063128946267
 20
604.50379378059915
 11
381.92038290719091
 21
604.20051465418646
  0
LINE
  8
_0-0_0
  6
CONTINUOUS
 62
    7
 10
381.92038290719091
 20
604.20051465418646
 11
381.9570048664437
 21
603.89502805052894
  0
LINE
  8
_0-0_0
  6
CONTINUOUS
 62
    7
 10
381.9570048664437
 20
603.89502805052894
 11
381.9694458191085
 21
603.5883917988433
  0
LINE
  8
_0-0_0
  6
CONTINUOUS
 62
    7
 10
520.25560847835425
 20
526.45738788258063
 11
521.65770381123048
 21
526.45738788258075
  0
LINE
  8
_0-0_0
  6
CONTINUOUS
 62
    7
 10
521.65770381123048
 20
526.45738788258075
 11
522.94302838011322
 21
526.45738788258063
  0
LINE
  8
_0-0_0
  6
CONTINUOUS
 62
    7
 10
522.94302838011322
 20
526.45738788258063
 11
524.1166591747417
 21
526.45738788258063
  0
LINE
  8
_0-0_0
  6
CONTINUOUS
 62
    7
 10
524.1166591747417
 20
526.45738788258063
 11
525.18367318485446
 21
526.45738788258063
  0
LINE
  8
_0-0_0
  6
CONTINUOUS
 62
    7
 10
525.18367318485446
 20
526.45738788258063
 11
526.1491474001906
 21
526.45738788258075
  0
LINE
  8
_0-0_0
  6
CONTINUOUS
 62
    7
 10
526.1491474001906
 20
526.45738788258075
 11
527.01815881048833
 21
526.45738788258063
  0
LINE
  8
_0-0_0
  6
CONTINUOUS
 62
    7
 10
527.01815881048833
 20
526.45738788258063
 11
527.79578440548732
 21
526.45738788258063
  0
LINE
  8
_0-0_0
  6
CONTINUOUS
 62
    7
 10
527.79578440548732
 20
526.45738788258063
 11
528.48710117492601
 21
526.45738788258063
  0
LINE
  8
_0-0_0
  6
CONTINUOUS
 62
    7
 10
528.48710117492601
 20
526.45738788258063
 11
529.09718610854327
 21
526.45738788258063
  0
LINE
  8
_0-0_0
  6
CONTINUOUS
 62
    7
 10
529.09718610854327
 20
526.45738788258063
 11
529.63111619607776
 21
526.45738788258063
  0
LINE
  8
_0-0_0
  6
CONTINUOUS
 62
    7
 10
529.63111619607776
 20
526.45738788258063
 11
530.09396842726869
 21
526.45738788258063
  0
LINE
  8
_0-0_0
  6
CONTINUOUS
 62
    7
 10
530.09396842726869
 20
526.45738788258063
 11
530.49081979185473
 21
526.45738788258063
  0
LINE
  8
_0-0_0
  6
CONTINUOUS
 62
    7
 10
530.49081979185473
 20
526.45738788258063
 11
530.82674727957453
 21
526.45738788258063
  0
LINE
  8
_0-0_0
  6
CONTINUOUS
 62
    7
 10
530.82674727957453
 20
526.45738788258063
 11
531.10682788016697
 21
526.45738788258052
  0
LINE
  8
_0-0_0
  6
CONTINUOUS
 62
    7
 10
531.10682788016697
 20
526.45738788258052
 11
531.33613858337151
 21
526.45738788258075
  0
LINE
  8
_0-0_0
  6
CONTINUOUS
 62
    7
 10
531.33613858337151
 20
526.45738788258075
 11
531.5197563789261
 21
526.45738788258063
  0
LINE
  8
_0-0_0
  6
CONTINUOUS
 62
    7
 10
531.5197563789261
 20
526.45738788258063
 11
531.66275825657021
 21
526.45738788258075
  0
LINE
  8
_0-0_0
  6
CONTINUOUS
 62
    7
 10
531.66275825657021
 20
526.45738788258075
 11
531.77022120604215
 21
526.45738788258063
  0
LINE
  8
_0-0_0
  6
CONTINUOUS
 62
    7
 10
531.77022120604215
 20
526.45738788258063
 11
531.84722221708125
 21
526.45738788258063
  0
LINE
  8
_0-0_0
  6
CONTINUOUS
 62
    7
 10
531.84722221708125
 20
526.45738788258063
 11
531.89883827942617
 21
526.45738788258063
  0
LINE
  8
_0-0_0
  6
CONTINUOUS
 62
    7
 10
531.89883827942617
 20
526.45738788258063
 11
531.93014638281568
 21
526.45738788258063
  0
LINE
  8
_0-0_0
  6
CONTINUOUS
 62
    7
 10
531.93014638281568
 20
526.45738788258063
 11
531.94622351698865
 21
526.45738788258063
  0
LINE
  8
_0-0_0
  6
CONTINUOUS
 62
    7
 10
531.94622351698865
 20
526.45738788258063
 11
531.95214667168398
 21
526.45738788258063
  0
LINE
  8
_0-0_0
  6
CONTINUOUS
 62
    7
 10
531.95214667168398
 20
526.45738788258063
 11
531.95299283664042
 21
526.45738788258063
  0
LINE
  8
_0-0_0
  6
CONTINUOUS
 62
    7
 10
531.95299283664042
 20
526.45738788258063
 11
532.39364398862801
 21
526.43964281122135
  0
LINE
  8
_0-0_0
  6
CONTINUOUS
 62
    7
 10
532.39364398862801
 20
526.43964281122135
 11
532.81894074048205
 21
526.38780469056746
  0
LINE
  8
_0-0_0
  6
CONTINUOUS
 62
    7
 10
532.81894074048205
 20
526.38780469056746
 11
533.2285811145905
 21
526.30396916075563
  0
LINE
  8
_0-0_0
  6
CONTINUOUS
 62
    7
 10
533.2285811145905
 20
526.30396916075563
 11
533.62226313334099
 21
526.19023186192192
  0
LINE
  8
_0-0_0
  6
CONTINUOUS
 62
    7
 10
533.62226313334099
 20
526.19023186192192
 11
533.99968481912106
 21
526.04868843420297
  0
LINE
  8
_0-0_0
  6
CONTINUOUS
 62
    7
 10
533.99968481912106
 20
526.04868843420297
 11
534.36054419431855
 21
525.88143451773476
  0
LINE
  8
_0-0_0
  6
CONTINUOUS
 62
    7
 10
534.36054419431855
 20
525.88143451773476
 11
534.7045392813211
 21
525.69056575265415
  0
LINE
  8
_0-0_0
  6
CONTINUOUS
 62
    7
 10
534.7045392813211
 20
525.69056575265415
 11
535.03136810251658
 21
525.47817777909722
  0
LINE
  8
_0-0_0
  6
CONTINUOUS
 62
    7
 10
535.03136810251658
 20
525.47817777909722
 11
535.34072868029227
 21
525.24636623720028
  0
LINE
  8
_0-0_0
  6
CONTINUOUS
 62
    7
 10
535.34072868029227
 20
525.24636623720028
 11
535.63231903703638
 21
524.99722676709962
  0
LINE
  8
_0-0_0
  6
CONTINUOUS
 62
    7
 10
535.63231903703638
 20
524.99722676709962
 11
535.9058371951362
 21
524.73285500893201
  0
LINE
  8
_0-0_0
  6
CONTINUOUS
 62
    7
 10
535.9058371951362
 20
524.73285500893201
 11
536.16098117697959
 21
524.4553466028334
  0
LINE
  8
_0-0_0
  6
CONTINUOUS
 62
    7
 10
536.16098117697959
 20
524.4553466028334
 11
536.39744900495418
 21
524.16679718894034
  0
LINE
  8
_0-0_0
  6
CONTINUOUS
 62
    7
 10
536.39744900495418
 20
524.16679718894034
 11
536.61493870144773
 21
523.86930240738923
  0
LINE
  8
_0-0_0
  6
CONTINUOUS
 62
    7
 10
536.61493870144773
 20
523.86930240738923
 11
536.81314828884774
 21
523.56495789831627
  0
LINE
  8
_0-0_0
  6
CONTINUOUS
 62
    7
 10
536.81314828884774
 20
523.56495789831627
 11
536.99177578954243
 21
523.25585930185787
  0
LINE
  8
_0-0_0
  6
CONTINUOUS
 62
    7
 10
536.99177578954243
 20
523.25585930185787
 11
537.15051922591897
 21
522.94410225815045
  0
LINE
  8
_0-0_0
  6
CONTINUOUS
 62
    7
 10
537.15051922591897
 20
522.94410225815045
 11
537.28907662036522
 21
522.63178240733032
  0
LINE
  8
_0-0_0
  6
CONTINUOUS
 62
    7
 10
537.28907662036522
 20
522.63178240733032
 11
537.40714599526905
 21
522.32099538953389
  0
LINE
  8
_0-0_0
  6
CONTINUOUS
 62
    7
 10
537.40714599526905
 20
522.32099538953389
 11
537.50442537301774
 21
522.01383684489747
  0
LINE
  8
_0-0_0
  6
CONTINUOUS
 62
    7
 10
537.50442537301774
 20
522.01383684489747
 11
537.58061277599927
 21
521.71240241355758
  0
LINE
  8
_0-0_0
  6
CONTINUOUS
 62
    7
 10
537.58061277599927
 20
521.71240241355758
 11
537.63540622660139
 21
521.41878773565031
  0
LINE
  8
_0-0_0
  6
CONTINUOUS
 62
    7
 10
537.63540622660139
 20
521.41878773565031
 11
537.66850374721162
 21
521.13508845131207
  0
LINE
  8
_0-0_0
  6
CONTINUOUS
 62
    7
 10
537.66850374721162
 20
521.13508845131207
 11
537.67960336021781
 21
520.86340020067951
  0
LINE
  8
_0-0_0
  6
CONTINUOUS
 62
    7
 10
537.67960336021781
 20
520.86340020067951
 11
537.67784182414607
 21
520.08405129059804
  0
LINE
  8
_0-0_0
  6
CONTINUOUS
 62
    7
 10
537.67784182414607
 20
520.08405129059804
 11
537.67275853433887
 21
518.2560064077519
  0
LINE
  8
_0-0_0
  6
CONTINUOUS
 62
    7
 10
537.67275853433887
 20
518.2560064077519
 11
537.66465546840857
 21
515.47544602226753
  0
LINE
  8
_0-0_0
  6
CONTINUOUS
 62
    7
 10
537.66465546840857
 20
515.47544602226753
 11
537.65383460396765
 21
511.83855060427118
  0
LINE
  8
_0-0_0
  6
CONTINUOUS
 62
    7
 10
537.65383460396765
 20
511.83855060427118
 11
537.64059791862837
 21
507.4415006238894
  0
LINE
  8
_0-0_0
  6
CONTINUOUS
 62
    7
 10
537.64059791862837
 20
507.4415006238894
 11
537.62524739000287
 21
502.38047655124802
  0
LINE
  8
_0-0_0
  6
CONTINUOUS
 62
    7
 10
537.62524739000287
 20
502.38047655124802
 11
537.60808499570339
 21
496.75165885647357
  0
LINE
  8
_0-0_0
  6
CONTINUOUS
 62
    7
 10
537.60808499570339
 20
496.75165885647357
 11
537.58941271334254
 21
490.65122800969232
  0
LINE
  8
_0-0_0
  6
CONTINUOUS
 62
    7
 10
537.58941271334254
 20
490.65122800969232
 11
537.56953252053245
 21
484.17536448103033
  0
LINE
  8
_0-0_0
  6
CONTINUOUS
 62
    7
 10
537.56953252053245
 20
484.17536448103033
 11
537.54874639488537
 21
477.4202487406144
  0
LINE
  8
_0-0_0
  6
CONTINUOUS
 62
    7
 10
537.54874639488537
 20
477.4202487406144
 11
537.52735631401367
 21
470.48206125857041
  0
LINE
  8
_0-0_0
  6
CONTINUOUS
 62
    7
 10
537.52735631401367
 20
470.48206125857041
 11
537.50566425552984
 21
463.45698250502471
  0
LINE
  8
_0-0_0
  6
CONTINUOUS
 62
    7
 10
537.50566425552984
 20
463.45698250502471
 11
537.48397219704589
 21
456.44119295010353
  0
LINE
  8
_0-0_0
  6
CONTINUOUS
 62
    7
 10
537.48397219704589
 20
456.44119295010353
 11
537.46258211617419
 21
449.53087306393331
  0
LINE
  8
_0-0_0
  6
CONTINUOUS
 62
    7
 10
537.46258211617419
 20
449.53087306393331
 11
537.44179599052723
 21
442.82220331664041
  0
LINE
  8
_0-0_0
  6
CONTINUOUS
 62
    7
 10
537.44179599052723
 20
442.82220331664041
 11
537.42191579771713
 21
436.41136417835082
  0
LINE
  8
_0-0_0
  6
CONTINUOUS
 62
    7
 10
537.42191579771713
 20
436.41136417835082
 11
537.40324351535628
 21
430.39453611919089
  0
LINE
  8
_0-0_0
  6
CONTINUOUS
 62
    7
 10
537.40324351535628
 20
430.39453611919089
 11
537.38608112105692
 21
424.86789960928712
  0
LINE
  8
_0-0_0
  6
CONTINUOUS
 62
    7
 10
537.38608112105692
 20
424.86789960928712
 11
537.3707305924313
 21
419.92763511876558
  0
LINE
  8
_0-0_0
  6
CONTINUOUS
 62
    7
 10
537.3707305924313
 20
419.92763511876558
 11
537.35749390709179
 21
415.66992311775272
  0
LINE
  8
_0-0_0
  6
CONTINUOUS
 62
    7
 10
537.35749390709179
 20
415.66992311775272
 11
537.34667304265099
 21
412.19094407637454
  0
LINE
  8
_0-0_0
  6
CONTINUOUS
 62
    7
 10
537.34667304265099
 20
412.19094407637454
 11
537.33856997672081
 21
409.58687846475777
  0
LINE
  8
_0-0_0
  6
CONTINUOUS
 62
    7
 10
537.33856997672081
 20
409.58687846475777
 11
537.33348668691372
 21
407.95390675302838
  0
LINE
  8
_0-0_0
  6
CONTINUOUS
 62
    7
 10
537.33348668691372
 20
407.95390675302838
 11
537.33172515084186
 21
407.38820941131269
  0
LINE
  8
_0-0_0
  6
CONTINUOUS
 62
    7
 10
548.35678840184357
 20
575.98453673396011
 11
526.65454010921633
 21
575.98453673396011
  0
LINE
  8
_0-0_0
  6
CONTINUOUS
 62
    7
 10
526.65454010921633
 20
575.98453673396011
 11
524.17479287315007
 21
530.70156049883167
  0
LINE
  8
_0-0_0
  6
CONTINUOUS
 62
    7
 10
524.17479287315007
 20
530.70156049883167
 11
548.35678840184357
 21
530.70156049883167
  0
LINE
  8
_0-0_0
  6
CONTINUOUS
 62
    7
 10
548.35678840184357
 20
406.62700222674891
 11
548.35678840184357
 21
613.26121741923862
  0
LINE
  8
_0-0_0
  6
CONTINUOUS
 62
    7
 10
556.91102437086499
 20
607.7914904284346
 11
556.89440398766465
 21
608.14133811666761
  0
LINE
  8
_0-0_0
  6
CONTINUOUS
 62
    7
 10
556.89440398766465
 20
608.14133811666761
 11
556.84570429041867
 21
608.49077474441538
  0
LINE
  8
_0-0_0
  6
CONTINUOUS
 62
    7
 10
556.84570429041867
 20
608.49077474441538
 11
556.76666745765931
 21
608.83851334660812
  0
LINE
  8
_0-0_0
  6
CONTINUOUS
 62
    7
 10
556.76666745765931
 20
608.83851334660812
 11
556.65903566791951
 21
609.18326695817586
  0
LINE
  8
_0-0_0
  6
CONTINUOUS
 62
    7
 10
556.65903566791951
 20
609.18326695817586
 11
556.52455109973153
 21
609.52374861404883
  0
LINE
  8
_0-0_0
  6
CONTINUOUS
 62
    7
 10
556.52455109973153
 20
609.52374861404883
 11
556.36495593162772
 21
609.85867134915657
  0
LINE
  8
_0-0_0
  6
CONTINUOUS
 62
    7
 10
556.36495593162772
 20
609.85867134915657
 11
556.18199234214114
 21
610.18674819842931
  0
LINE
  8
_0-0_0
  6
CONTINUOUS
 62
    7
 10
556.18199234214114
 20
610.18674819842931
 11
555.97740250980405
 21
610.50669219679708
  0
LINE
  8
_0-0_0
  6
CONTINUOUS
 62
    7
 10
555.97740250980405
 20
610.50669219679708
 11
555.75292861314892
 21
610.81721637918986
  0
LINE
  8
_0-0_0
  6
CONTINUOUS
 62
    7
 10
555.75292861314892
 20
610.81721637918986
 11
555.51031283070836
 21
611.11703378053778
  0
LINE
  8
_0-0_0
  6
CONTINUOUS
 62
    7
 10
555.51031283070836
 20
611.11703378053778
 11
555.25129734101483
 21
611.40485743577062
  0
LINE
  8
_0-0_0
  6
CONTINUOUS
 62
    7
 10
555.25129734101483
 20
611.40485743577062
 11
554.97762432260083
 21
611.67940037981862
  0
LINE
  8
_0-0_0
  6
CONTINUOUS
 62
    7
 10
554.97762432260083
 20
611.67940037981862
 11
554.69103595399918
 21
611.93937564761166
  0
LINE
  8
_0-0_0
  6
CONTINUOUS
 62
    7
 10
554.69103595399918
 20
611.93937564761166
 11
554.39327441374212
 21
612.18349627407974
  0
LINE
  8
_0-0_0
  6
CONTINUOUS
 62
    7
 10
554.39327441374212
 20
612.18349627407974
 11
554.08608188036237
 21
612.41047529415277
  0
LINE
  8
_0-0_0
  6
CONTINUOUS
 62
    7
 10
554.08608188036237
 20
612.41047529415277
 11
553.77120053239219
 21
612.61902574276098
  0
LINE
  8
_0-0_0
  6
CONTINUOUS
 62
    7
 10
553.77120053239219
 20
612.61902574276098
 11
553.45037254836438
 21
612.80786065483437
  0
LINE
  8
_0-0_0
  6
CONTINUOUS
 62
    7
 10
553.45037254836438
 20
612.80786065483437
 11
553.12534010681134
 21
612.97569306530272
  0
LINE
  8
_0-0_0
  6
CONTINUOUS
 62
    7
 10
553.12534010681134
 20
612.97569306530272
 11
552.79784538626564
 21
613.12123600909626
  0
LINE
  8
_0-0_0
  6
CONTINUOUS
 62
    7
 10
552.79784538626564
 20
613.12123600909626
 11
552.46963056525988
 21
613.24320252114478
  0
LINE
  8
_0-0_0
  6
CONTINUOUS
 62
    7
 10
552.46963056525988
 20
613.24320252114478
 11
552.14243782232643
 21
613.3403056363785
  0
LINE
  8
_0-0_0
  6
CONTINUOUS
 62
    7
 10
552.14243782232643
 20
613.3403056363785
 11
551.818009335998
 21
613.41125838972744
  0
LINE
  8
_0-0_0
  6
CONTINUOUS
 62
    7
 10
551.818009335998
 20
613.41125838972744
 11
551.49808728480696
 21
613.45477381612136
  0
LINE
  8
_0-0_0
  6
CONTINUOUS
 62
    7
 10
551.49808728480696
 20
613.45477381612136
 11
551.18441384728601
 21
613.46956495049039
  0
LINE
  8
_0-0_0
  6
CONTINUOUS
 62
    7
 10
551.18441384728601
 20
613.46956495049039
 11
550.80235667610668
 21
613.45883063735687
  0
LINE
  8
_0-0_0
  6
CONTINUOUS
 62
    7
 10
550.80235667610668
 20
613.45883063735687
 11
550.28509870778726
 21
613.42785447660015
  0
LINE
  8
_0-0_0
  6
CONTINUOUS
 62
    7
 10
550.28509870778726
 20
613.42785447660015
 11
549.64610504662994
 21
613.37847663618584
  0
LINE
  8
_0-0_0
  6
CONTINUOUS
 62
    7
 10
549.64610504662994
 20
613.37847663618584
 11
548.89884079693741
 21
613.31253728407967
  0
LINE
  8
_0-0_0
  6
CONTINUOUS
 62
    7
 10
548.89884079693741
 20
613.31253728407967
 11
548.05677106301221
 21
613.23187658824759
  0
LINE
  8
_0-0_0
  6
CONTINUOUS
 62
    7
 10
548.05677106301221
 20
613.23187658824759
 11
547.13336094915712
 21
613.13833471665532
  0
LINE
  8
_0-0_0
  6
CONTINUOUS
 62
    7
 10
547.13336094915712
 20
613.13833471665532
 11
546.14207555967448
 21
613.0337518372686
  0
LINE
  8
_0-0_0
  6
CONTINUOUS
 62
    7
 10
546.14207555967448
 20
613.0337518372686
 11
545.09637999886672
 21
612.91996811805302
  0
LINE
  8
_0-0_0
  6
CONTINUOUS
 62
    7
 10
545.09637999886672
 20
612.91996811805302
 11
544.00973937103686
 21
612.79882372697455
  0
LINE
  8
_0-0_0
  6
CONTINUOUS
 62
    7
 10
544.00973937103686
 20
612.79882372697455
 11
542.8956187804871
 21
612.67215883199867
  0
LINE
  8
_0-0_0
  6
CONTINUOUS
 62
    7
 10
542.8956187804871
 20
612.67215883199867
 11
541.76748333152
 21
612.54181360109146
  0
LINE
  8
_0-0_0
  6
CONTINUOUS
 62
    7
 10
541.76748333152
 20
612.54181360109146
 11
540.63879812843834
 21
612.4096282022183
  0
LINE
  8
_0-0_0
  6
CONTINUOUS
 62
    7
 10
540.63879812843834
 20
612.4096282022183
 11
539.52302827554433
 21
612.27744280334525
  0
LINE
  8
_0-0_0
  6
CONTINUOUS
 62
    7
 10
539.52302827554433
 20
612.27744280334525
 11
538.43363887714088
 21
612.14709757243793
  0
LINE
  8
_0-0_0
  6
CONTINUOUS
 62
    7
 10
538.43363887714088
 20
612.14709757243793
 11
537.38409503753019
 21
612.02043267746217
  0
LINE
  8
_0-0_0
  6
CONTINUOUS
 62
    7
 10
537.38409503753019
 20
612.02043267746217
 11
536.38786186101527
 21
611.89928828638358
  0
LINE
  8
_0-0_0
  6
CONTINUOUS
 62
    7
 10
536.38786186101527
 20
611.89928828638358
 11
535.45840445189833
 21
611.785504567168
  0
LINE
  8
_0-0_0
  6
CONTINUOUS
 62
    7
 10
535.45840445189833
 20
611.785504567168
 11
534.60918791448194
 21
611.68092168778117
  0
LINE
  8
_0-0_0
  6
CONTINUOUS
 62
    7
 10
534.60918791448194
 20
611.68092168778117
 11
533.85367735306875
 21
611.5873798161889
  0
LINE
  8
_0-0_0
  6
CONTINUOUS
 62
    7
 10
533.85367735306875
 20
611.5873798161889
 11
533.20533787196132
 21
611.50671912035682
  0
LINE
  8
_0-0_0
  6
CONTINUOUS
 62
    7
 10
533.20533787196132
 20
611.50671912035682
 11
532.67763457546221
 21
611.44077976825088
  0
LINE
  8
_0-0_0
  6
CONTINUOUS
 62
    7
 10
532.67763457546221
 20
611.44077976825088
 11
532.28403256787396
 21
611.39140192783657
  0
LINE
  8
_0-0_0
  6
CONTINUOUS
 62
    7
 10
532.28403256787396
 20
611.39140192783657
 11
532.03799695349926
 21
611.36042576707985
  0
LINE
  8
_0-0_0
  6
CONTINUOUS
 62
    7
 10
532.03799695349926
 20
611.36042576707985
 11
531.95299283664042
 21
611.34969145394621
  0
LINE
  8
_0-0_0
  6
CONTINUOUS
 62
    7
 10
531.95299283664042
 20
611.34969145394621
 11
531.52365164958519
 21
611.34373107691295
  0
LINE
  8
_0-0_0
  6
CONTINUOUS
 62
    7
 10
531.52365164958519
 20
611.34373107691295
 11
531.11173999087123
 21
611.32496635785537
  0
LINE
  8
_0-0_0
  6
CONTINUOUS
 62
    7
 10
531.11173999087123
 20
611.32496635785537
 11
530.71684748066616
 21
611.29207191483499
  0
LINE
  8
_0-0_0
  6
CONTINUOUS
 62
    7
 10
530.71684748066616
 20
611.29207191483499
 11
530.33856373913795
 21
611.24372236591455
  0
LINE
  8
_0-0_0
  6
CONTINUOUS
 62
    7
 10
530.33856373913795
 20
611.24372236591455
 11
529.97647838645446
 21
611.178592329156
  0
LINE
  8
_0-0_0
  6
CONTINUOUS
 62
    7
 10
529.97647838645446
 20
611.178592329156
 11
529.63018104278365
 21
611.09535642262165
  0
LINE
  8
_0-0_0
  6
CONTINUOUS
 62
    7
 10
529.63018104278365
 20
611.09535642262165
 11
529.29926132829314
 21
610.99268926437401
  0
LINE
  8
_0-0_0
  6
CONTINUOUS
 62
    7
 10
529.29926132829314
 20
610.99268926437401
 11
528.98330886315125
 21
610.86926547247504
  0
LINE
  8
_0-0_0
  6
CONTINUOUS
 62
    7
 10
528.98330886315125
 20
610.86926547247504
 11
528.68191326752549
 21
610.72375966498726
  0
LINE
  8
_0-0_0
  6
CONTINUOUS
 62
    7
 10
528.68191326752549
 20
610.72375966498726
 11
528.39466416158393
 21
610.5548464599724
  0
LINE
  8
_0-0_0
  6
CONTINUOUS
 62
    7
 10
528.39466416158393
 20
610.5548464599724
 11
528.12115116549444
 21
610.36120047549332
  0
LINE
  8
_0-0_0
  6
CONTINUOUS
 62
    7
 10
528.12115116549444
 20
610.36120047549332
 11
527.86096389942509
 21
610.1414963296121
  0
LINE
  8
_0-0_0
  6
CONTINUOUS
 62
    7
 10
527.86096389942509
 20
610.1414963296121
 11
527.61369198354339
 21
609.89440864039057
  0
LINE
  8
_0-0_0
  6
CONTINUOUS
 62
    7
 10
527.61369198354339
 20
609.89440864039057
 11
527.37892503801754
 21
609.61861202589148
  0
LINE
  8
_0-0_0
  6
CONTINUOUS
 62
    7
 10
527.37892503801754
 20
609.61861202589148
 11
527.15625268301528
 21
609.31278110417691
  0
LINE
  8
_0-0_0
  6
CONTINUOUS
 62
    7
 10
527.15625268301528
 20
609.31278110417691
 11
526.94526453870446
 21
608.97559049330903
  0
LINE
  8
_0-0_0
  6
CONTINUOUS
 62
    7
 10
526.94526453870446
 20
608.97559049330903
 11
526.74555022525306
 21
608.60571481135014
  0
LINE
  8
_0-0_0
  6
CONTINUOUS
 62
    7
 10
526.74555022525306
 20
608.60571481135014
 11
526.55669936282925
 21
608.20182867636242
  0
LINE
  8
_0-0_0
  6
CONTINUOUS
 62
    7
 10
526.55669936282925
 20
608.20182867636242
 11
526.37830157160033
 21
607.76260670640829
  0
LINE
  8
_0-0_0
  6
CONTINUOUS
 62
    7
 10
526.37830157160033
 20
607.76260670640829
 11
526.20994647173472
 21
607.28672351954992
  0
LINE
  8
_0-0_0
  6
CONTINUOUS
 62
    7
 10
526.20994647173472
 20
607.28672351954992
 11
526.05122368339994
 21
606.77285373384962
  0
LINE
  8
_0-0_0
  6
CONTINUOUS
 62
    7
 10
526.05122368339994
 20
606.77285373384962
 11
525.90172282676417
 21
606.21967196736932
  0
LINE
  8
_0-0_0
  6
CONTINUOUS
 62
    7
 10
525.90172282676417
 20
606.21967196736932
 11
525.76103352199505
 21
605.62585283817168
  0
LINE
  8
_0-0_0
  6
CONTINUOUS
 62
    7
 10
525.76103352199505
 20
605.62585283817168
 11
525.62874538926064
 21
604.99007096431865
  0
LINE
  8
_0-0_0
  6
CONTINUOUS
 62
    7
 10
525.62874538926064
 20
604.99007096431865
 11
525.5298399782148
 21
604.27462755333568
  0
LINE
  8
_0-0_0
  6
CONTINUOUS
 62
    7
 10
525.5298399782148
 20
604.27462755333568
 11
525.4254757411004
 21
603.47077348373148
  0
LINE
  8
_0-0_0
  6
CONTINUOUS
 62
    7
 10
525.4254757411004
 20
603.47077348373148
 11
525.31651215266004
 21
602.58907531498301
  0
LINE
  8
_0-0_0
  6
CONTINUOUS
 62
    7
 10
525.31651215266004
 20
602.58907531498301
 11
525.20380868763664
 21
601.64009960656847
  0
LINE
  8
_0-0_0
  6
CONTINUOUS
 62
    7
 10
525.20380868763664
 20
601.64009960656847
 11
525.08822482077267
 21
600.63441291796505
  0
LINE
  8
_0-0_0
  6
CONTINUOUS
 62
    7
 10
525.08822482077267
 20
600.63441291796505
 11
524.97062002681093
 21
599.58258180865062
  0
LINE
  8
_0-0_0
  6
CONTINUOUS
 62
    7
 10
524.97062002681093
 20
599.58258180865062
 11
524.85185378049437
 21
598.49517283810292
  0
LINE
  8
_0-0_0
  6
CONTINUOUS
 62
    7
 10
524.85185378049437
 20
598.49517283810292
 11
524.73278555656532
 21
597.38275256579925
  0
LINE
  8
_0-0_0
  6
CONTINUOUS
 62
    7
 10
524.73278555656532
 20
597.38275256579925
 11
524.61427482976671
 21
596.25588755121748
  0
LINE
  8
_0-0_0
  6
CONTINUOUS
 62
    7
 10
524.61427482976671
 20
596.25588755121748
 11
524.49718107484125
 21
595.12514435383548
  0
LINE
  8
_0-0_0
  6
CONTINUOUS
 62
    7
 10
524.49718107484125
 20
595.12514435383548
 11
524.38236376653163
 21
594.00108953313054
  0
LINE
  8
_0-0_0
  6
CONTINUOUS
 62
    7
 10
524.38236376653163
 20
594.00108953313054
 11
524.27068237958053
 21
592.89428964858041
  0
LINE
  8
_0-0_0
  6
CONTINUOUS
 62
    7
 10
524.27068237958053
 20
592.89428964858041
 11
524.16299638873079
 21
591.81531125966285
  0
LINE
  8
_0-0_0
  6
CONTINUOUS
 62
    7
 10
524.16299638873079
 20
591.81531125966285
 11
524.06016526872486
 21
590.77472092585526
  0
LINE
  8
_0-0_0
  6
CONTINUOUS
 62
    7
 10
524.06016526872486
 20
590.77472092585526
 11
523.96304849430589
 21
589.78308520663563
  0
LINE
  8
_0-0_0
  6
CONTINUOUS
 62
    7
 10
523.96304849430589
 20
589.78308520663563
 11
523.87250554021625
 21
588.85097066148126
  0
LINE
  8
_0-0_0
  6
CONTINUOUS
 62
    7
 10
523.87250554021625
 20
588.85097066148126
 11
523.78939588119863
 21
587.98894384986988
  0
LINE
  8
_0-0_0
  6
CONTINUOUS
 62
    7
 10
523.78939588119863
 20
587.98894384986988
 11
523.71457899199606
 21
587.20757133127927
  0
LINE
  8
_0-0_0
  6
CONTINUOUS
 62
    7
 10
523.71457899199606
 20
587.20757133127927
 11
523.64891434735091
 21
586.51741966518716
  0
LINE
  8
_0-0_0
  6
CONTINUOUS
 62
    7
 10
523.64891434735091
 20
586.51741966518716
 11
523.59326142200609
 21
585.92905541107086
  0
LINE
  8
_0-0_0
  6
CONTINUOUS
 62
    7
 10
523.59326142200609
 20
585.92905541107086
 11
523.54847969070431
 21
585.45304512840823
  0
LINE
  8
_0-0_0
  6
CONTINUOUS
 62
    7
 10
523.54847969070431
 20
585.45304512840823
 11
523.51542862818826
 21
585.09995537667692
  0
LINE
  8
_0-0_0
  6
CONTINUOUS
 62
    7
 10
523.51542862818826
 20
585.09995537667692
 11
523.49496770920064
 21
584.88035271535455
  0
LINE
  8
_0-0_0
  6
CONTINUOUS
 62
    7
 10
523.49496770920064
 20
584.88035271535455
 11
523.48795640848402
 21
584.80480370391865
  0
LINE
  8
_0-0_0
  6
CONTINUOUS
 62
    7
 10
523.48795640848402
 20
584.80480370391865
 11
523.09984355377605
 21
577.85136472537329
  0
LINE
  8
_0-0_0
  6
CONTINUOUS
 62
    7
 10
523.09984355377605
 20
577.85136472537329
 11
522.74405391810797
 21
571.47702929482978
  0
LINE
  8
_0-0_0
  6
CONTINUOUS
 62
    7
 10
522.74405391810797
 20
571.47702929482978
 11
522.4191821441309
 21
565.65661899715781
  0
LINE
  8
_0-0_0
  6
CONTINUOUS
 62
    7
 10
522.4191821441309
 20
565.65661899715781
 11
522.12382287449486
 21
560.36495541722661
  0
LINE
  8
_0-0_0
  6
CONTINUOUS
 62
    7
 10
522.12382287449486
 20
560.36495541722661
 11
521.85657075185031
 21
555.57686013990622
  0
LINE
  8
_0-0_0
  6
CONTINUOUS
 62
    7
 10
521.85657075185031
 20
555.57686013990622
 11
521.61602041884771
 21
551.2671547500654
  0
LINE
  8
_0-0_0
  6
CONTINUOUS
 62
    7
 10
521.61602041884771
 20
551.2671547500654
 11
521.40076651813752
 21
547.41066083257408
  0
LINE
  8
_0-0_0
  6
CONTINUOUS
 62
    7
 10
521.40076651813752
 20
547.41066083257408
 11
521.2094036923703
 21
543.98219997230149
  0
LINE
  8
_0-0_0
  6
CONTINUOUS
 62
    7
 10
521.2094036923703
 20
543.98219997230149
 11
521.04052658419607
 21
540.95659375411731
  0
LINE
  8
_0-0_0
  6
CONTINUOUS
 62
    7
 10
521.04052658419607
 20
540.95659375411731
 11
520.89272983626552
 21
538.30866376289089
  0
LINE
  8
_0-0_0
  6
CONTINUOUS
 62
    7
 10
520.89272983626552
 20
538.30866376289089
 11
520.76460809122921
 21
536.0132315834918
  0
LINE
  8
_0-0_0
  6
CONTINUOUS
 62
    7
 10
520.76460809122921
 20
536.0132315834918
 11
520.65475599173726
 21
534.04511880078951
  0
LINE
  8
_0-0_0
  6
CONTINUOUS
 62
    7
 10
520.65475599173726
 20
534.04511880078951
 11
520.56176818044025
 21
532.37914699965336
  0
LINE
  8
_0-0_0
  6
CONTINUOUS
 62
    7
 10
520.56176818044025
 20
532.37914699965336
 11
520.48423929998864
 21
530.99013776495303
  0
LINE
  8
_0-0_0
  6
CONTINUOUS
 62
    7
 10
520.48423929998864
 20
530.99013776495303
 11
520.42076399303278
 21
529.85291268155788
  0
LINE
  8
_0-0_0
  6
CONTINUOUS
 62
    7
 10
520.42076399303278
 20
529.85291268155788
 11
520.36993690222312
 21
528.94229333433748
  0
LINE
  8
_0-0_0
  6
CONTINUOUS
 62
    7
 10
520.36993690222312
 20
528.94229333433748
 11
520.33035267021
 21
528.23310130816105
  0
LINE
  8
_0-0_0
  6
CONTINUOUS
 62
    7
 10
520.33035267021
 20
528.23310130816105
 11
520.3006059396439
 21
527.70015818789852
  0
LINE
  8
_0-0_0
  6
CONTINUOUS
 62
    7
 10
520.3006059396439
 20
527.70015818789852
 11
520.27929135317538
 21
527.31828555841889
  0
LINE
  8
_0-0_0
  6
CONTINUOUS
 62
    7
 10
520.27929135317538
 20
527.31828555841889
 11
520.26500355345456
 21
527.06230500459196
  0
LINE
  8
_0-0_0
  6
CONTINUOUS
 62
    7
 10
520.26500355345456
 20
527.06230500459196
 11
520.25633718313225
 21
526.90703811128708
  0
LINE
  8
_0-0_0
  6
CONTINUOUS
 62
    7
 10
520.25633718313225
 20
526.90703811128708
 11
520.25188688485855
 21
526.8273064633737
  0
LINE
  8
_0-0_0
  6
CONTINUOUS
 62
    7
 10
520.25188688485855
 20
526.8273064633737
 11
520.25024730128416
 21
526.79793164572152
  0
LINE
  8
_0-0_0
  6
CONTINUOUS
 62
    7
 10
520.25024730128416
 20
526.79793164572152
 11
520.2500130750592
 21
526.79373524319976
  0
LINE
  8
_0-0_0
  6
CONTINUOUS
 62
    7
 10
520.2500130750592
 20
526.79373524319976
 11
520.25344581201966
 21
526.58753750760138
  0
LINE
  8
_0-0_0
  6
CONTINUOUS
 62
    7
 10
520.25344581201966
 20
526.58753750760138
 11
520.2633517101051
 21
525.99041548819787
  0
LINE
  8
_0-0_0
  6
CONTINUOUS
 62
    7
 10
520.2633517101051
 20
525.99041548819787
 11
520.27914230012311
 21
525.03457596607655
  0
LINE
  8
_0-0_0
  6
CONTINUOUS
 62
    7
 10
520.27914230012311
 20
525.03457596607655
 11
520.30022911287972
 21
523.75222572232485
  0
LINE
  8
_0-0_0
  6
CONTINUOUS
 62
    7
 10
520.30022911287972
 20
523.75222572232485
 11
520.32602367918219
 21
522.17557153803023
  0
LINE
  8
_0-0_0
  6
CONTINUOUS
 62
    7
 10
520.32602367918219
 20
522.17557153803023
 11
520.35593752983698
 21
520.33682019427988
  0
LINE
  8
_0-0_0
  6
CONTINUOUS
 62
    7
 10
520.35593752983698
 20
520.33682019427988
 11
520.38938219565114
 21
518.26817847216137
  0
LINE
  8
_0-0_0
  6
CONTINUOUS
 62
    7
 10
520.38938219565114
 20
518.26817847216137
 11
520.42576920743136
 21
516.00185315276201
  0
LINE
  8
_0-0_0
  6
CONTINUOUS
 62
    7
 10
520.42576920743136
 20
516.00185315276201
 11
520.46451009598422
 21
513.57005101716902
  0
LINE
  8
_0-0_0
  6
CONTINUOUS
 62
    7
 10
520.46451009598422
 20
513.57005101716902
 11
520.50501639211689
 21
511.00497884647012
  0
LINE
  8
_0-0_0
  6
CONTINUOUS
 62
    7
 10
520.50501639211689
 20
511.00497884647012
 11
520.54669962663593
 21
508.33884342175236
  0
LINE
  8
_0-0_0
  6
CONTINUOUS
 62
    7
 10
520.54669962663593
 20
508.33884342175236
 11
520.58897133034816
 21
505.60385152410339
  0
LINE
  8
_0-0_0
  6
CONTINUOUS
 62
    7
 10
520.58897133034816
 20
505.60385152410339
 11
520.63124303406039
 21
502.83220993461038
  0
LINE
  8
_0-0_0
  6
CONTINUOUS
 62
    7
 10
520.63124303406039
 20
502.83220993461038
 11
520.67292626857943
 21
500.05612543436098
  0
LINE
  8
_0-0_0
  6
CONTINUOUS
 62
    7
 10
520.67292626857943
 20
500.05612543436098
 11
520.71343256471209
 21
497.30780480444241
  0
LINE
  8
_0-0_0
  6
CONTINUOUS
 62
    7
 10
520.71343256471209
 20
497.30780480444241
 11
520.75217345326519
 21
494.61945482594206
  0
LINE
  8
_0-0_0
  6
CONTINUOUS
 62
    7
 10
520.75217345326519
 20
494.61945482594206
 11
520.78856046504507
 21
492.02328227994713
  0
LINE
  8
_0-0_0
  6
CONTINUOUS
 62
    7
 10
520.78856046504507
 20
492.02328227994713
 11
520.82200513085934
 21
489.55149394754528
  0
LINE
  8
_0-0_0
  6
CONTINUOUS
 62
    7
 10
520.82200513085934
 20
489.55149394754528
 11
520.85191898151402
 21
487.23629660982385
  0
LINE
  8
_0-0_0
  6
CONTINUOUS
 62
    7
 10
520.85191898151402
 20
487.23629660982385
 11
520.87771354781648
 21
485.10989704786999
  0
LINE
  8
_0-0_0
  6
CONTINUOUS
 62
    7
 10
520.87771354781648
 20
485.10989704786999
 11
520.8988003605732
 21
483.20450204277142
  0
LINE
  8
_0-0_0
  6
CONTINUOUS
 62
    7
 10
520.8988003605732
 20
483.20450204277142
 11
520.91459095059099
 21
481.55231837561519
  0
LINE
  8
_0-0_0
  6
CONTINUOUS
 62
    7
 10
520.91459095059099
 20
481.55231837561519
 11
520.92449684867677
 21
480.18555282748912
  0
LINE
  8
_0-0_0
  6
CONTINUOUS
 62
    7
 10
520.92449684867677
 20
480.18555282748912
 11
520.927929585637
 21
479.13641217947969
  0
LINE
  8
_0-0_0
  6
CONTINUOUS
 62
    7
 10
520.927929585637
 20
479.13641217947969
 11
520.95173290640196
 21
475.68313146150922
  0
LINE
  8
_0-0_0
  6
CONTINUOUS
 62
    7
 10
520.95173290640196
 20
475.68313146150922
 11
521.02042248918065
 21
472.14371244264498
  0
LINE
  8
_0-0_0
  6
CONTINUOUS
 62
    7
 10
521.02042248918065
 20
472.14371244264498
 11
521.12991776469903
 21
468.53887718135752
  0
LINE
  8
_0-0_0
  6
CONTINUOUS
 62
    7
 10
521.12991776469903
 20
468.53887718135752
 11
521.2761381636833
 21
464.88934773611697
  0
LINE
  8
_0-0_0
  6
CONTINUOUS
 62
    7
 10
521.2761381636833
 20
464.88934773611697
 11
521.45500311685942
 21
461.21584616539349
  0
LINE
  8
_0-0_0
  6
CONTINUOUS
 62
    7
 10
521.45500311685942
 20
461.21584616539349
 11
521.66243205495334
 21
457.53909452765765
  0
LINE
  8
_0-0_0
  6
CONTINUOUS
 62
    7
 10
521.66243205495334
 20
457.53909452765765
 11
521.89434440869104
 21
453.87981488137927
  0
LINE
  8
_0-0_0
  6
CONTINUOUS
 62
    7
 10
521.89434440869104
 20
453.87981488137927
 11
522.14665960879881
 21
450.25872928502901
  0
LINE
  8
_0-0_0
  6
CONTINUOUS
 62
    7
 10
522.14665960879881
 20
450.25872928502901
 11
522.4152970860024
 21
446.69655979707682
  0
LINE
  8
_0-0_0
  6
CONTINUOUS
 62
    7
 10
522.4152970860024
 20
446.69655979707682
 11
522.69617627102798
 21
443.21402847599313
  0
LINE
  8
_0-0_0
  6
CONTINUOUS
 62
    7
 10
522.69617627102798
 20
443.21402847599313
 11
522.98521659460152
 21
439.83185738024821
  0
LINE
  8
_0-0_0
  6
CONTINUOUS
 62
    7
 10
522.98521659460152
 20
439.83185738024821
 11
523.27833748744888
 21
436.57076856831213
  0
LINE
  8
_0-0_0
  6
CONTINUOUS
 62
    7
 10
523.27833748744888
 20
436.57076856831213
 11
523.57145838029646
 21
433.45148409865521
  0
LINE
  8
_0-0_0
  6
CONTINUOUS
 62
    7
 10
523.57145838029646
 20
433.45148409865521
 11
523.86049870386978
 21
430.49472602974777
  0
LINE
  8
_0-0_0
  6
CONTINUOUS
 62
    7
 10
523.86049870386978
 20
430.49472602974777
 11
524.14137788889536
 21
427.72121642005982
  0
LINE
  8
_0-0_0
  6
CONTINUOUS
 62
    7
 10
524.14137788889536
 20
427.72121642005982
 11
524.41001536609906
 21
425.15167732806208
  0
LINE
  8
_0-0_0
  6
CONTINUOUS
 62
    7
 10
524.41001536609906
 20
425.15167732806208
 11
524.66233056620672
 21
422.8068308122244
  0
LINE
  8
_0-0_0
  6
CONTINUOUS
 62
    7
 10
524.66233056620672
 20
422.8068308122244
 11
524.89424291994453
 21
420.70739893101722
  0
LINE
  8
_0-0_0
  6
CONTINUOUS
 62
    7
 10
524.89424291994453
 20
420.70739893101722
 11
525.10167185803846
 21
418.87410374291062
  0
LINE
  8
_0-0_0
  6
CONTINUOUS
 62
    7
 10
525.10167185803846
 20
418.87410374291062
 11
525.28053681121446
 21
417.32766730637508
  0
LINE
  8
_0-0_0
  6
CONTINUOUS
 62
    7
 10
525.28053681121446
 20
417.32766730637508
 11
525.42675721019873
 21
416.08881167988079
  0
LINE
  8
_0-0_0
  6
CONTINUOUS
 62
    7
 10
525.42675721019873
 20
416.08881167988079
 11
525.53625248571711
 21
415.17825892189791
  0
LINE
  8
_0-0_0
  6
CONTINUOUS
 62
    7
 10
525.53625248571711
 20
415.17825892189791
 11
525.6049420684958
 21
414.61673109089668
  0
LINE
  8
_0-0_0
  6
CONTINUOUS
 62
    7
 10
525.6049420684958
 20
414.61673109089668
 11
525.62874538926064
 21
414.42495024534742
  0
LINE
  8
_0-0_0
  6
CONTINUOUS
 62
    7
 10
525.62874538926064
 20
414.42495024534742
 11
525.64317256326387
 21
413.90940228280681
  0
LINE
  8
_0-0_0
  6
CONTINUOUS
 62
    7
 10
525.64317256326387
 20
413.90940228280681
 11
525.68543975021703
 21
413.42210608481753
  0
LINE
  8
_0-0_0
  6
CONTINUOUS
 62
    7
 10
525.68543975021703
 20
413.42210608481753
 11
525.75402544753513
 21
412.96217806342122
  0
LINE
  8
_0-0_0
  6
CONTINUOUS
 62
    7
 10
525.75402544753513
 20
412.96217806342122
 11
525.84740815263274
 21
412.52873463065919
  0
LINE
  8
_0-0_0
  6
CONTINUOUS
 62
    7
 10
525.84740815263274
 20
412.52873463065919
 11
525.96406636292511
 21
412.12089219857319
  0
LINE
  8
_0-0_0
  6
CONTINUOUS
 62
    7
 10
525.96406636292511
 20
412.12089219857319
 11
526.10247857582704
 21
411.7377671792047
  0
LINE
  8
_0-0_0
  6
CONTINUOUS
 62
    7
 10
526.10247857582704
 20
411.7377671792047
 11
526.26112328875354
 21
411.37847598459501
  0
LINE
  8
_0-0_0
  6
CONTINUOUS
 62
    7
 10
526.26112328875354
 20
411.37847598459501
 11
526.4384789991193
 21
411.04213502678567
  0
LINE
  8
_0-0_0
  6
CONTINUOUS
 62
    7
 10
526.4384789991193
 20
411.04213502678567
 11
526.63302420433934
 21
410.7278607178182
  0
LINE
  8
_0-0_0
  6
CONTINUOUS
 62
    7
 10
526.63302420433934
 20
410.7278607178182
 11
526.84323740182867
 21
410.43476946973408
  0
LINE
  8
_0-0_0
  6
CONTINUOUS
 62
    7
 10
526.84323740182867
 20
410.43476946973408
 11
527.06759708900233
 21
410.16197769457511
  0
LINE
  8
_0-0_0
  6
CONTINUOUS
 62
    7
 10
527.06759708900233
 20
410.16197769457511
 11
527.30458176327488
 21
409.90860180438227
  0
LINE
  8
_0-0_0
  6
CONTINUOUS
 62
    7
 10
527.30458176327488
 20
409.90860180438227
 11
527.55266992206157
 21
409.67375821119742
  0
LINE
  8
_0-0_0
  6
CONTINUOUS
 62
    7
 10
527.55266992206157
 20
409.67375821119742
 11
527.81034006277719
 21
409.45656332706187
  0
LINE
  8
_0-0_0
  6
CONTINUOUS
 62
    7
 10
527.81034006277719
 20
409.45656332706187
 11
528.07607068283664
 21
409.25613356401732
  0
LINE
  8
_0-0_0
  6
CONTINUOUS
 62
    7
 10
528.07607068283664
 20
409.25613356401732
 11
528.34834027965485
 21
409.07158533410507
  0
LINE
  8
_0-0_0
  6
CONTINUOUS
 62
    7
 10
528.34834027965485
 20
409.07158533410507
 11
528.62562735064682
 21
408.90203504936659
  0
LINE
  8
_0-0_0
  6
CONTINUOUS
 62
    7
 10
528.62562735064682
 20
408.90203504936659
 11
528.90641039322736
 21
408.7465991218437
  0
LINE
  8
_0-0_0
  6
CONTINUOUS
 62
    7
 10
528.90641039322736
 20
408.7465991218437
 11
529.18916790481126
 21
408.60439396357748
  0
LINE
  8
_0-0_0
  6
CONTINUOUS
 62
    7
 10
529.18916790481126
 20
408.60439396357748
 11
529.47237838281376
 21
408.47453598660979
  0
LINE
  8
_0-0_0
  6
CONTINUOUS
 62
    7
 10
529.47237838281376
 20
408.47453598660979
 11
529.75452032464977
 21
408.35614160298189
  0
LINE
  8
_0-0_0
  6
CONTINUOUS
 62
    7
 10
529.75452032464977
 20
408.35614160298189
 11
530.03407222773399
 21
408.24832722473514
  0
LINE
  8
_0-0_0
  6
CONTINUOUS
 62
    7
 10
530.03407222773399
 20
408.24832722473514
 11
530.3095125894813
 21
408.15020926391162
  0
LINE
  8
_0-0_0
  6
CONTINUOUS
 62
    7
 10
530.3095125894813
 20
408.15020926391162
 11
530.57931990730697
 21
408.06090413255231
  0
LINE
  8
_0-0_0
  6
CONTINUOUS
 62
    7
 10
530.57931990730697
 20
408.06090413255231
 11
530.81452562372272
 21
408.01503055075892
  0
LINE
  8
_0-0_0
  6
CONTINUOUS
 62
    7
 10
530.81452562372272
 20
408.01503055075892
 11
531.16905895509331
 21
407.96203448168274
  0
LINE
  8
_0-0_0
  6
CONTINUOUS
 62
    7
 10
531.16905895509331
 20
407.96203448168274
 11
531.63142152310434
 21
407.90272267954663
  0
LINE
  8
_0-0_0
  6
CONTINUOUS
 62
    7
 10
531.63142152310434
 20
407.90272267954663
 11
532.19011494944084
 21
407.83790189857348
  0
LINE
  8
_0-0_0
  6
CONTINUOUS
 62
    7
 10
532.19011494944084
 20
407.83790189857348
 11
532.83364085578808
 21
407.76837889298662
  0
LINE
  8
_0-0_0
  6
CONTINUOUS
 62
    7
 10
532.83364085578808
 20
407.76837889298662
 11
533.55050086383142
 21
407.69496041700859
  0
LINE
  8
_0-0_0
  6
CONTINUOUS
 62
    7
 10
533.55050086383142
 20
407.69496041700859
 11
534.32919659525612
 21
407.61845322486283
  0
LINE
  8
_0-0_0
  6
CONTINUOUS
 62
    7
 10
534.32919659525612
 20
407.61845322486283
 11
535.15822967174745
 21
407.53966407077189
  0
LINE
  8
_0-0_0
  6
CONTINUOUS
 62
    7
 10
535.15822967174745
 20
407.53966407077189
 11
536.02610171499077
 21
407.45939970895898
  0
LINE
  8
_0-0_0
  6
CONTINUOUS
 62
    7
 10
536.02610171499077
 20
407.45939970895898
 11
536.92131434667135
 21
407.37846689364699
  0
LINE
  8
_0-0_0
  6
CONTINUOUS
 62
    7
 10
536.92131434667135
 20
407.37846689364699
 11
537.83236918847433
 21
407.29767237905901
  0
LINE
  8
_0-0_0
  6
CONTINUOUS
 62
    7
 10
537.83236918847433
 20
407.29767237905901
 11
538.74776786208508
 21
407.21782291941793
  0
LINE
  8
_0-0_0
  6
CONTINUOUS
 62
    7
 10
538.74776786208508
 20
407.21782291941793
 11
539.65601198918898
 21
407.13972526894668
  0
LINE
  8
_0-0_0
  6
CONTINUOUS
 62
    7
 10
539.65601198918898
 20
407.13972526894668
 11
540.54560319147117
 21
407.06418618186831
  0
LINE
  8
_0-0_0
  6
CONTINUOUS
 62
    7
 10
540.54560319147117
 20
407.06418618186831
 11
541.40504309061703
 21
406.99201241240593
  0
LINE
  8
_0-0_0
  6
CONTINUOUS
 62
    7
 10
541.40504309061703
 20
406.99201241240593
 11
542.22283330831169
 21
406.92401071478218
  0
LINE
  8
_0-0_0
  6
CONTINUOUS
 62
    7
 10
542.22283330831169
 20
406.92401071478218
 11
542.98747546624054
 21
406.86098784322041
  0
LINE
  8
_0-0_0
  6
CONTINUOUS
 62
    7
 10
542.98747546624054
 20
406.86098784322041
 11
543.68747118608894
 21
406.80375055194338
  0
LINE
  8
_0-0_0
  6
CONTINUOUS
 62
    7
 10
543.68747118608894
 20
406.80375055194338
 11
544.31132208954205
 21
406.75310559517419
  0
LINE
  8
_0-0_0
  6
CONTINUOUS
 62
    7
 10
544.31132208954205
 20
406.75310559517419
 11
544.847529798285
 21
406.70985972713572
  0
LINE
  8
_0-0_0
  6
CONTINUOUS
 62
    7
 10
544.847529798285
 20
406.70985972713572
 11
545.28459593400362
 21
406.67481970205102
  0
LINE
  8
_0-0_0
  6
CONTINUOUS
 62
    7
 10
545.28459593400362
 20
406.67481970205102
 11
545.61102211838261
 21
406.64879227414292
  0
LINE
  8
_0-0_0
  6
CONTINUOUS
 62
    7
 10
545.61102211838261
 20
406.64879227414292
 11
545.81530997310745
 21
406.63258419763463
  0
LINE
  8
_0-0_0
  6
CONTINUOUS
 62
    7
 10
545.81530997310745
 20
406.63258419763463
 11
545.88596111986351
 21
406.62700222674891
  0
LINE
  8
_0-0_0
  6
CONTINUOUS
 62
    7
 10
545.88596111986351
 20
406.62700222674891
 11
546.47291977976204
 21
406.55299533241316
  0
LINE
  8
_0-0_0
  6
CONTINUOUS
 62
    7
 10
546.47291977976204
 20
406.55299533241316
 11
547.07831843155043
 21
406.50185031608191
  0
LINE
  8
_0-0_0
  6
CONTINUOUS
 62
    7
 10
547.07831843155043
 20
406.50185031608191
 11
547.69829718190238
 21
406.47430093992955
  0
LINE
  8
_0-0_0
  6
CONTINUOUS
 62
    7
 10
547.69829718190238
 20
406.47430093992955
 11
548.328996137491
 21
406.47108096612999
  0
LINE
  8
_0-0_0
  6
CONTINUOUS
 62
    7
 10
548.328996137491
 20
406.47108096612999
 11
548.96655540499
 21
406.49292415685778
  0
LINE
  8
_0-0_0
  6
CONTINUOUS
 62
    7
 10
548.96655540499
 20
406.49292415685778
 11
549.60711509107273
 21
406.54056427428702
  0
LINE
  8
_0-0_0
  6
CONTINUOUS
 62
    7
 10
549.60711509107273
 20
406.54056427428702
 11
550.24681530241276
 21
406.61473508059203
  0
LINE
  8
_0-0_0
  6
CONTINUOUS
 62
    7
 10
550.24681530241276
 20
406.61473508059203
 11
550.88179614568355
 21
406.71617033794689
  0
LINE
  8
_0-0_0
  6
CONTINUOUS
 62
    7
 10
550.88179614568355
 20
406.71617033794689
 11
551.50819772755847
 21
406.84560380852611
  0
LINE
  8
_0-0_0
  6
CONTINUOUS
 62
    7
 10
551.50819772755847
 20
406.84560380852611
 11
552.12216015471108
 21
407.00376925450348
  0
LINE
  8
_0-0_0
  6
CONTINUOUS
 62
    7
 10
552.12216015471108
 20
407.00376925450348
 11
552.71982353381497
 21
407.19140043805368
  0
LINE
  8
_0-0_0
  6
CONTINUOUS
 62
    7
 10
552.71982353381497
 20
407.19140043805368
 11
553.2973279715435
 21
407.40923112135067
  0
LINE
  8
_0-0_0
  6
CONTINUOUS
 62
    7
 10
553.2973279715435
 20
407.40923112135067
 11
553.85081357457022
 21
407.65799506656879
  0
LINE
  8
_0-0_0
  6
CONTINUOUS
 62
    7
 10
553.85081357457022
 20
407.65799506656879
 11
554.3764204495684
 21
407.93842603588217
  0
LINE
  8
_0-0_0
  6
CONTINUOUS
 62
    7
 10
554.3764204495684
 20
407.93842603588217
 11
554.87028870321183
 21
408.25125779146515
  0
LINE
  8
_0-0_0
  6
CONTINUOUS
 62
    7
 10
554.87028870321183
 20
408.25125779146515
 11
555.32855844217374
 21
408.59722409549198
  0
LINE
  8
_0-0_0
  6
CONTINUOUS
 62
    7
 10
555.32855844217374
 20
408.59722409549198
 11
555.74736977312773
 21
408.97705871013682
  0
LINE
  8
_0-0_0
  6
CONTINUOUS
 62
    7
 10
555.74736977312773
 20
408.97705871013682
 11
556.12286280274725
 21
409.39149539757398
  0
LINE
  8
_0-0_0
  6
CONTINUOUS
 62
    7
 10
556.12286280274725
 20
409.39149539757398
 11
556.45117763770577
 21
409.84126791997772
  0
LINE
  8
_0-0_0
  6
CONTINUOUS
 62
    7
 10
556.45117763770577
 20
409.84126791997772
 11
556.72845438467664
 21
410.32711003952193
  0
LINE
  8
_0-0_0
  6
CONTINUOUS
 62
    7
 10
556.72845438467664
 20
410.32711003952193
 11
556.95083315033366
 21
410.84975551838124
  0
LINE
  8
_0-0_0
  6
CONTINUOUS
 62
    7
 10
556.95083315033366
 20
410.84975551838124
 11
557.11445404134997
 21
411.40993811872983
  0
LINE
  8
_0-0_0
  6
CONTINUOUS
 62
    7
 10
557.11445404134997
 20
411.40993811872983
 11
557.21545716439914
 21
412.00839160274171
  0
LINE
  8
_0-0_0
  6
CONTINUOUS
 62
    7
 10
557.21545716439914
 20
412.00839160274171
 11
557.24998262615497
 21
412.64584973259127
  0
LINE
  8
_0-0_0
  6
CONTINUOUS
 62
    7
 10
557.24998262615497
 20
412.64584973259127
 11
557.24826625767469
 21
414.19896654228921
  0
LINE
  8
_0-0_0
  6
CONTINUOUS
 62
    7
 10
557.24826625767469
 20
414.19896654228921
 11
557.24331330863197
 21
417.51933418188253
  0
LINE
  8
_0-0_0
  6
CONTINUOUS
 62
    7
 10
557.24331330863197
 20
417.51933418188253
 11
557.23541801362296
 21
422.44396332736528
  0
LINE
  8
_0-0_0
  6
CONTINUOUS
 62
    7
 10
557.23541801362296
 20
422.44396332736528
 11
557.2248746072446
 21
428.80986465473148
  0
LINE
  8
_0-0_0
  6
CONTINUOUS
 62
    7
 10
557.2248746072446
 20
428.80986465473148
 11
557.21197732409337
 21
436.45404883997526
  0
LINE
  8
_0-0_0
  6
CONTINUOUS
 62
    7
 10
557.21197732409337
 20
436.45404883997526
 11
557.19702039876597
 21
445.21352655909072
  0
LINE
  8
_0-0_0
  6
CONTINUOUS
 62
    7
 10
557.19702039876597
 20
445.21352655909072
 11
557.18029806585878
 21
454.92530848807172
  0
LINE
  8
_0-0_0
  6
CONTINUOUS
 62
    7
 10
557.18029806585878
 20
454.92530848807172
 11
557.16210455996872
 21
465.42640530291243
  0
LINE
  8
_0-0_0
  6
CONTINUOUS
 62
    7
 10
557.16210455996872
 20
465.42640530291243
 11
557.14273411569218
 21
476.55382767960691
  0
LINE
  8
_0-0_0
  6
CONTINUOUS
 62
    7
 10
557.14273411569218
 20
476.55382767960691
 11
557.12248096762573
 21
488.14458629414929
  0
LINE
  8
_0-0_0
  6
CONTINUOUS
 62
    7
 10
557.12248096762573
 20
488.14458629414929
 11
557.10163935036621
 21
500.03569182253352
  0
LINE
  8
_0-0_0
  6
CONTINUOUS
 62
    7
 10
557.10163935036621
 20
500.03569182253352
 11
557.08050349850987
 21
512.06415494075372
  0
LINE
  8
_0-0_0
  6
CONTINUOUS
 62
    7
 10
557.08050349850987
 20
512.06415494075372
 11
557.05936764665375
 21
524.06698632480379
  0
LINE
  8
_0-0_0
  6
CONTINUOUS
 62
    7
 10
557.05936764665375
 20
524.06698632480379
 11
557.03852602939423
 21
535.88119665067791
  0
LINE
  8
_0-0_0
  6
CONTINUOUS
 62
    7
 10
557.03852602939423
 20
535.88119665067791
 11
557.0182728813279
 21
547.34379659437025
  0
LINE
  8
_0-0_0
  6
CONTINUOUS
 62
    7
 10
557.0182728813279
 20
547.34379659437025
 11
556.99890243705136
 21
558.29179683187476
  0
LINE
  8
_0-0_0
  6
CONTINUOUS
 62
    7
 10
556.99890243705136
 20
558.29179683187476
 11
556.98070893116119
 21
568.56220803918541
  0
LINE
  8
_0-0_0
  6
CONTINUOUS
 62
    7
 10
556.98070893116119
 20
568.56220803918541
 11
556.963986598254
 21
577.99204089229636
  0
LINE
  8
_0-0_0
  6
CONTINUOUS
 62
    7
 10
556.963986598254
 20
577.99204089229636
 11
556.9490296729266
 21
586.41830606720146
  0
LINE
  8
_0-0_0
  6
CONTINUOUS
 62
    7
 10
556.9490296729266
 20
586.41830606720146
 11
556.93613238977537
 21
593.67801423989522
  0
LINE
  8
_0-0_0
  6
CONTINUOUS
 62
    7
 10
556.93613238977537
 20
593.67801423989522
 11
556.92558898339701
 21
599.60817608637126
  0
LINE
  8
_0-0_0
  6
CONTINUOUS
 62
    7
 10
556.92558898339701
 20
599.60817608637126
 11
556.917693688388
 21
604.04580228262375
  0
LINE
  8
_0-0_0
  6
CONTINUOUS
 62
    7
 10
556.917693688388
 20
604.04580228262375
 11
556.91274073934517
 21
606.82790350464688
  0
LINE
  8
_0-0_0
  6
CONTINUOUS
 62
    7
 10
556.91274073934517
 20
606.82790350464688
 11
556.91102437086499
 21
607.7914904284346
  0
LINE
  8
_0-2_用紙枠
  6
CONTINUOUS
 62
    7
 10
0
 20
0
 11
1485
 21
0
  0
LINE
  8
_0-2_用紙枠
  6
CONTINUOUS
 62
    7
 10
1485
 20
0
 11
1485
 21
1050
  0
LINE
  8
_0-2_用紙枠
  6
CONTINUOUS
 62
    7
 10
1485
 20
1050
 11
0
 21
1050
  0
LINE
  8
_0-2_用紙枠
  6
CONTINUOUS
 62
    7
 10
0
 20
1050
 11
0
 21
0
  0
LINE
  8
_0-0_0
  6
CONTINUOUS
 62
    7
 10
310.25001737384503
 20
599.31370684382227
 11
310.25001737384503
 21
663.55956495049043
  0
LINE
  8
_0-0_0
  6
CONTINUOUS
 62
    7
 10
445.24997789028362
 20
599.6790528355117
 11
445.24997789028362
 21
663.55956495049043
  0
LINE
  8
_0-0_0
  6
CONTINUOUS
 62
    7
 10
327.75001737384503
 20
663.46956495049039
 11
427.74997789028362
 21
663.46956495049039
  0
LINE
  8
_0-0_0
  6
CONTINUOUS
 62
    7
 10
430.67336345308763
 20
406.46956495049039
 11
470.34001307506429
 21
406.46956495049039
  0
LINE
  8
_0-0_0
  6
CONTINUOUS
 62
    7
 10
432.08956585024623
 20
613.46928095434464
 11
470.34001307506429
 21
613.46928095434464
  0
LINE
  8
_0-0_0
  6
CONTINUOUS
 62
    7
 10
470.25001307506437
 20
423.96956495049039
 11
470.25001307506437
 21
595.96928095434464
  0
LINE
  8
_0-0_0
  6
CONTINUOUS
 62
    7
 10
520.2500130750592
 20
526.82498524319976
 11
520.2500130750592
 21
663.55956495049043
  0
LINE
  8
_0-0_0
  6
CONTINUOUS
 62
    7
 10
557.24998262615497
 20
412.67710390653588
 11
557.24998262615497
 21
663.55956495049043
  0
LINE
  8
_0-0_0
  6
CONTINUOUS
 62
    7
 10
502.7500130750592
 20
663.46956495049039
 11
485.2500130750592
 21
663.46956495049039
  0
LINE
  8
_0-0_0
  6
CONTINUOUS
 62
    7
 10
574.74998262615497
 20
663.46956495049039
 11
592.24998262615497
 21
663.46956495049039
  0
LINE
  8
_0-0_0
  6
CONTINUOUS
 62
    7
 10
520.2500130750592
 20
663.46956495049039
 11
557.24998262615497
 21
663.46956495049039
  0
LINE
  8
_0-0_0
  6
CONTINUOUS
 62
    7
 10
913.86952009392826
 20
610.84718938810556
 11
1288.8695200939283
 21
610.84718938810556
  0
LINE
  8
_0-0_0
  6
CONTINUOUS
 62
    7
 10
913.86952009392826
 20
585.84718938810556
 11
1288.8695200939283
 21
585.84718938810556
  0
LINE
  8
_0-0_0
  6
CONTINUOUS
 62
    7
 10
913.86952009392826
 20
560.84718938810556
 11
1288.8695200939283
 21
560.84718938810556
  0
LINE
  8
_0-0_0
  6
CONTINUOUS
 62
    7
 10
913.86952009392826
 20
535.84718938810556
 11
1288.8695200939283
 21
535.84718938810556
  0
LINE
  8
_0-0_0
  6
CONTINUOUS
 62
    7
 10
913.86952009392826
 20
510.84718938810562
 11
1288.8695200939283
 21
510.84718938810562
  0
LINE
  8
_0-0_0
  6
CONTINUOUS
 62
    7
 10
913.86952009392826
 20
485.84718938810562
 11
1288.8695200939283
 21
485.84718938810562
  0
LINE
  8
_0-0_0
  6
CONTINUOUS
 62
    7
 10
913.86952009392826
 20
460.84718938810562
 11
1288.8695200939283
 21
460.84718938810562
  0
LINE
  8
_0-0_0
  6
CONTINUOUS
 62
    7
 10
913.86952009392826
 20
435.84718938810562
 11
1288.8695200939283
 21
435.84718938810562
  0
LINE
  8
_0-0_0
  6
CONTINUOUS
 62
    7
 10
913.86952009392826
 20
410.84718938810562
 11
1288.8695200939283
 21
410.84718938810562
  0
LINE
  8
_0-0_0
  6
CONTINUOUS
 62
    7
 10
913.86952009392826
 20
385.84718938810562
 11
1288.8695200939283
 21
385.84718938810562
  0
LINE
  8
_0-0_0
  6
CONTINUOUS
 62
    7
 10
913.86952009392826
 20
610.84718938810556
 11
913.86952009392826
 21
385.84718938810562
  0
LINE
  8
_0-0_0
  6
CONTINUOUS
 62
    7
 10
1088.8695200939283
 20
585.84718938810556
 11
1088.8695200939283
 21
385.84718938810562
  0
LINE
  8
_0-0_0
  6
CONTINUOUS
 62
    7
 10
1288.8695200939283
 20
610.84718938810556
 11
1288.8695200939283
 21
385.84718938810562
  0
LINE
  8
_0-3_図面枠
  6
CONTINUOUS
 62
    7
 10
1435
 20
50
 11
1435
 21
1000
  0
LINE
  8
_0-3_図面枠
  6
CONTINUOUS
 62
    7
 10
1435
 20
1000
 11
100
 21
1000
  0
LINE
  8
_0-3_図面枠
  6
CONTINUOUS
 62
    7
 10
100
 20
1000
 11
100
 21
50
  0
LINE
  8
_0-3_図面枠
  6
CONTINUOUS
 62
    7
 10
100
 20
50
 11
1435
 21
50
  0
TEXT
  8
_0-0_0
 62
    7
 10
914.61952009392826
 20
393.26196211537831
 40
10
 41
1
 50
0
  1
  質量
  0
TEXT
  8
_0-0_0
 62
    7
 10
914.61952009392826
 20
418.26196211537831
 40
10
 41
1
 50
0
  1
  外形寸法（WxHxD）
  0
TEXT
  8
_0-0_0
 62
    7
 10
914.61952009392826
 20
443.09150756992369
 40
10
 41
1
 50
0
  1
  使用湿度範囲
  0
TEXT
  8
_0-0_0
 62
    7
 10
914.61952009392826
 20
468.09150756992369
 40
10
 41
1
 50
0
  1
  使用温度範囲
  0
TEXT
  8
_0-0_0
 62
    7
 10
914.61952009392826
 20
493.14832575174188
 40
10
 41
1
 50
0
  1
  最大消費電力
  0
TEXT
  8
_0-0_0
 62
    7
 10
914.61952009392826
 20
518.11991666083281
 40
10
 41
1
 50
0
  1
  定格入力電圧
  0
TEXT
  8
_0-0_0
 62
    7
 10
914.61952009392826
 20
543.17673484265094
 40
10.000000000000004
 41
0.9999999999999995
 50
0
  1
  設置方法
  0
TEXT
  8
_0-0_0
 62
    7
 10
914.61952009392826
 20
567.97787120628732
 40
10
 41
1
 50
0
  1
  型式
  0
TEXT
  8
_0-0_0
 62
    7
 10
526.17187285060709
 20
668.46956495049039
 40
17.499999999999982
 41
1.0000000000000011
 50
0
  1
37
  0
LINE
  8
_0-0_0
  6
CONTINUOUS
 62
    7
 10
574.74998262615497
 20
660.55289828382365
 11
557.24998262615497
 21
663.46956495049039
  0
LINE
  8
_0-0_0
  6
CONTINUOUS
 62
    7
 10
574.74998262615497
 20
666.38623161715702
 11
557.24998262615497
 21
663.46956495049039
  0
LINE
  8
_0-0_0
  6
CONTINUOUS
 62
    7
 10
557.24998262615497
 20
663.46956495049039
 11
574.74998262615497
 21
663.46956495049039
  0
LINE
  8
_0-0_0
  6
CONTINUOUS
 62
    7
 10
502.7500130750592
 20
666.38623161715702
 11
520.2500130750592
 21
663.46956495049039
  0
LINE
  8
_0-0_0
  6
CONTINUOUS
 62
    7
 10
502.7500130750592
 20
660.55289828382365
 11
520.2500130750592
 21
663.46956495049039
  0
LINE
  8
_0-0_0
  6
CONTINUOUS
 62
    7
 10
520.2500130750592
 20
663.46956495049039
 11
502.7500130750592
 21
663.46956495049039
  0
TEXT
  8
_0-0_0
 62
    7
 10
465.25001307506432
 20
491.02766158878131
 40
17.5
 41
1.0000000000000002
 50
90
  1
207
  0
LINE
  8
_0-0_0
  6
CONTINUOUS
 62
    7
 10
467.33334640839769
 20
595.96928095434464
 11
470.25001307506437
 21
613.46928095434464
  0
LINE
  8
_0-0_0
  6
CONTINUOUS
 62
    7
 10
473.16667974173117
 20
595.96928095434464
 11
470.25001307506437
 21
613.46928095434464
  0
LINE
  8
_0-0_0
  6
CONTINUOUS
 62
    7
 10
470.25001307506437
 20
613.46928095434464
 11
470.25001307506437
 21
595.96928095434464
  0
LINE
  8
_0-0_0
  6
CONTINUOUS
 62
    7
 10
473.16667974173117
 20
423.96956495049039
 11
470.25001307506437
 21
406.46956495049039
  0
LINE
  8
_0-0_0
  6
CONTINUOUS
 62
    7
 10
467.33334640839769
 20
423.96956495049039
 11
470.25001307506437
 21
406.46956495049039
  0
LINE
  8
_0-0_0
  6
CONTINUOUS
 62
    7
 10
470.25001307506437
 20
406.46956495049039
 11
470.25001307506437
 21
423.96956495049039
  0
TEXT
  8
_0-0_0
 62
    7
 10
357.96306581388251
 20
668.46956495049039
 40
17.499999999999982
 41
1.0000000000000011
 50
0
  1
135
  0
LINE
  8
_0-0_0
  6
CONTINUOUS
 62
    7
 10
427.74997789028362
 20
666.38623161715702
 11
445.24997789028362
 21
663.46956495049039
  0
LINE
  8
_0-0_0
  6
CONTINUOUS
 62
    7
 10
427.74997789028362
 20
660.55289828382365
 11
445.24997789028362
 21
663.46956495049039
  0
LINE
  8
_0-0_0
  6
CONTINUOUS
 62
    7
 10
445.24997789028362
 20
663.46956495049039
 11
427.74997789028362
 21
663.46956495049039
  0
LINE
  8
_0-0_0
  6
CONTINUOUS
 62
    7
 10
327.75001737384503
 20
660.55289828382365
 11
310.25001737384503
 21
663.46956495049039
  0
LINE
  8
_0-0_0
  6
CONTINUOUS
 62
    7
 10
327.75001737384503
 20
666.38623161715702
 11
310.25001737384503
 21
663.46956495049039
  0
LINE
  8
_0-0_0
  6
CONTINUOUS
 62
    7
 10
310.25001737384503
 20
663.46956495049039
 11
327.75001737384503
 21
663.46956495049039
  0
TEXT
  8
_0-0_0
 62
    7
 10
1071.3695200939283
 20
593.14832575174194
 40
10
 41
1
 50
0
  1
計測ユニット
  0
TEXT
  8
_0-0_0
 62
    7
 10
1156.3695200939283
 20
568.34718938810556
 40
10
 41
1
 50
0
  1
TPV-CM002D-SU
  0
TEXT
  8
_0-0_0
 62
    7
 10
1168.8695200939283
 20
543.06309847901468
 40
10.000000000000004
 41
0.9999999999999995
 50
0
  1
壁面設置
  0
TEXT
  8
_0-0_0
 62
    7
 10
1141.3695200939283
 20
518.09150756992369
 40
10
 41
1
 50
0
  1
単相3線式 100V/200V
  0
TEXT
  8
_0-0_0
 62
    7
 10
1173.8695200939283
 20
493.54605302446919
 40
10.000000000000002
 41
0.9999999999999997
 50
0
  1
3W以下
  0
TEXT
  8
_0-0_0
 62
    7
 10
1128.8695200939283
 20
468.06309847901468
 40
10
 41
1
 50
0
  1
-10～+40℃(氷結なきこと)
  0
TEXT
  8
_0-0_0
 62
    7
 10
1131.3695200939283
 20
443.26196211537831
 40
10
 41
1
 50
0
  1
25～85%RH(結露なきこと)
  0
TEXT
  8
_0-0_0
 62
    7
 10
1153.8695200939283
 20
418.34718938810562
 40
10.000000000000018
 41
0.9999999999999982
 50
0
  1
135x207x37ｍｍ
  0
TEXT
  8
_0-0_0
 62
    7
 10
1173.8695200939283
 20
393.40400756992369
 40
10
 41
1
 50
0
  1
約410g
  0
ENDSEC
  0
EOF
