  0
SECTION
  2
HEADER
  9
$ACADVER
  1
AC1009
  9
$INSBASE
 10
0
 20
0
 30
0
  9
$EXTMIN
 10
0
 20
0
  9
$EXTMAX
 10
1485
 20
1050
  9
$LIMMIN
 10
0
 20
0
  9
$LIMMAX
 10
1485
 20
1050
  9
$LTSCALE
 40
5
  0
ENDSEC
  0
SECTION
  2
TABLES
  0
TABLE
  2
LTYPE
 70
     9
  0
LTYPE
  2
CONTINUOUS
 70
    64
  3
実線
 72
    65
 73
     0
 40
0.0
  0
LTYPE
  2
DASHED1
 70
    64
  3
--  --  --  --  --  --  --  --  
 72
    65
 73
     2
 40
2.5
 49
1.25
 49
-1.25
  0
LTYPE
  2
DASHED2
 70
    64
  3
----    ----    ----    ----    
 72
    65
 73
     2
 40
5.0
 49
2.5
 49
-2.5
  0
LTYPE
  2
DASHED3
 70
    64
  3
------  ------  ------  ------  
 72
    65
 73
     2
 40
5.0
 49
3.75
 49
-1.25
  0
LTYPE
  2
CENTER1
 70
    64
  3
----- - ----- - ----- - ----- - 
 72
    65
 73
     4
 40
10.0
 49
6.25
 49
-1.25
 49
1.25
 49
-1.25
  0
LTYPE
  2
CENTER2
 70
    64
  3
----------  --  ----------  --  
 72
    65
 73
     4
 40
20.0
 49
12.5
 49
-2.5
 49
2.5
 49
-2.5
  0
LTYPE
  2
PHANTOM1
 70
    64
  3
--- - - --- - - --- - - --- - - 
 72
    65
 73
     6
 40
10.0
 49
3.25
 49
-1.25
 49
1.25
 49
-1.25
 49
1.25
 49
-1.25
  0
LTYPE
  2
PHANTOM2
 70
    64
  3
--------  -  -  --------  -  -  
 72
    65
 73
     6
 40
20.0
 49
10.0
 49
-2.5
 49
1.25
 49
-2.5
 49
1.25
 49
-2.5
  0
LTYPE
  2
DOT
 70
    64
  3
-   -   -   -   -   -   -   -   
 72
    65
 73
     2
 40
2.5
 49
0.625
 49
-1.875
  0
LTYPE
  2
DUMMY
 70
    64
  3
ダミー
 72
    65
 73
     0
 40
0.0
  0
LTYPE
  2
RAND1
 70
    64
  3
ランダム線1
 72
    65
 73
     4
 40
10.0
 49
1.0
 49
-2.0
 49
3.0
 49
-4.0
  0
LTYPE
  2
RAND2
 70
    64
  3
ランダム線2
 72
    65
 73
     4
 40
14.0
 49
2.0
 49
-3.0
 49
4.0
 49
-5.0
  0
LTYPE
  2
RAND3
 70
    64
  3
ランダム線3
 72
    65
 73
     4
 40
18.0
 49
3.0
 49
-4.0
 49
5.0
 49
-6.0
  0
LTYPE
  2
RAND4
 70
    64
  3
ランダム線4
 72
    65
 73
     4
 40
22.0
 49
4.0
 49
-5.0
 49
6.0
 49
-7.0
  0
LTYPE
  2
RAND5
 70
    64
  3
ランダム線5
 72
    65
 73
     4
 40
26.0
 49
5.0
 49
-6.0
 49
7.0
 49
-8.0
  0
LTYPE
  2
LONG1
 70
    64
  3
----------  --  ----------  --  
 72
    65
 73
     4
 40
40.0
 49
32.5
 49
-2.5
 49
2.5
 49
-2.5
  0
LTYPE
  2
LONG2
 70
    64
  3
--------  -  -  --------  -  -  
 72
    65
 73
     6
 40
40.0
 49
30.0
 49
-2.5
 49
1.25
 49
-2.5
 49
1.25
 49
-2.5
  0
LTYPE
  2
LONG3
 70
    64
  3
+++++++++++++++..+++++++++++++++
 72
    65
 73
     2
 40
40.0
 49
37.5
 49
-2.5
  0
LTYPE
  2
LONG4
 70
    64
  3
+++++++++++++++..+++++++++++++++
 72
    65
 73
     2
 40
80.0
 49
75.0
 49
-5.0
  0
LTYPE
  2
LONG5
 70
    64
  3
----------  --  ----------  --  
 72
    65
 73
     4
 40
60.0
 49
37.5
 49
-7.5
 49
7.5
 49
-7.5
  0
LTYPE
  2
dashed
 70
   64
  3
-------   -------------   ------
 72
   65
 73
    2
 40
7.5
 49
6
 49
-1.5
  0
LTYPE
  2
dashed_spaced
 70
   64
  3
----        --------        ----
 72
   65
 73
    2
 40
12
 49
6
 49
-6
  0
LTYPE
  2
long_dashed_dotted
 70
   64
  3
------------- --- --------------
 72
   65
 73
    4
 40
15.25
 49
12
 49
-1.5
 49
0.25
 49
-1.5
  0
LTYPE
  2
long_dashed_double-dotted
 70
   64
  3
----------- --- --- ------------
 72
   65
 73
    6
 40
17
 49
12
 49
-1.5
 49
0.25
 49
-1.5
 49
0.25
 49
-1.5
  0
LTYPE
  2
long_dashed_triplicate-dotted
 70
   64
  3
--------- --- --- --- ----------
 72
   65
 73
    8
 40
18.75
 49
12
 49
-1.5
 49
0.25
 49
-1.5
 49
0.25
 49
-1.5
 49
0.25
 49
-1.5
  0
LTYPE
  2
dotted
 70
   64
  3
   -       -       -       -    
 72
   65
 73
    2
 40
1.75
 49
0.25
 49
-1.5
  0
LTYPE
  2
chain
 70
   64
  3
-------------- -- --------------
 72
   65
 73
    4
 40
18.5
 49
12
 49
-1.5
 49
3.5
 49
-1.5
  0
LTYPE
  2
chain_double_dash
 70
   64
  3
------------ -- -- -------------
 72
   65
 73
    6
 40
23.5
 49
12
 49
-1.5
 49
3.5
 49
-1.5
 49
3.5
 49
-1.5
  0
LTYPE
  2
dashed_dotted
 70
   64
  3
-----------     -     ----------
 72
   65
 73
    4
 40
9.25
 49
6
 49
-1.5
 49
0.25
 49
-1.5
  0
LTYPE
  2
double-dashed_dotted
 70
   64
  3
------   -----------   -   -----
 72
   65
 73
    6
 40
16.75
 49
6
 49
-1.5
 49
6
 49
-1.5
 49
0.25
 49
-1.5
  0
LTYPE
  2
dashed_double-dotted
 70
   64
  3
---------    -    -    ---------
 72
   65
 73
    6
 40
11
 49
6
 49
-1.5
 49
0.25
 49
-1.5
 49
0.25
 49
-1.5
  0
LTYPE
  2
double-dashed_double-dotted
 70
   64
  3
-----   ---------   -   -   ----
 72
   65
 73
    8
 40
18.5
 49
6
 49
-1.5
 49
6
 49
-1.5
 49
0.25
 49
-1.5
 49
0.25
 49
-1.5
  0
LTYPE
  2
dashed_triplicate-dotted
 70
   64
  3
-------    -    -    -    ------
 72
   65
 73
    8
 40
12.75
 49
6
 49
-1.5
 49
0.25
 49
-1.5
 49
0.25
 49
-1.5
 49
0.25
 49
-1.5
  0
LTYPE
  2
double-dashed_triplicate-dotted
 70
   64
  3
-----  ---------  -  -  -  -----
 72
   65
 73
   10
 40
20.25
 49
6
 49
-1.5
 49
6
 49
-1.5
 49
0.25
 49
-1.5
 49
0.25
 49
-1.5
 49
0.25
 49
-1.5
  0
LTYPE
  2
undefined
 70
   64
  3
--------------------------------
 72
   65
 73
    0
 40
0
  0
ENDTAB
  0
TABLE
  2
STYLE
  5
3
100
AcDbSymbolTable
 70
     1
  0
STYLE
  5
10
100
AcDbSymbolTableRecord
100
AcDbTextStyleTableRecord
  2
STANDARD
 70
     0
 40
0.0
 41
1.0
 50
0.0
 71
     0
 42
0.2
  3
txt
  4
bigfont.shx
  0
STYLE
  5
26
100
AcDbSymbolTableRecord
100
AcDbTextStyleTableRecord
  2
TATEGAKI
 70
    68
 40
0.0
 41
1.0
 50
0.0
 71
     0
 42
1.0
  3
txt
  4
bigfont.shx
  0
ENDTAB
  0
TABLE
  2
LAYER
 70
    4
  0
LAYER
  2
_0-0_0
 70
   64
 62
    7
  6
CONTINUOUS
  0
LAYER
  2
_0-2_用紙枠
 70
   64
 62
    7
  6
CONTINUOUS
  0
LAYER
  2
_0-3_図面枠
 70
   64
 62
    7
  6
CONTINUOUS
  0
LAYER
  2
ADD_LINE
 70
   64
 62
    7
  6
CONTINUOUS
  0
ENDTAB
  0
ENDSEC
  0
SECTION
  2
BLOCKS
  0
ENDSEC
  0
SECTION
  2
ENTITIES
  0
LINE
  8
_0-3_図面枠
  6
CONTINUOUS
 62
    7
 10
1435
 20
946.69437877621112
 11
100
 21
946.69437877621112
  0
TEXT
  8
_0-3_図面枠
 62
    7
 10
125
 20
959.19437877621112
 40
25
 41
1
 50
0
  1
表示器／カラー表示器　TPV-CM002D
  0
LINE
  8
_0-0_0
  6
CONTINUOUS
 62
    7
 10
438.46615483627272
 20
459.40634109134947
 11
438.36079014364418
 21
459.30660351642405
  0
LINE
  8
_0-0_0
  6
CONTINUOUS
 62
    7
 10
438.36079014364418
 20
459.30660351642405
 11
438.26420054309892
 21
459.21517239010433
  0
LINE
  8
_0-0_0
  6
CONTINUOUS
 62
    7
 10
438.26420054309892
 20
459.21517239010433
 11
438.17600450889501
 21
459.13168656245091
  0
LINE
  8
_0-0_0
  6
CONTINUOUS
 62
    7
 10
438.17600450889501
 20
459.13168656245091
 11
438.09582051528929
 21
459.05578488352438
  0
LINE
  8
_0-0_0
  6
CONTINUOUS
 62
    7
 10
438.09582051528929
 20
459.05578488352438
 11
438.02326703653887
 21
458.98710620338568
  0
LINE
  8
_0-0_0
  6
CONTINUOUS
 62
    7
 10
438.02326703653887
 20
458.98710620338568
 11
437.95796254690117
 21
458.92528937209499
  0
LINE
  8
_0-0_0
  6
CONTINUOUS
 62
    7
 10
437.95796254690117
 20
458.92528937209499
 11
437.89952552063323
 21
458.86997323971332
  0
LINE
  8
_0-0_0
  6
CONTINUOUS
 62
    7
 10
437.89952552063323
 20
458.86997323971332
 11
437.84757443199271
 21
458.82079665630101
  0
LINE
  8
_0-0_0
  6
CONTINUOUS
 62
    7
 10
437.84757443199271
 20
458.82079665630101
 11
437.80172775523619
 21
458.77739847191879
  0
LINE
  8
_0-0_0
  6
CONTINUOUS
 62
    7
 10
437.80172775523619
 20
458.77739847191879
 11
437.76160396462132
 21
458.7394175366274
  0
LINE
  8
_0-0_0
  6
CONTINUOUS
 62
    7
 10
437.76160396462132
 20
458.7394175366274
 11
437.72682153440542
 21
458.70649270048722
  0
LINE
  8
_0-0_0
  6
CONTINUOUS
 62
    7
 10
437.72682153440542
 20
458.70649270048722
 11
437.69699893884547
 21
458.67826281355889
  0
LINE
  8
_0-0_0
  6
CONTINUOUS
 62
    7
 10
437.69699893884547
 20
458.67826281355889
 11
437.67175465219862
 21
458.65436672590329
  0
LINE
  8
_0-0_0
  6
CONTINUOUS
 62
    7
 10
437.67175465219862
 20
458.65436672590329
 11
437.65070714872252
 21
458.63444328758078
  0
LINE
  8
_0-0_0
  6
CONTINUOUS
 62
    7
 10
437.65070714872252
 20
458.63444328758078
 11
437.63347490267392
 21
458.61813134865213
  0
LINE
  8
_0-0_0
  6
CONTINUOUS
 62
    7
 10
437.63347490267392
 20
458.61813134865213
 11
437.61967638831049
 21
458.60506975917792
  0
LINE
  8
_0-0_0
  6
CONTINUOUS
 62
    7
 10
437.61967638831049
 20
458.60506975917792
 11
437.60893007988909
 21
458.59489736921881
  0
LINE
  8
_0-0_0
  6
CONTINUOUS
 62
    7
 10
437.60893007988909
 20
458.59489736921881
 11
437.60085445166692
 21
458.58725302883511
  0
LINE
  8
_0-0_0
  6
CONTINUOUS
 62
    7
 10
437.60085445166692
 20
458.58725302883511
 11
437.59506797790152
 21
458.58177558808779
  0
LINE
  8
_0-0_0
  6
CONTINUOUS
 62
    7
 10
437.59506797790152
 20
458.58177558808779
 11
437.59118913285022
 21
458.57810389703752
  0
LINE
  8
_0-0_0
  6
CONTINUOUS
 62
    7
 10
437.59118913285022
 20
458.57810389703752
 11
437.58883639076987
 21
458.57587680574466
  0
LINE
  8
_0-0_0
  6
CONTINUOUS
 62
    7
 10
437.58883639076987
 20
458.57587680574466
 11
437.58762822591763
 21
458.57473316427001
  0
LINE
  8
_0-0_0
  6
CONTINUOUS
 62
    7
 10
437.58762822591763
 20
458.57473316427001
 11
437.58718311255109
 21
458.57431182267408
  0
LINE
  8
_0-0_0
  6
CONTINUOUS
 62
    7
 10
437.58718311255109
 20
458.57431182267408
 11
437.58711952492729
 21
458.57425163101738
  0
LINE
  8
_0-0_0
  6
CONTINUOUS
 62
    7
 10
437.58711952492729
 20
458.57425163101738
 11
423.84449981011005
 21
458.57425163101738
  0
LINE
  8
_0-0_0
  6
CONTINUOUS
 62
    7
 10
423.84449981011005
 20
458.57425163101738
 11
411.24640726526542
 21
458.57425163101738
  0
LINE
  8
_0-0_0
  6
CONTINUOUS
 62
    7
 10
411.24640726526542
 20
458.57425163101738
 11
399.74307983952508
 21
458.57425163101738
  0
LINE
  8
_0-0_0
  6
CONTINUOUS
 62
    7
 10
399.74307983952508
 20
458.57425163101738
 11
389.28475548202078
 21
458.57425163101738
  0
LINE
  8
_0-0_0
  6
CONTINUOUS
 62
    7
 10
389.28475548202078
 20
458.57425163101738
 11
379.82167214188405
 21
458.57425163101738
  0
LINE
  8
_0-0_0
  6
CONTINUOUS
 62
    7
 10
379.82167214188405
 20
458.57425163101738
 11
371.30406776824663
 21
458.57425163101738
  0
LINE
  8
_0-0_0
  6
CONTINUOUS
 62
    7
 10
371.30406776824663
 20
458.57425163101738
 11
363.68218031023991
 21
458.57425163101738
  0
LINE
  8
_0-0_0
  6
CONTINUOUS
 62
    7
 10
363.68218031023991
 20
458.57425163101738
 11
356.90624771699567
 21
458.57425163101755
  0
LINE
  8
_0-0_0
  6
CONTINUOUS
 62
    7
 10
356.90624771699567
 20
458.57425163101755
 11
350.92650793764534
 21
458.57425163101738
  0
LINE
  8
_0-0_0
  6
CONTINUOUS
 62
    7
 10
350.92650793764534
 20
458.57425163101738
 11
345.69319892132086
 21
458.57425163101738
  0
LINE
  8
_0-0_0
  6
CONTINUOUS
 62
    7
 10
345.69319892132086
 20
458.57425163101738
 11
341.15655861715368
 21
458.57425163101755
  0
LINE
  8
_0-0_0
  6
CONTINUOUS
 62
    7
 10
341.15655861715368
 20
458.57425163101755
 11
337.26682497427532
 21
458.57425163101738
  0
LINE
  8
_0-0_0
  6
CONTINUOUS
 62
    7
 10
337.26682497427532
 20
458.57425163101738
 11
333.97423594181765
 21
458.57425163101738
  0
LINE
  8
_0-0_0
  6
CONTINUOUS
 62
    7
 10
333.97423594181765
 20
458.57425163101738
 11
331.22902946891202
 21
458.57425163101738
  0
LINE
  8
_0-0_0
  6
CONTINUOUS
 62
    7
 10
331.22902946891202
 20
458.57425163101738
 11
328.98144350469039
 21
458.57425163101738
  0
LINE
  8
_0-0_0
  6
CONTINUOUS
 62
    7
 10
328.98144350469039
 20
458.57425163101738
 11
327.18171599828406
 21
458.57425163101738
  0
LINE
  8
_0-0_0
  6
CONTINUOUS
 62
    7
 10
327.18171599828406
 20
458.57425163101738
 11
325.78008489882473
 21
458.57425163101738
  0
LINE
  8
_0-0_0
  6
CONTINUOUS
 62
    7
 10
325.78008489882473
 20
458.57425163101738
 11
324.72678815544396
 21
458.57425163101738
  0
LINE
  8
_0-0_0
  6
CONTINUOUS
 62
    7
 10
324.72678815544396
 20
458.57425163101738
 11
323.97206371727373
 21
458.57425163101738
  0
LINE
  8
_0-0_0
  6
CONTINUOUS
 62
    7
 10
323.97206371727373
 20
458.57425163101738
 11
323.46614953344499
 21
458.57425163101738
  0
LINE
  8
_0-0_0
  6
CONTINUOUS
 62
    7
 10
323.46614953344499
 20
458.57425163101738
 11
323.15928355309012
 21
458.57425163101755
  0
LINE
  8
_0-0_0
  6
CONTINUOUS
 62
    7
 10
323.15928355309012
 20
458.57425163101755
 11
323.00170372534012
 21
458.57425163101738
  0
LINE
  8
_0-0_0
  6
CONTINUOUS
 62
    7
 10
323.00170372534012
 20
458.57425163101738
 11
322.94364799932708
 21
458.57425163101738
  0
LINE
  8
_0-0_0
  6
CONTINUOUS
 62
    7
 10
322.94364799932708
 20
458.57425163101738
 11
322.93535432418241
 21
458.57425163101738
  0
LINE
  8
_0-0_0
  6
CONTINUOUS
 62
    7
 10
322.93535432418241
 20
458.57425163101738
 11
322.81205521578693
 21
458.67398920594292
  0
LINE
  8
_0-0_0
  6
CONTINUOUS
 62
    7
 10
322.81205521578693
 20
458.67398920594292
 11
322.69902483217038
 21
458.76542033226269
  0
LINE
  8
_0-0_0
  6
CONTINUOUS
 62
    7
 10
322.69902483217038
 20
458.76542033226269
 11
322.5958167070379
 21
458.84890615991606
  0
LINE
  8
_0-0_0
  6
CONTINUOUS
 62
    7
 10
322.5958167070379
 20
458.84890615991606
 11
322.50198437409489
 21
458.92480783884258
  0
LINE
  8
_0-0_0
  6
CONTINUOUS
 62
    7
 10
322.50198437409489
 20
458.92480783884258
 11
322.41708136704642
 21
458.99348651898129
  0
LINE
  8
_0-0_0
  6
CONTINUOUS
 62
    7
 10
322.41708136704642
 20
458.99348651898129
 11
322.34066121959802
 21
459.05530335027197
  0
LINE
  8
_0-0_0
  6
CONTINUOUS
 62
    7
 10
322.34066121959802
 20
459.05530335027197
 11
322.27227746545481
 21
459.11061948265353
  0
LINE
  8
_0-0_0
  6
CONTINUOUS
 62
    7
 10
322.27227746545481
 20
459.11061948265353
 11
322.21148363832197
 21
459.15979606606595
  0
LINE
  8
_0-0_0
  6
CONTINUOUS
 62
    7
 10
322.21148363832197
 20
459.15979606606595
 11
322.15783327190479
 21
459.20319425044806
  0
LINE
  8
_0-0_0
  6
CONTINUOUS
 62
    7
 10
322.15783327190479
 20
459.20319425044806
 11
322.11087989990881
 21
459.24117518573962
  0
LINE
  8
_0-0_0
  6
CONTINUOUS
 62
    7
 10
322.11087989990881
 20
459.24117518573962
 11
322.07017705603891
 21
459.27410002187969
  0
LINE
  8
_0-0_0
  6
CONTINUOUS
 62
    7
 10
322.07017705603891
 20
459.27410002187969
 11
322.03527827400069
 21
459.30232990880802
  0
LINE
  8
_0-0_0
  6
CONTINUOUS
 62
    7
 10
322.03527827400069
 20
459.30232990880802
 11
322.00573708749909
 21
459.32622599646368
  0
LINE
  8
_0-0_0
  6
CONTINUOUS
 62
    7
 10
322.00573708749909
 20
459.32622599646368
 11
321.98110703023963
 21
459.34614943478618
  0
LINE
  8
_0-0_0
  6
CONTINUOUS
 62
    7
 10
321.98110703023963
 20
459.34614943478618
 11
321.96094163592761
 21
459.36246137371478
  0
LINE
  8
_0-0_0
  6
CONTINUOUS
 62
    7
 10
321.96094163592761
 20
459.36246137371478
 11
321.9447944382681
 21
459.37552296318898
  0
LINE
  8
_0-0_0
  6
CONTINUOUS
 62
    7
 10
321.9447944382681
 20
459.37552296318898
 11
321.93221897096635
 21
459.38569535314821
  0
LINE
  8
_0-0_0
  6
CONTINUOUS
 62
    7
 10
321.93221897096635
 20
459.38569535314821
 11
321.92276876772786
 21
459.39333969353191
  0
LINE
  8
_0-0_0
  6
CONTINUOUS
 62
    7
 10
321.92276876772786
 20
459.39333969353191
 11
321.91599736225783
 21
459.39881713427906
  0
LINE
  8
_0-0_0
  6
CONTINUOUS
 62
    7
 10
321.91599736225783
 20
459.39881713427906
 11
321.91145828826131
 21
459.40248882532944
  0
LINE
  8
_0-0_0
  6
CONTINUOUS
 62
    7
 10
321.91145828826131
 20
459.40248882532944
 11
321.90870507944373
 21
459.40471591662231
  0
LINE
  8
_0-0_0
  6
CONTINUOUS
 62
    7
 10
321.90870507944373
 20
459.40471591662231
 11
321.90729126951049
 21
459.40585955809706
  0
LINE
  8
_0-0_0
  6
CONTINUOUS
 62
    7
 10
321.90729126951049
 20
459.40585955809706
 11
321.90677039216666
 21
459.406280899693
  0
LINE
  8
_0-0_0
  6
CONTINUOUS
 62
    7
 10
321.90677039216666
 20
459.406280899693
 11
321.90669598111748
 21
459.40634109134947
  0
LINE
  8
_0-0_0
  6
CONTINUOUS
 62
    7
 10
321.90669598111748
 20
459.40634109134947
 11
321.90669598111748
 21
469.81279467962327
  0
LINE
  8
_0-0_0
  6
CONTINUOUS
 62
    7
 10
321.90669598111748
 20
469.81279467962327
 11
321.90669598111748
 21
479.35256716036412
  0
LINE
  8
_0-0_0
  6
CONTINUOUS
 62
    7
 10
321.90669598111748
 20
479.35256716036412
 11
321.90669598111748
 21
488.0633403208563
  0
LINE
  8
_0-0_0
  6
CONTINUOUS
 62
    7
 10
321.90669598111748
 20
488.0633403208563
 11
321.90669598111754
 21
495.9827959483838
  0
LINE
  8
_0-0_0
  6
CONTINUOUS
 62
    7
 10
321.90669598111754
 20
495.9827959483838
 11
321.90669598111748
 21
503.14861583023071
  0
LINE
  8
_0-0_0
  6
CONTINUOUS
 62
    7
 10
321.90669598111748
 20
503.14861583023071
 11
321.90669598111748
 21
509.59848175368103
  0
LINE
  8
_0-0_0
  6
CONTINUOUS
 62
    7
 10
321.90669598111748
 20
509.59848175368103
 11
321.90669598111754
 21
515.37007550601868
  0
LINE
  8
_0-0_0
  6
CONTINUOUS
 62
    7
 10
321.90669598111754
 20
515.37007550601868
 11
321.90669598111748
 21
520.50107887452771
  0
LINE
  8
_0-0_0
  6
CONTINUOUS
 62
    7
 10
321.90669598111748
 20
520.50107887452771
 11
321.90669598111748
 21
525.02917364649238
  0
LINE
  8
_0-0_0
  6
CONTINUOUS
 62
    7
 10
321.90669598111748
 20
525.02917364649238
 11
321.90669598111748
 21
528.99204160919646
  0
LINE
  8
_0-0_0
  6
CONTINUOUS
 62
    7
 10
321.90669598111748
 20
528.99204160919646
 11
321.90669598111748
 21
532.42736454992405
  0
LINE
  8
_0-0_0
  6
CONTINUOUS
 62
    7
 10
321.90669598111748
 20
532.42736454992405
 11
321.90669598111748
 21
535.37282425595936
  0
LINE
  8
_0-0_0
  6
CONTINUOUS
 62
    7
 10
321.90669598111748
 20
535.37282425595936
 11
321.90669598111748
 21
537.86610251458615
  0
LINE
  8
_0-0_0
  6
CONTINUOUS
 62
    7
 10
321.90669598111748
 20
537.86610251458615
 11
321.90669598111754
 21
539.94488111308863
  0
LINE
  8
_0-0_0
  6
CONTINUOUS
 62
    7
 10
321.90669598111754
 20
539.94488111308863
 11
321.90669598111748
 21
541.6468418387509
  0
LINE
  8
_0-0_0
  6
CONTINUOUS
 62
    7
 10
321.90669598111748
 20
541.6468418387509
 11
321.90669598111748
 21
543.00966647885673
  0
LINE
  8
_0-0_0
  6
CONTINUOUS
 62
    7
 10
321.90669598111748
 20
543.00966647885673
 11
321.90669598111748
 21
544.07103682069021
  0
LINE
  8
_0-0_0
  6
CONTINUOUS
 62
    7
 10
321.90669598111748
 20
544.07103682069021
 11
321.90669598111748
 21
544.86863465153567
  0
LINE
  8
_0-0_0
  6
CONTINUOUS
 62
    7
 10
321.90669598111748
 20
544.86863465153567
 11
321.90669598111748
 21
545.44014175867676
  0
LINE
  8
_0-0_0
  6
CONTINUOUS
 62
    7
 10
321.90669598111748
 20
545.44014175867676
 11
321.90669598111748
 21
545.82323992939791
  0
LINE
  8
_0-0_0
  6
CONTINUOUS
 62
    7
 10
321.90669598111748
 20
545.82323992939791
 11
321.90669598111748
 21
546.05561095098278
  0
LINE
  8
_0-0_0
  6
CONTINUOUS
 62
    7
 10
321.90669598111748
 20
546.05561095098278
 11
321.90669598111748
 21
546.17493661071558
  0
LINE
  8
_0-0_0
  6
CONTINUOUS
 62
    7
 10
321.90669598111748
 20
546.17493661071558
 11
321.90669598111748
 21
546.21889869588017
  0
LINE
  8
_0-0_0
  6
CONTINUOUS
 62
    7
 10
321.90669598111748
 20
546.21889869588017
 11
321.90669598111748
 21
546.22517899376089
  0
LINE
  8
_0-0_0
  6
CONTINUOUS
 62
    7
 10
321.90669598111748
 20
546.22517899376089
 11
321.91190475455608
 21
546.28104703385065
  0
LINE
  8
_0-0_0
  6
CONTINUOUS
 62
    7
 10
321.91190475455608
 20
546.28104703385065
 11
321.92693578647879
 21
546.33226221363134
  0
LINE
  8
_0-0_0
  6
CONTINUOUS
 62
    7
 10
321.92693578647879
 20
546.33226221363134
 11
321.95089614429617
 21
546.3790268313769
  0
LINE
  8
_0-0_0
  6
CONTINUOUS
 62
    7
 10
321.95089614429617
 20
546.3790268313769
 11
321.98289289541862
 21
546.42154318536188
  0
LINE
  8
_0-0_0
  6
CONTINUOUS
 62
    7
 10
321.98289289541862
 20
546.42154318536188
 11
322.02203310725679
 21
546.46001357386069
  0
LINE
  8
_0-0_0
  6
CONTINUOUS
 62
    7
 10
322.02203310725679
 20
546.46001357386069
 11
322.06742384722133
 21
546.49464029514752
  0
LINE
  8
_0-0_0
  6
CONTINUOUS
 62
    7
 10
322.06742384722133
 20
546.49464029514752
 11
322.11817218272273
 21
546.52562564749667
  0
LINE
  8
_0-0_0
  6
CONTINUOUS
 62
    7
 10
322.11817218272273
 20
546.52562564749667
 11
322.1733851811714
 21
546.55317192918244
  0
LINE
  8
_0-0_0
  6
CONTINUOUS
 62
    7
 10
322.1733851811714
 20
546.55317192918244
 11
322.23216990997793
 21
546.57748143847925
  0
LINE
  8
_0-0_0
  6
CONTINUOUS
 62
    7
 10
322.23216990997793
 20
546.57748143847925
 11
322.29363343655285
 21
546.5987564736613
  0
LINE
  8
_0-0_0
  6
CONTINUOUS
 62
    7
 10
322.29363343655285
 20
546.5987564736613
 11
322.35688282830665
 21
546.61719933300287
  0
LINE
  8
_0-0_0
  6
CONTINUOUS
 62
    7
 10
322.35688282830665
 20
546.61719933300287
 11
322.42102515264997
 21
546.63301231477851
  0
LINE
  8
_0-0_0
  6
CONTINUOUS
 62
    7
 10
322.42102515264997
 20
546.63301231477851
 11
322.48516747699313
 21
546.64639771726229
  0
LINE
  8
_0-0_0
  6
CONTINUOUS
 62
    7
 10
322.48516747699313
 20
546.64639771726229
 11
322.54841686874721
 21
546.65755783872862
  0
LINE
  8
_0-0_0
  6
CONTINUOUS
 62
    7
 10
322.54841686874721
 20
546.65755783872862
 11
322.60988039532202
 21
546.66669497745181
  0
LINE
  8
_0-0_0
  6
CONTINUOUS
 62
    7
 10
322.60988039532202
 20
546.66669497745181
 11
322.66866512412861
 21
546.67401143170628
  0
LINE
  8
_0-0_0
  6
CONTINUOUS
 62
    7
 10
322.66866512412861
 20
546.67401143170628
 11
322.72387812257716
 21
546.67970949976609
  0
LINE
  8
_0-0_0
  6
CONTINUOUS
 62
    7
 10
322.72387812257716
 20
546.67970949976609
 11
322.77462645807844
 21
546.68399147990567
  0
LINE
  8
_0-0_0
  6
CONTINUOUS
 62
    7
 10
322.77462645807844
 20
546.68399147990567
 11
322.82001719804299
 21
546.68705967039955
  0
LINE
  8
_0-0_0
  6
CONTINUOUS
 62
    7
 10
322.82001719804299
 20
546.68705967039955
 11
322.85915740988122
 21
546.68911636952168
  0
LINE
  8
_0-0_0
  6
CONTINUOUS
 62
    7
 10
322.85915740988122
 20
546.68911636952168
 11
322.89115416100373
 21
546.69036387554661
  0
LINE
  8
_0-0_0
  6
CONTINUOUS
 62
    7
 10
322.89115416100373
 20
546.69036387554661
 11
322.91511451882116
 21
546.69100448674851
  0
LINE
  8
_0-0_0
  6
CONTINUOUS
 62
    7
 10
322.91511451882116
 20
546.69100448674851
 11
322.93014555074387
 21
546.69124050140204
  0
LINE
  8
_0-0_0
  6
CONTINUOUS
 62
    7
 10
322.93014555074387
 20
546.69124050140204
 11
322.93535432418241
 21
546.69127421778103
  0
LINE
  8
_0-0_0
  6
CONTINUOUS
 62
    7
 10
322.93535432418241
 20
546.69127421778103
 11
336.67797403899982
 21
546.69127421778103
  0
LINE
  8
_0-0_0
  6
CONTINUOUS
 62
    7
 10
336.67797403899982
 20
546.69127421778103
 11
349.27606658384445
 21
546.69127421778103
  0
LINE
  8
_0-0_0
  6
CONTINUOUS
 62
    7
 10
349.27606658384445
 20
546.69127421778103
 11
360.77939400958479
 21
546.69127421778103
  0
LINE
  8
_0-0_0
  6
CONTINUOUS
 62
    7
 10
360.77939400958479
 20
546.69127421778103
 11
371.23771836708903
 21
546.69127421778092
  0
LINE
  8
_0-0_0
  6
CONTINUOUS
 62
    7
 10
371.23771836708903
 20
546.69127421778092
 11
380.70080170722582
 21
546.69127421778103
  0
LINE
  8
_0-0_0
  6
CONTINUOUS
 62
    7
 10
380.70080170722582
 20
546.69127421778103
 11
389.21840608086342
 21
546.69127421778103
  0
LINE
  8
_0-0_0
  6
CONTINUOUS
 62
    7
 10
389.21840608086342
 20
546.69127421778103
 11
396.84029353887013
 21
546.69127421778103
  0
LINE
  8
_0-0_0
  6
CONTINUOUS
 62
    7
 10
396.84029353887013
 20
546.69127421778103
 11
403.61622613211438
 21
546.69127421778103
  0
LINE
  8
_0-0_0
  6
CONTINUOUS
 62
    7
 10
403.61622613211438
 20
546.69127421778103
 11
409.59596591146442
 21
546.69127421778103
  0
LINE
  8
_0-0_0
  6
CONTINUOUS
 62
    7
 10
409.59596591146442
 20
546.69127421778103
 11
414.82927492778902
 21
546.69127421778103
  0
LINE
  8
_0-0_0
  6
CONTINUOUS
 62
    7
 10
414.82927492778902
 20
546.69127421778103
 11
419.36591523195631
 21
546.69127421778103
  0
LINE
  8
_0-0_0
  6
CONTINUOUS
 62
    7
 10
419.36591523195631
 20
546.69127421778103
 11
423.25564887483449
 21
546.69127421778103
  0
LINE
  8
_0-0_0
  6
CONTINUOUS
 62
    7
 10
423.25564887483449
 20
546.69127421778103
 11
426.5482379072921
 21
546.69127421778103
  0
LINE
  8
_0-0_0
  6
CONTINUOUS
 62
    7
 10
426.5482379072921
 20
546.69127421778103
 11
429.29344438019768
 21
546.69127421778103
  0
LINE
  8
_0-0_0
  6
CONTINUOUS
 62
    7
 10
429.29344438019768
 20
546.69127421778103
 11
431.54103034441948
 21
546.69127421778103
  0
LINE
  8
_0-0_0
  6
CONTINUOUS
 62
    7
 10
431.54103034441948
 20
546.69127421778103
 11
433.34075785082587
 21
546.69127421778103
  0
LINE
  8
_0-0_0
  6
CONTINUOUS
 62
    7
 10
433.34075785082587
 20
546.69127421778103
 11
434.74238895028509
 21
546.69127421778103
  0
LINE
  8
_0-0_0
  6
CONTINUOUS
 62
    7
 10
434.74238895028509
 20
546.69127421778103
 11
435.79568569366575
 21
546.69127421778103
  0
LINE
  8
_0-0_0
  6
CONTINUOUS
 62
    7
 10
435.79568569366575
 20
546.69127421778103
 11
436.5504101318362
 21
546.69127421778103
  0
LINE
  8
_0-0_0
  6
CONTINUOUS
 62
    7
 10
436.5504101318362
 20
546.69127421778103
 11
437.05632431566471
 21
546.69127421778103
  0
LINE
  8
_0-0_0
  6
CONTINUOUS
 62
    7
 10
437.05632431566471
 20
546.69127421778103
 11
437.36319029601958
 21
546.69127421778103
  0
LINE
  8
_0-0_0
  6
CONTINUOUS
 62
    7
 10
437.36319029601958
 20
546.69127421778103
 11
437.52077012376947
 21
546.69127421778103
  0
LINE
  8
_0-0_0
  6
CONTINUOUS
 62
    7
 10
437.52077012376947
 20
546.69127421778103
 11
437.57882584978262
 21
546.69127421778103
  0
LINE
  8
_0-0_0
  6
CONTINUOUS
 62
    7
 10
437.57882584978262
 20
546.69127421778103
 11
437.58711952492729
 21
546.69127421778103
  0
LINE
  8
_0-0_0
  6
CONTINUOUS
 62
    7
 10
437.58711952492729
 20
546.69127421778103
 11
437.59157065859301
 21
546.69124050140192
  0
LINE
  8
_0-0_0
  6
CONTINUOUS
 62
    7
 10
437.59157065859301
 20
546.69124050140192
 11
437.60441535859962
 21
546.69100448674851
  0
LINE
  8
_0-0_0
  6
CONTINUOUS
 62
    7
 10
437.60441535859962
 20
546.69100448674851
 11
437.6248905734617
 21
546.69036387554661
  0
LINE
  8
_0-0_0
  6
CONTINUOUS
 62
    7
 10
437.6248905734617
 20
546.69036387554661
 11
437.65223325169359
 21
546.68911636952157
  0
LINE
  8
_0-0_0
  6
CONTINUOUS
 62
    7
 10
437.65223325169359
 20
546.68911636952157
 11
437.68568034180987
 21
546.68705967039944
  0
LINE
  8
_0-0_0
  6
CONTINUOUS
 62
    7
 10
437.68568034180987
 20
546.68705967039944
 11
437.72446879232507
 21
546.68399147990567
  0
LINE
  8
_0-0_0
  6
CONTINUOUS
 62
    7
 10
437.72446879232507
 20
546.68399147990567
 11
437.76783555175342
 21
546.67970949976609
  0
LINE
  8
_0-0_0
  6
CONTINUOUS
 62
    7
 10
437.76783555175342
 20
546.67970949976609
 11
437.81501756860933
 21
546.67401143170628
  0
LINE
  8
_0-0_0
  6
CONTINUOUS
 62
    7
 10
437.81501756860933
 20
546.67401143170628
 11
437.86525179140767
 21
546.66669497745181
  0
LINE
  8
_0-0_0
  6
CONTINUOUS
 62
    7
 10
437.86525179140767
 20
546.66669497745181
 11
437.9177751686625
 21
546.65755783872862
  0
LINE
  8
_0-0_0
  6
CONTINUOUS
 62
    7
 10
437.9177751686625
 20
546.65755783872862
 11
437.97182464888851
 21
546.64639771726229
  0
LINE
  8
_0-0_0
  6
CONTINUOUS
 62
    7
 10
437.97182464888851
 20
546.64639771726229
 11
438.02663718060001
 21
546.63301231477851
  0
LINE
  8
_0-0_0
  6
CONTINUOUS
 62
    7
 10
438.02663718060001
 20
546.63301231477851
 11
438.08144971231144
 21
546.61719933300287
  0
LINE
  8
_0-0_0
  6
CONTINUOUS
 62
    7
 10
438.08144971231144
 20
546.61719933300287
 11
438.13549919253745
 21
546.5987564736613
  0
LINE
  8
_0-0_0
  6
CONTINUOUS
 62
    7
 10
438.13549919253745
 20
546.5987564736613
 11
438.18802256979222
 21
546.57748143847925
  0
LINE
  8
_0-0_0
  6
CONTINUOUS
 62
    7
 10
438.18802256979222
 20
546.57748143847925
 11
438.23825679259062
 21
546.55317192918244
  0
LINE
  8
_0-0_0
  6
CONTINUOUS
 62
    7
 10
438.23825679259062
 20
546.55317192918244
 11
438.28543880944659
 21
546.52562564749667
  0
LINE
  8
_0-0_0
  6
CONTINUOUS
 62
    7
 10
438.28543880944659
 20
546.52562564749667
 11
438.32880556887505
 21
546.49464029514752
  0
LINE
  8
_0-0_0
  6
CONTINUOUS
 62
    7
 10
438.32880556887505
 20
546.49464029514752
 11
438.36759401939003
 21
546.46001357386081
  0
LINE
  8
_0-0_0
  6
CONTINUOUS
 62
    7
 10
438.36759401939003
 20
546.46001357386081
 11
438.40104110950642
 21
546.421543185362
  0
LINE
  8
_0-0_0
  6
CONTINUOUS
 62
    7
 10
438.40104110950642
 20
546.421543185362
 11
438.42838378773831
 21
546.3790268313769
  0
LINE
  8
_0-0_0
  6
CONTINUOUS
 62
    7
 10
438.42838378773831
 20
546.3790268313769
 11
438.44885900260022
 21
546.33226221363122
  0
LINE
  8
_0-0_0
  6
CONTINUOUS
 62
    7
 10
438.44885900260022
 20
546.33226221363122
 11
438.46170370260711
 21
546.28104703385065
  0
LINE
  8
_0-0_0
  6
CONTINUOUS
 62
    7
 10
438.46170370260711
 20
546.28104703385065
 11
438.46615483627272
 21
546.22517899375907
  0
LINE
  8
_0-0_0
  6
CONTINUOUS
 62
    7
 10
438.46615483627272
 20
546.22517899375907
 11
438.46615483627272
 21
535.81872540548545
  0
LINE
  8
_0-0_0
  6
CONTINUOUS
 62
    7
 10
438.46615483627272
 20
535.81872540548545
 11
438.46615483627272
 21
526.27895292474454
  0
LINE
  8
_0-0_0
  6
CONTINUOUS
 62
    7
 10
438.46615483627272
 20
526.27895292474454
 11
438.46615483627272
 21
517.56817976425248
  0
LINE
  8
_0-0_0
  6
CONTINUOUS
 62
    7
 10
438.46615483627272
 20
517.56817976425248
 11
438.46615483627272
 21
509.64872413672492
  0
LINE
  8
_0-0_0
  6
CONTINUOUS
 62
    7
 10
438.46615483627272
 20
509.64872413672492
 11
438.46615483627272
 21
502.48290425487818
  0
LINE
  8
_0-0_0
  6
CONTINUOUS
 62
    7
 10
438.46615483627272
 20
502.48290425487818
 11
438.46615483627272
 21
496.03303833142797
  0
LINE
  8
_0-0_0
  6
CONTINUOUS
 62
    7
 10
438.46615483627272
 20
496.03303833142797
 11
438.46615483627272
 21
490.26144457909038
  0
LINE
  8
_0-0_0
  6
CONTINUOUS
 62
    7
 10
438.46615483627272
 20
490.26144457909038
 11
438.46615483627272
 21
485.13044121058147
  0
LINE
  8
_0-0_0
  6
CONTINUOUS
 62
    7
 10
438.46615483627272
 20
485.13044121058147
 11
438.46615483627272
 21
480.60234643861702
  0
LINE
  8
_0-0_0
  6
CONTINUOUS
 62
    7
 10
438.46615483627272
 20
480.60234643861702
 11
438.46615483627272
 21
476.63947847591288
  0
LINE
  8
_0-0_0
  6
CONTINUOUS
 62
    7
 10
438.46615483627272
 20
476.63947847591288
 11
438.46615483627272
 21
473.20415553518552
  0
LINE
  8
_0-0_0
  6
CONTINUOUS
 62
    7
 10
438.46615483627272
 20
473.20415553518552
 11
438.46615483627272
 21
470.25869582915038
  0
LINE
  8
_0-0_0
  6
CONTINUOUS
 62
    7
 10
438.46615483627272
 20
470.25869582915038
 11
438.46615483627272
 21
467.7654175705236
  0
LINE
  8
_0-0_0
  6
CONTINUOUS
 62
    7
 10
438.46615483627272
 20
467.7654175705236
 11
438.46615483627272
 21
465.68663897202111
  0
LINE
  8
_0-0_0
  6
CONTINUOUS
 62
    7
 10
438.46615483627272
 20
465.68663897202111
 11
438.46615483627272
 21
463.98467824635918
  0
LINE
  8
_0-0_0
  6
CONTINUOUS
 62
    7
 10
438.46615483627272
 20
463.98467824635918
 11
438.46615483627272
 21
462.62185360625318
  0
LINE
  8
_0-0_0
  6
CONTINUOUS
 62
    7
 10
438.46615483627272
 20
462.62185360625318
 11
438.46615483627272
 21
461.56048326441982
  0
LINE
  8
_0-0_0
  6
CONTINUOUS
 62
    7
 10
438.46615483627272
 20
461.56048326441982
 11
438.46615483627272
 21
460.76288543357452
  0
LINE
  8
_0-0_0
  6
CONTINUOUS
 62
    7
 10
438.46615483627272
 20
460.76288543357452
 11
438.46615483627272
 21
460.19137832643338
  0
LINE
  8
_0-0_0
  6
CONTINUOUS
 62
    7
 10
438.46615483627272
 20
460.19137832643338
 11
438.46615483627272
 21
459.8082801557124
  0
LINE
  8
_0-0_0
  6
CONTINUOUS
 62
    7
 10
438.46615483627272
 20
459.8082801557124
 11
438.46615483627272
 21
459.57590913412758
  0
LINE
  8
_0-0_0
  6
CONTINUOUS
 62
    7
 10
438.46615483627272
 20
459.57590913412758
 11
438.46615483627272
 21
459.45658347439473
  0
LINE
  8
_0-0_0
  6
CONTINUOUS
 62
    7
 10
438.46615483627272
 20
459.45658347439473
 11
438.46615483627272
 21
459.41262138923025
  0
LINE
  8
_0-0_0
  6
CONTINUOUS
 62
    7
 10
438.46615483627272
 20
459.41262138923025
 11
438.46615483627272
 21
459.40634109134947
  0
LINE
  8
_0-0_0
  6
CONTINUOUS
 62
    7
 10
458.92710442376938
 20
550.10722042335237
 11
300.98752585898319
 21
550.10722042335237
  0
LINE
  8
_0-0_0
  6
CONTINUOUS
 62
    7
 10
300.98752585898319
 20
550.10722042335237
 11
300.98752585898319
 21
452.99362156623738
  0
LINE
  8
_0-0_0
  6
CONTINUOUS
 62
    7
 10
300.98752585898319
 20
452.99362156623738
 11
458.92710442376938
 21
452.99362156623738
  0
LINE
  8
_0-0_0
  6
CONTINUOUS
 62
    7
 10
458.92710442376938
 20
452.99362156623738
 11
458.92710442376938
 21
550.10722042335237
  0
LINE
  8
_0-0_0
  6
CONTINUOUS
 62
    7
 10
437.58711952492729
 20
451.49210675060198
 11
437.79596834003496
 21
434.84718938810602
  0
LINE
  8
_0-0_0
  6
CONTINUOUS
 62
    7
 10
414.14617788903831
 20
451.49210675060198
 11
414.14617788903831
 21
434.84718938810602
  0
LINE
  8
_0-0_0
  6
CONTINUOUS
 62
    7
 10
391.36607130990745
 20
451.49210675060198
 11
391.36607130990745
 21
434.84718938810602
  0
LINE
  8
_0-0_0
  6
CONTINUOUS
 62
    7
 10
368.74805634847058
 20
451.49210675060198
 11
368.74805634847058
 21
434.84718938810602
  0
LINE
  8
_0-0_0
  6
CONTINUOUS
 62
    7
 10
321.90669598111748
 20
451.49210675060198
 11
321.90669598111748
 21
434.84718938810602
  0
LINE
  8
_0-0_0
  6
CONTINUOUS
 62
    7
 10
345.56272072510149
 20
451.49210675060198
 11
345.76845239371431
 21
434.84718938810602
  0
LINE
  8
_0-0_0
  6
CONTINUOUS
 62
    7
 10
459.75003109822057
 20
438.66666770037858
 11
459.74569225759268
 21
438.35644533327741
  0
LINE
  8
_0-0_0
  6
CONTINUOUS
 62
    7
 10
459.74569225759268
 20
438.35644533327741
 11
459.73246467891511
 21
438.05924065647218
  0
LINE
  8
_0-0_0
  6
CONTINUOUS
 62
    7
 10
459.73246467891511
 20
438.05924065647218
 11
459.71003177699697
 21
437.77506996244171
  0
LINE
  8
_0-0_0
  6
CONTINUOUS
 62
    7
 10
459.71003177699697
 20
437.77506996244171
 11
459.67807696664772
 21
437.50394954366442
  0
LINE
  8
_0-0_0
  6
CONTINUOUS
 62
    7
 10
459.67807696664772
 20
437.50394954366442
 11
459.63628366267614
 21
437.24589569261855
  0
LINE
  8
_0-0_0
  6
CONTINUOUS
 62
    7
 10
459.63628366267614
 20
437.24589569261855
 11
459.58433527989172
 21
437.00092470178282
  0
LINE
  8
_0-0_0
  6
CONTINUOUS
 62
    7
 10
459.58433527989172
 20
437.00092470178282
 11
459.52191523310364
 21
436.76905286363541
  0
LINE
  8
_0-0_0
  6
CONTINUOUS
 62
    7
 10
459.52191523310364
 20
436.76905286363541
 11
459.44870693712107
 21
436.5502964706551
  0
LINE
  8
_0-0_0
  6
CONTINUOUS
 62
    7
 10
459.44870693712107
 20
436.5502964706551
 11
459.36439380675296
 21
436.34467181532023
  0
LINE
  8
_0-0_0
  6
CONTINUOUS
 62
    7
 10
459.36439380675296
 20
436.34467181532023
 11
459.26865925680875
 21
436.15219519010918
  0
LINE
  8
_0-0_0
  6
CONTINUOUS
 62
    7
 10
459.26865925680875
 20
436.15219519010918
 11
459.16118670209755
 21
435.97288288750053
  0
LINE
  8
_0-0_0
  6
CONTINUOUS
 62
    7
 10
459.16118670209755
 20
435.97288288750053
 11
459.04165955742855
 21
435.80675119997272
  0
LINE
  8
_0-0_0
  6
CONTINUOUS
 62
    7
 10
459.04165955742855
 20
435.80675119997272
 11
458.90976123761106
 21
435.6538164200042
  0
LINE
  8
_0-0_0
  6
CONTINUOUS
 62
    7
 10
458.90976123761106
 20
435.6538164200042
 11
458.765175157454
 21
435.51409484007354
  0
LINE
  8
_0-0_0
  6
CONTINUOUS
 62
    7
 10
458.765175157454
 20
435.51409484007354
 11
458.60758473176691
 21
435.38760275265901
  0
LINE
  8
_0-0_0
  6
CONTINUOUS
 62
    7
 10
458.60758473176691
 20
435.38760275265901
 11
458.43667337535862
 21
435.27435645023922
  0
LINE
  8
_0-0_0
  6
CONTINUOUS
 62
    7
 10
458.43667337535862
 20
435.27435645023922
 11
458.2521245030386
 21
435.17437222529259
  0
LINE
  8
_0-0_0
  6
CONTINUOUS
 62
    7
 10
458.2521245030386
 20
435.17437222529259
 11
458.05362152961578
 21
435.08766637029748
  0
LINE
  8
_0-0_0
  6
CONTINUOUS
 62
    7
 10
458.05362152961578
 20
435.08766637029748
 11
457.84084786989968
 21
435.01425517773259
  0
LINE
  8
_0-0_0
  6
CONTINUOUS
 62
    7
 10
457.84084786989968
 20
435.01425517773259
 11
457.61348693869905
 21
434.95415494007631
  0
LINE
  8
_0-0_0
  6
CONTINUOUS
 62
    7
 10
457.61348693869905
 20
434.95415494007631
 11
457.3712221508236
 21
434.90738194980702
  0
LINE
  8
_0-0_0
  6
CONTINUOUS
 62
    7
 10
457.3712221508236
 20
434.90738194980702
 11
457.11373692108219
 21
434.87395249940323
  0
LINE
  8
_0-0_0
  6
CONTINUOUS
 62
    7
 10
457.11373692108219
 20
434.87395249940323
 11
456.84071466428401
 21
434.85388288134334
  0
LINE
  8
_0-0_0
  6
CONTINUOUS
 62
    7
 10
456.84071466428401
 20
434.85388288134334
 11
456.55183879523833
 21
434.84718938810602
  0
LINE
  8
_0-0_0
  6
CONTINUOUS
 62
    7
 10
456.55183879523833
 20
434.84718938810602
 11
438.23855849557134
 21
434.84718938810602
  0
LINE
  8
_0-0_0
  6
CONTINUOUS
 62
    7
 10
438.23855849557134
 20
434.84718938810602
 11
421.45046388169442
 21
434.84718938810602
  0
LINE
  8
_0-0_0
  6
CONTINUOUS
 62
    7
 10
421.45046388169442
 20
434.84718938810602
 11
406.12124253248601
 21
434.84718938810602
  0
LINE
  8
_0-0_0
  6
CONTINUOUS
 62
    7
 10
406.12124253248601
 20
434.84718938810602
 11
392.18458202682496
 21
434.84718938810602
  0
LINE
  8
_0-0_0
  6
CONTINUOUS
 62
    7
 10
392.18458202682496
 20
434.84718938810602
 11
379.57416994359022
 21
434.84718938810602
  0
LINE
  8
_0-0_0
  6
CONTINUOUS
 62
    7
 10
379.57416994359022
 20
434.84718938810602
 11
368.22369386166019
 21
434.84718938810602
  0
LINE
  8
_0-0_0
  6
CONTINUOUS
 62
    7
 10
368.22369386166019
 20
434.84718938810602
 11
358.06684135991361
 21
434.84718938810607
  0
LINE
  8
_0-0_0
  6
CONTINUOUS
 62
    7
 10
358.06684135991361
 20
434.84718938810607
 11
349.0373000172292
 21
434.84718938810607
  0
LINE
  8
_0-0_0
  6
CONTINUOUS
 62
    7
 10
349.0373000172292
 20
434.84718938810607
 11
341.06875741248564
 21
434.84718938810602
  0
LINE
  8
_0-0_0
  6
CONTINUOUS
 62
    7
 10
341.06875741248564
 20
434.84718938810602
 11
334.09490112456177
 21
434.84718938810602
  0
LINE
  8
_0-0_0
  6
CONTINUOUS
 62
    7
 10
334.09490112456177
 20
434.84718938810602
 11
328.04941873233616
 21
434.84718938810602
  0
LINE
  8
_0-0_0
  6
CONTINUOUS
 62
    7
 10
328.04941873233616
 20
434.84718938810602
 11
322.86599781468743
 21
434.84718938810602
  0
LINE
  8
_0-0_0
  6
CONTINUOUS
 62
    7
 10
322.86599781468743
 20
434.84718938810602
 11
318.47832595049448
 21
434.84718938810602
  0
LINE
  8
_0-0_0
  6
CONTINUOUS
 62
    7
 10
318.47832595049448
 20
434.84718938810602
 11
314.82009071863587
 21
434.84718938810602
  0
LINE
  8
_0-0_0
  6
CONTINUOUS
 62
    7
 10
314.82009071863587
 20
434.84718938810602
 11
311.82497969799022
 21
434.84718938810602
  0
LINE
  8
_0-0_0
  6
CONTINUOUS
 62
    7
 10
311.82497969799022
 20
434.84718938810602
 11
309.42668046743643
 21
434.84718938810602
  0
LINE
  8
_0-0_0
  6
CONTINUOUS
 62
    7
 10
309.42668046743643
 20
434.84718938810602
 11
307.55888060585283
 21
434.84718938810602
  0
LINE
  8
_0-0_0
  6
CONTINUOUS
 62
    7
 10
307.55888060585283
 20
434.84718938810602
 11
306.15526769211868
 21
434.84718938810602
  0
LINE
  8
_0-0_0
  6
CONTINUOUS
 62
    7
 10
306.15526769211868
 20
434.84718938810602
 11
305.14952930511214
 21
434.84718938810602
  0
LINE
  8
_0-0_0
  6
CONTINUOUS
 62
    7
 10
305.14952930511214
 20
434.84718938810602
 11
304.47535302371222
 21
434.84718938810602
  0
LINE
  8
_0-0_0
  6
CONTINUOUS
 62
    7
 10
304.47535302371222
 20
434.84718938810602
 11
304.06642642679753
 21
434.84718938810602
  0
LINE
  8
_0-0_0
  6
CONTINUOUS
 62
    7
 10
304.06642642679753
 20
434.84718938810602
 11
303.85643709324683
 21
434.84718938810602
  0
LINE
  8
_0-0_0
  6
CONTINUOUS
 62
    7
 10
303.85643709324683
 20
434.84718938810602
 11
303.77907260193865
 21
434.84718938810602
  0
LINE
  8
_0-0_0
  6
CONTINUOUS
 62
    7
 10
303.77907260193865
 20
434.84718938810602
 11
303.76802053175169
 21
434.84718938810602
  0
LINE
  8
_0-0_0
  6
CONTINUOUS
 62
    7
 10
303.76802053175169
 20
434.84718938810602
 11
303.42847299313416
 21
434.85388288134334
  0
LINE
  8
_0-0_0
  6
CONTINUOUS
 62
    7
 10
303.42847299313416
 20
434.85388288134334
 11
303.1048656541667
 21
434.87395249940323
  0
LINE
  8
_0-0_0
  6
CONTINUOUS
 62
    7
 10
303.1048656541667
 20
434.87395249940323
 11
302.79706592788921
 21
434.9073819498069
  0
LINE
  8
_0-0_0
  6
CONTINUOUS
 62
    7
 10
302.79706592788921
 20
434.9073819498069
 11
302.50494122734119
 21
434.95415494007631
  0
LINE
  8
_0-0_0
  6
CONTINUOUS
 62
    7
 10
302.50494122734119
 20
434.95415494007631
 11
302.22835896556262
 21
435.01425517773271
  0
LINE
  8
_0-0_0
  6
CONTINUOUS
 62
    7
 10
302.22835896556262
 20
435.01425517773271
 11
301.96718655559317
 21
435.08766637029748
  0
LINE
  8
_0-0_0
  6
CONTINUOUS
 62
    7
 10
301.96718655559317
 20
435.08766637029748
 11
301.72129141047259
 21
435.17437222529247
  0
LINE
  8
_0-0_0
  6
CONTINUOUS
 62
    7
 10
301.72129141047259
 20
435.17437222529247
 11
301.49054094324072
 21
435.27435645023922
  0
LINE
  8
_0-0_0
  6
CONTINUOUS
 62
    7
 10
301.49054094324072
 20
435.27435645023922
 11
301.27480256693707
 21
435.38760275265884
  0
LINE
  8
_0-0_0
  6
CONTINUOUS
 62
    7
 10
301.27480256693707
 20
435.38760275265884
 11
301.07394369460161
 21
435.51409484007343
  0
LINE
  8
_0-0_0
  6
CONTINUOUS
 62
    7
 10
301.07394369460161
 20
435.51409484007343
 11
300.88783173927396
 21
435.65381642000409
  0
LINE
  8
_0-0_0
  6
CONTINUOUS
 62
    7
 10
300.88783173927396
 20
435.65381642000409
 11
300.71633411399375
 21
435.80675119997272
  0
LINE
  8
_0-0_0
  6
CONTINUOUS
 62
    7
 10
300.71633411399375
 20
435.80675119997272
 11
300.55931823180111
 21
435.97288288750053
  0
LINE
  8
_0-0_0
  6
CONTINUOUS
 62
    7
 10
300.55931823180111
 20
435.97288288750053
 11
300.41665150573533
 21
436.15219519010918
  0
LINE
  8
_0-0_0
  6
CONTINUOUS
 62
    7
 10
300.41665150573533
 20
436.15219519010918
 11
300.28820134883665
 21
436.34467181532023
  0
LINE
  8
_0-0_0
  6
CONTINUOUS
 62
    7
 10
300.28820134883665
 20
436.34467181532023
 11
300.17383517414436
 21
436.5502964706551
  0
LINE
  8
_0-0_0
  6
CONTINUOUS
 62
    7
 10
300.17383517414436
 20
436.5502964706551
 11
300.07342039469842
 21
436.76905286363541
  0
LINE
  8
_0-0_0
  6
CONTINUOUS
 62
    7
 10
300.07342039469842
 20
436.76905286363541
 11
299.98682442353862
 21
437.00092470178271
  0
LINE
  8
_0-0_0
  6
CONTINUOUS
 62
    7
 10
299.98682442353862
 20
437.00092470178271
 11
299.91391467370443
 21
437.24589569261838
  0
LINE
  8
_0-0_0
  6
CONTINUOUS
 62
    7
 10
299.91391467370443
 20
437.24589569261838
 11
299.85455855823602
 21
437.50394954366442
  0
LINE
  8
_0-0_0
  6
CONTINUOUS
 62
    7
 10
299.85455855823602
 20
437.50394954366442
 11
299.80862349017264
 21
437.77506996244188
  0
LINE
  8
_0-0_0
  6
CONTINUOUS
 62
    7
 10
299.80862349017264
 20
437.77506996244188
 11
299.77597688255457
 21
438.05924065647218
  0
LINE
  8
_0-0_0
  6
CONTINUOUS
 62
    7
 10
299.77597688255457
 20
438.05924065647218
 11
299.75648614842112
 21
438.35644533327729
  0
LINE
  8
_0-0_0
  6
CONTINUOUS
 62
    7
 10
299.75648614842112
 20
438.35644533327729
 11
299.75001870081229
 21
438.66666770037858
  0
LINE
  8
_0-0_0
  6
CONTINUOUS
 62
    7
 10
299.75001870081229
 20
438.66666770037858
 11
299.75001870081229
 21
452.94788857917581
  0
LINE
  8
_0-0_0
  6
CONTINUOUS
 62
    7
 10
299.75001870081229
 20
452.94788857917581
 11
299.75001870081235
 21
466.03972594483361
  0
LINE
  8
_0-0_0
  6
CONTINUOUS
 62
    7
 10
299.75001870081235
 20
466.03972594483361
 11
299.75001870081235
 21
477.99389212400888
  0
LINE
  8
_0-0_0
  6
CONTINUOUS
 62
    7
 10
299.75001870081235
 20
477.99389212400888
 11
299.75001870081229
 21
488.86209944335985
  0
LINE
  8
_0-0_0
  6
CONTINUOUS
 62
    7
 10
299.75001870081229
 20
488.86209944335985
 11
299.75001870081235
 21
498.69606022954542
  0
LINE
  8
_0-0_0
  6
CONTINUOUS
 62
    7
 10
299.75001870081235
 20
498.69606022954542
 11
299.75001870081229
 21
507.54748680922307
  0
LINE
  8
_0-0_0
  6
CONTINUOUS
 62
    7
 10
299.75001870081229
 20
507.54748680922307
 11
299.75001870081229
 21
515.46809150905165
  0
LINE
  8
_0-0_0
  6
CONTINUOUS
 62
    7
 10
299.75001870081229
 20
515.46809150905165
 11
299.75001870081235
 21
522.50958665568919
  0
LINE
  8
_0-0_0
  6
CONTINUOUS
 62
    7
 10
299.75001870081235
 20
522.50958665568919
 11
299.75001870081235
 21
528.7236845757941
  0
LINE
  8
_0-0_0
  6
CONTINUOUS
 62
    7
 10
299.75001870081235
 20
528.7236845757941
 11
299.75001870081229
 21
534.16209759602452
  0
LINE
  8
_0-0_0
  6
CONTINUOUS
 62
    7
 10
299.75001870081229
 20
534.16209759602452
 11
299.75001870081235
 21
538.87653804303886
  0
LINE
  8
_0-0_0
  6
CONTINUOUS
 62
    7
 10
299.75001870081235
 20
538.87653804303886
 11
299.75001870081229
 21
542.9187182434955
  0
LINE
  8
_0-0_0
  6
CONTINUOUS
 62
    7
 10
299.75001870081229
 20
542.9187182434955
 11
299.75001870081229
 21
546.34035052405261
  0
LINE
  8
_0-0_0
  6
CONTINUOUS
 62
    7
 10
299.75001870081229
 20
546.34035052405261
 11
299.75001870081229
 21
549.19314721136845
  0
LINE
  8
_0-0_0
  6
CONTINUOUS
 62
    7
 10
299.75001870081229
 20
549.19314721136845
 11
299.75001870081229
 21
551.52882063210131
  0
LINE
  8
_0-0_0
  6
CONTINUOUS
 62
    7
 10
299.75001870081229
 20
551.52882063210131
 11
299.75001870081229
 21
553.39908311290969
  0
LINE
  8
_0-0_0
  6
CONTINUOUS
 62
    7
 10
299.75001870081229
 20
553.39908311290969
 11
299.75001870081229
 21
554.85564698045164
  0
LINE
  8
_0-0_0
  6
CONTINUOUS
 62
    7
 10
299.75001870081229
 20
554.85564698045164
 11
299.75001870081229
 21
555.95022456138554
  0
LINE
  8
_0-0_0
  6
CONTINUOUS
 62
    7
 10
299.75001870081229
 20
555.95022456138554
 11
299.75001870081229
 21
556.73452818236956
  0
LINE
  8
_0-0_0
  6
CONTINUOUS
 62
    7
 10
299.75001870081229
 20
556.73452818236956
 11
299.75001870081229
 21
557.2602701700622
  0
LINE
  8
_0-0_0
  6
CONTINUOUS
 62
    7
 10
299.75001870081229
 20
557.2602701700622
 11
299.75001870081229
 21
557.57916285112174
  0
LINE
  8
_0-0_0
  6
CONTINUOUS
 62
    7
 10
299.75001870081229
 20
557.57916285112174
 11
299.75001870081229
 21
557.74291855220645
  0
LINE
  8
_0-0_0
  6
CONTINUOUS
 62
    7
 10
299.75001870081229
 20
557.74291855220645
 11
299.75001870081229
 21
557.80324959997438
  0
LINE
  8
_0-0_0
  6
CONTINUOUS
 62
    7
 10
299.75001870081229
 20
557.80324959997438
 11
299.75001870081229
 21
557.81186832108415
  0
LINE
  8
_0-0_0
  6
CONTINUOUS
 62
    7
 10
299.75001870081229
 20
557.81186832108415
 11
299.75648614842112
 21
558.07542156246643
  0
LINE
  8
_0-0_0
  6
CONTINUOUS
 62
    7
 10
299.75648614842112
 20
558.07542156246643
 11
299.77597688255457
 21
558.33614398571467
  0
LINE
  8
_0-0_0
  6
CONTINUOUS
 62
    7
 10
299.77597688255457
 20
558.33614398571467
 11
299.80862349017264
 21
558.59329020993925
  0
LINE
  8
_0-0_0
  6
CONTINUOUS
 62
    7
 10
299.80862349017264
 20
558.59329020993925
 11
299.85455855823602
 21
558.84611485425
  0
LINE
  8
_0-0_0
  6
CONTINUOUS
 62
    7
 10
299.85455855823602
 20
558.84611485425
 11
299.91391467370443
 21
559.09387253775719
  0
LINE
  8
_0-0_0
  6
CONTINUOUS
 62
    7
 10
299.91391467370443
 20
559.09387253775719
 11
299.98682442353862
 21
559.33581787957087
  0
LINE
  8
_0-0_0
  6
CONTINUOUS
 62
    7
 10
299.98682442353862
 20
559.33581787957087
 11
300.07342039469842
 21
559.57120549880096
  0
LINE
  8
_0-0_0
  6
CONTINUOUS
 62
    7
 10
300.07342039469842
 20
559.57120549880096
 11
300.17383517414436
 21
559.79929001455787
  0
LINE
  8
_0-0_0
  6
CONTINUOUS
 62
    7
 10
300.17383517414436
 20
559.79929001455787
 11
300.28820134883665
 21
560.01932604595117
  0
LINE
  8
_0-0_0
  6
CONTINUOUS
 62
    7
 10
300.28820134883665
 20
560.01932604595117
 11
300.41665150573533
 21
560.23056821209127
  0
LINE
  8
_0-0_0
  6
CONTINUOUS
 62
    7
 10
300.41665150573533
 20
560.23056821209127
 11
300.55931823180117
 21
560.43227113208832
  0
LINE
  8
_0-0_0
  6
CONTINUOUS
 62
    7
 10
300.55931823180117
 20
560.43227113208832
 11
300.71633411399387
 21
560.62368942505213
  0
LINE
  8
_0-0_0
  6
CONTINUOUS
 62
    7
 10
300.71633411399387
 20
560.62368942505213
 11
300.88783173927391
 21
560.804077710093
  0
LINE
  8
_0-0_0
  6
CONTINUOUS
 62
    7
 10
300.88783173927391
 20
560.804077710093
 11
301.07394369460161
 21
560.97269060632084
  0
LINE
  8
_0-0_0
  6
CONTINUOUS
 62
    7
 10
301.07394369460161
 20
560.97269060632084
 11
301.27480256693707
 21
561.12878273284593
  0
LINE
  8
_0-0_0
  6
CONTINUOUS
 62
    7
 10
301.27480256693707
 20
561.12878273284593
 11
301.49054094324072
 21
561.27160870877822
  0
LINE
  8
_0-0_0
  6
CONTINUOUS
 62
    7
 10
301.49054094324072
 20
561.27160870877822
 11
301.72129141047259
 21
561.40042315322773
  0
LINE
  8
_0-0_0
  6
CONTINUOUS
 62
    7
 10
301.72129141047259
 20
561.40042315322773
 11
301.96718655559317
 21
561.51448068530465
  0
LINE
  8
_0-0_0
  6
CONTINUOUS
 62
    7
 10
301.96718655559317
 20
561.51448068530465
 11
302.22835896556262
 21
561.613035924119
  0
LINE
  8
_0-0_0
  6
CONTINUOUS
 62
    7
 10
302.22835896556262
 20
561.613035924119
 11
302.50494122734125
 21
561.69534348878096
  0
LINE
  8
_0-0_0
  6
CONTINUOUS
 62
    7
 10
302.50494122734125
 20
561.69534348878096
 11
302.79706592788921
 21
561.76065799840035
  0
LINE
  8
_0-0_0
  6
CONTINUOUS
 62
    7
 10
302.79706592788921
 20
561.76065799840035
 11
303.10486565416682
 21
561.80823407208743
  0
LINE
  8
_0-0_0
  6
CONTINUOUS
 62
    7
 10
303.10486565416682
 20
561.80823407208743
 11
303.42847299313416
 21
561.83732632895237
  0
LINE
  8
_0-0_0
  6
CONTINUOUS
 62
    7
 10
303.42847299313416
 20
561.83732632895237
 11
303.76802053175493
 21
561.84718938810511
  0
LINE
  8
_0-0_0
  6
CONTINUOUS
 62
    7
 10
303.76802053175493
 20
561.84718938810511
 11
322.08130083142186
 21
561.84718938810499
  0
LINE
  8
_0-0_0
  6
CONTINUOUS
 62
    7
 10
322.08130083142186
 20
561.84718938810499
 11
338.86939544529872
 21
561.84718938810511
  0
LINE
  8
_0-0_0
  6
CONTINUOUS
 62
    7
 10
338.86939544529872
 20
561.84718938810511
 11
354.19861679450696
 21
561.84718938810511
  0
LINE
  8
_0-0_0
  6
CONTINUOUS
 62
    7
 10
354.19861679450696
 20
561.84718938810511
 11
368.13527730016767
 21
561.84718938810511
  0
LINE
  8
_0-0_0
  6
CONTINUOUS
 62
    7
 10
368.13527730016767
 20
561.84718938810511
 11
380.74568938340229
 21
561.84718938810511
  0
LINE
  8
_0-0_0
  6
CONTINUOUS
 62
    7
 10
380.74568938340229
 20
561.84718938810511
 11
392.09616546533204
 21
561.84718938810511
  0
LINE
  8
_0-0_0
  6
CONTINUOUS
 62
    7
 10
392.09616546533204
 20
561.84718938810511
 11
402.25301796707845
 21
561.84718938810499
  0
LINE
  8
_0-0_0
  6
CONTINUOUS
 62
    7
 10
402.25301796707845
 20
561.84718938810499
 11
411.28255930976263
 21
561.84718938810522
  0
LINE
  8
_0-0_0
  6
CONTINUOUS
 62
    7
 10
411.28255930976263
 20
561.84718938810522
 11
419.25110191450597
 21
561.84718938810511
  0
LINE
  8
_0-0_0
  6
CONTINUOUS
 62
    7
 10
419.25110191450597
 20
561.84718938810511
 11
426.22495820242978
 21
561.84718938810499
  0
LINE
  8
_0-0_0
  6
CONTINUOUS
 62
    7
 10
426.22495820242978
 20
561.84718938810499
 11
432.27044059465521
 21
561.84718938810511
  0
LINE
  8
_0-0_0
  6
CONTINUOUS
 62
    7
 10
432.27044059465521
 20
561.84718938810511
 11
437.45386151230372
 21
561.84718938810511
  0
LINE
  8
_0-0_0
  6
CONTINUOUS
 62
    7
 10
437.45386151230372
 20
561.84718938810511
 11
441.84153337649661
 21
561.84718938810522
  0
LINE
  8
_0-0_0
  6
CONTINUOUS
 62
    7
 10
441.84153337649661
 20
561.84718938810522
 11
445.49976860835488
 21
561.84718938810511
  0
LINE
  8
_0-0_0
  6
CONTINUOUS
 62
    7
 10
445.49976860835488
 20
561.84718938810511
 11
448.49487962900042
 21
561.84718938810511
  0
LINE
  8
_0-0_0
  6
CONTINUOUS
 62
    7
 10
448.49487962900042
 20
561.84718938810511
 11
450.89317885955427
 21
561.84718938810511
  0
LINE
  8
_0-0_0
  6
CONTINUOUS
 62
    7
 10
450.89317885955427
 20
561.84718938810511
 11
452.76097872113752
 21
561.84718938810511
  0
LINE
  8
_0-0_0
  6
CONTINUOUS
 62
    7
 10
452.76097872113752
 20
561.84718938810511
 11
454.16459163487161
 21
561.84718938810511
  0
LINE
  8
_0-0_0
  6
CONTINUOUS
 62
    7
 10
454.16459163487161
 20
561.84718938810511
 11
455.17033002187804
 21
561.84718938810511
  0
LINE
  8
_0-0_0
  6
CONTINUOUS
 62
    7
 10
455.17033002187804
 20
561.84718938810511
 11
455.84450630327797
 21
561.84718938810511
  0
LINE
  8
_0-0_0
  6
CONTINUOUS
 62
    7
 10
455.84450630327797
 20
561.84718938810511
 11
456.25343290019248
 21
561.84718938810511
  0
LINE
  8
_0-0_0
  6
CONTINUOUS
 62
    7
 10
456.25343290019248
 20
561.84718938810511
 11
456.46342223374319
 21
561.84718938810511
  0
LINE
  8
_0-0_0
  6
CONTINUOUS
 62
    7
 10
456.46342223374319
 20
561.84718938810511
 11
456.54078672505136
 21
561.84718938810511
  0
LINE
  8
_0-0_0
  6
CONTINUOUS
 62
    7
 10
456.54078672505136
 20
561.84718938810511
 11
456.55183879523833
 21
561.84718938810511
  0
LINE
  8
_0-0_0
  6
CONTINUOUS
 62
    7
 10
456.55183879523833
 20
561.84718938810511
 11
456.84071466428401
 21
561.83732632895237
  0
LINE
  8
_0-0_0
  6
CONTINUOUS
 62
    7
 10
456.84071466428401
 20
561.83732632895237
 11
457.11373692108214
 21
561.80823407208743
  0
LINE
  8
_0-0_0
  6
CONTINUOUS
 62
    7
 10
457.11373692108214
 20
561.80823407208743
 11
457.3712221508236
 21
561.76065799840035
  0
LINE
  8
_0-0_0
  6
CONTINUOUS
 62
    7
 10
457.3712221508236
 20
561.76065799840035
 11
457.61348693869905
 21
561.69534348878085
  0
LINE
  8
_0-0_0
  6
CONTINUOUS
 62
    7
 10
457.61348693869905
 20
561.69534348878085
 11
457.84084786989968
 21
561.613035924119
  0
LINE
  8
_0-0_0
  6
CONTINUOUS
 62
    7
 10
457.84084786989968
 20
561.613035924119
 11
458.05362152961578
 21
561.51448068530476
  0
LINE
  8
_0-0_0
  6
CONTINUOUS
 62
    7
 10
458.05362152961578
 20
561.51448068530476
 11
458.25212450303854
 21
561.40042315322773
  0
LINE
  8
_0-0_0
  6
CONTINUOUS
 62
    7
 10
458.25212450303854
 20
561.40042315322773
 11
458.43667337535862
 21
561.27160870877833
  0
LINE
  8
_0-0_0
  6
CONTINUOUS
 62
    7
 10
458.43667337535862
 20
561.27160870877833
 11
458.60758473176691
 21
561.12878273284593
  0
LINE
  8
_0-0_0
  6
CONTINUOUS
 62
    7
 10
458.60758473176691
 20
561.12878273284593
 11
458.76517515745405
 21
560.97269060632095
  0
LINE
  8
_0-0_0
  6
CONTINUOUS
 62
    7
 10
458.76517515745405
 20
560.97269060632095
 11
458.90976123761106
 21
560.804077710093
  0
LINE
  8
_0-0_0
  6
CONTINUOUS
 62
    7
 10
458.90976123761106
 20
560.804077710093
 11
459.04165955742855
 21
560.62368942505213
  0
LINE
  8
_0-0_0
  6
CONTINUOUS
 62
    7
 10
459.04165955742855
 20
560.62368942505213
 11
459.16118670209755
 21
560.4322711320882
  0
LINE
  8
_0-0_0
  6
CONTINUOUS
 62
    7
 10
459.16118670209755
 20
560.4322711320882
 11
459.26865925680875
 21
560.23056821209127
  0
LINE
  8
_0-0_0
  6
CONTINUOUS
 62
    7
 10
459.26865925680875
 20
560.23056821209127
 11
459.3643938067529
 21
560.01932604595106
  0
LINE
  8
_0-0_0
  6
CONTINUOUS
 62
    7
 10
459.3643938067529
 20
560.01932604595106
 11
459.44870693712107
 21
559.79929001455776
  0
LINE
  8
_0-0_0
  6
CONTINUOUS
 62
    7
 10
459.44870693712107
 20
559.79929001455776
 11
459.52191523310364
 21
559.57120549880096
  0
LINE
  8
_0-0_0
  6
CONTINUOUS
 62
    7
 10
459.52191523310364
 20
559.57120549880096
 11
459.58433527989172
 21
559.33581787957087
  0
LINE
  8
_0-0_0
  6
CONTINUOUS
 62
    7
 10
459.58433527989172
 20
559.33581787957087
 11
459.63628366267614
 21
559.09387253775731
  0
LINE
  8
_0-0_0
  6
CONTINUOUS
 62
    7
 10
459.63628366267614
 20
559.09387253775731
 11
459.67807696664761
 21
558.84611485425
  0
LINE
  8
_0-0_0
  6
CONTINUOUS
 62
    7
 10
459.67807696664761
 20
558.84611485425
 11
459.71003177699708
 21
558.59329020993925
  0
LINE
  8
_0-0_0
  6
CONTINUOUS
 62
    7
 10
459.71003177699708
 20
558.59329020993925
 11
459.73246467891511
 21
558.33614398571467
  0
LINE
  8
_0-0_0
  6
CONTINUOUS
 62
    7
 10
459.73246467891511
 20
558.33614398571467
 11
459.74569225759268
 21
558.07542156246632
  0
LINE
  8
_0-0_0
  6
CONTINUOUS
 62
    7
 10
459.74569225759268
 20
558.07542156246632
 11
459.75003109822057
 21
557.81186832108153
  0
LINE
  8
_0-0_0
  6
CONTINUOUS
 62
    7
 10
459.75003109822057
 20
557.81186832108153
 11
459.75003109822057
 21
543.53064744228323
  0
LINE
  8
_0-0_0
  6
CONTINUOUS
 62
    7
 10
459.75003109822057
 20
543.53064744228323
 11
459.75003109822057
 21
530.43881007662583
  0
LINE
  8
_0-0_0
  6
CONTINUOUS
 62
    7
 10
459.75003109822057
 20
530.43881007662583
 11
459.75003109822057
 21
518.48464389745072
  0
LINE
  8
_0-0_0
  6
CONTINUOUS
 62
    7
 10
459.75003109822057
 20
518.48464389745072
 11
459.75003109822057
 21
507.61643657809952
  0
LINE
  8
_0-0_0
  6
CONTINUOUS
 62
    7
 10
459.75003109822057
 20
507.61643657809952
 11
459.75003109822057
 21
497.78247579191458
  0
LINE
  8
_0-0_0
  6
CONTINUOUS
 62
    7
 10
459.75003109822057
 20
497.78247579191458
 11
459.75003109822057
 21
488.93104921223699
  0
LINE
  8
_0-0_0
  6
CONTINUOUS
 62
    7
 10
459.75003109822057
 20
488.93104921223699
 11
459.75003109822057
 21
481.01044451240864
  0
LINE
  8
_0-0_0
  6
CONTINUOUS
 62
    7
 10
459.75003109822057
 20
481.01044451240864
 11
459.75003109822057
 21
473.96894936577144
  0
LINE
  8
_0-0_0
  6
CONTINUOUS
 62
    7
 10
459.75003109822057
 20
473.96894936577144
 11
459.75003109822057
 21
467.75485144566676
  0
LINE
  8
_0-0_0
  6
CONTINUOUS
 62
    7
 10
459.75003109822057
 20
467.75485144566676
 11
459.75003109822057
 21
462.31643842543639
  0
LINE
  8
_0-0_0
  6
CONTINUOUS
 62
    7
 10
459.75003109822057
 20
462.31643842543639
 11
459.75003109822057
 21
457.60199797842228
  0
LINE
  8
_0-0_0
  6
CONTINUOUS
 62
    7
 10
459.75003109822057
 20
457.60199797842228
 11
459.75003109822057
 21
453.55981777796592
  0
LINE
  8
_0-0_0
  6
CONTINUOUS
 62
    7
 10
459.75003109822057
 20
453.55981777796592
 11
459.75003109822057
 21
450.13818549740898
  0
LINE
  8
_0-0_0
  6
CONTINUOUS
 62
    7
 10
459.75003109822057
 20
450.13818549740898
 11
459.75003109822057
 21
447.28538881009342
  0
LINE
  8
_0-0_0
  6
CONTINUOUS
 62
    7
 10
459.75003109822057
 20
447.28538881009342
 11
459.75003109822057
 21
444.94971538936062
  0
LINE
  8
_0-0_0
  6
CONTINUOUS
 62
    7
 10
459.75003109822057
 20
444.94971538936062
 11
459.75003109822057
 21
443.07945290855241
  0
LINE
  8
_0-0_0
  6
CONTINUOUS
 62
    7
 10
459.75003109822057
 20
443.07945290855241
 11
459.75003109822057
 21
441.62288904101058
  0
LINE
  8
_0-0_0
  6
CONTINUOUS
 62
    7
 10
459.75003109822057
 20
441.62288904101058
 11
459.75003109822057
 21
440.52831146007691
  0
LINE
  8
_0-0_0
  6
CONTINUOUS
 62
    7
 10
459.75003109822057
 20
440.52831146007691
 11
459.75003109822057
 21
439.74400783909289
  0
LINE
  8
_0-0_0
  6
CONTINUOUS
 62
    7
 10
459.75003109822057
 20
439.74400783909289
 11
459.75003109822057
 21
439.21826585140019
  0
LINE
  8
_0-0_0
  6
CONTINUOUS
 62
    7
 10
459.75003109822057
 20
439.21826585140019
 11
459.75003109822057
 21
438.89937317034088
  0
LINE
  8
_0-0_0
  6
CONTINUOUS
 62
    7
 10
459.75003109822057
 20
438.89937317034088
 11
459.75003109822057
 21
438.73561746925634
  0
LINE
  8
_0-0_0
  6
CONTINUOUS
 62
    7
 10
459.75003109822057
 20
438.73561746925634
 11
459.75003109822057
 21
438.67528642148829
  0
LINE
  8
_0-0_0
  6
CONTINUOUS
 62
    7
 10
459.75003109822057
 20
438.67528642148829
 11
459.75003109822057
 21
438.66666770037858
  0
LINE
  8
_0-0_0
  6
CONTINUOUS
 62
    7
 10
300.98752585898319
 20
451.49210675060198
 11
300.98752585898319
 21
450.69870559066879
  0
LINE
  8
_0-0_0
  6
CONTINUOUS
 62
    7
 10
300.98752585898319
 20
450.69870559066879
 11
300.98752585898319
 21
449.97138129257672
  0
LINE
  8
_0-0_0
  6
CONTINUOUS
 62
    7
 10
300.98752585898319
 20
449.97138129257672
 11
300.98752585898319
 21
449.30726094928929
  0
LINE
  8
_0-0_0
  6
CONTINUOUS
 62
    7
 10
300.98752585898319
 20
449.30726094928929
 11
300.98752585898319
 21
448.7034716537699
  0
LINE
  8
_0-0_0
  6
CONTINUOUS
 62
    7
 10
300.98752585898319
 20
448.7034716537699
 11
300.98752585898319
 21
448.15714049898168
  0
LINE
  8
_0-0_0
  6
CONTINUOUS
 62
    7
 10
300.98752585898319
 20
448.15714049898168
 11
300.98752585898302
 21
447.66539457788861
  0
LINE
  8
_0-0_0
  6
CONTINUOUS
 62
    7
 10
300.98752585898302
 20
447.66539457788861
 11
300.98752585898319
 21
447.2253609834537
  0
LINE
  8
_0-0_0
  6
CONTINUOUS
 62
    7
 10
300.98752585898319
 20
447.2253609834537
 11
300.98752585898319
 21
446.83416680864048
  0
LINE
  8
_0-0_0
  6
CONTINUOUS
 62
    7
 10
300.98752585898319
 20
446.83416680864048
 11
300.98752585898319
 21
446.48893914641246
  0
LINE
  8
_0-0_0
  6
CONTINUOUS
 62
    7
 10
300.98752585898319
 20
446.48893914641246
 11
300.98752585898319
 21
446.18680508973296
  0
LINE
  8
_0-0_0
  6
CONTINUOUS
 62
    7
 10
300.98752585898319
 20
446.18680508973296
 11
300.98752585898319
 21
445.92489173156559
  0
LINE
  8
_0-0_0
  6
CONTINUOUS
 62
    7
 10
300.98752585898319
 20
445.92489173156559
 11
300.98752585898319
 21
445.70032616487362
  0
LINE
  8
_0-0_0
  6
CONTINUOUS
 62
    7
 10
300.98752585898319
 20
445.70032616487362
 11
300.98752585898319
 21
445.51023548262037
  0
LINE
  8
_0-0_0
  6
CONTINUOUS
 62
    7
 10
300.98752585898319
 20
445.51023548262037
 11
300.98752585898319
 21
445.35174677776968
  0
LINE
  8
_0-0_0
  6
CONTINUOUS
 62
    7
 10
300.98752585898319
 20
445.35174677776968
 11
300.98752585898319
 21
445.22198714328442
  0
LINE
  8
_0-0_0
  6
CONTINUOUS
 62
    7
 10
300.98752585898319
 20
445.22198714328442
 11
300.98752585898319
 21
445.11808367212842
  0
LINE
  8
_0-0_0
  6
CONTINUOUS
 62
    7
 10
300.98752585898319
 20
445.11808367212842
 11
300.98752585898319
 21
445.03716345726502
  0
LINE
  8
_0-0_0
  6
CONTINUOUS
 62
    7
 10
300.98752585898319
 20
445.03716345726502
 11
300.98752585898319
 21
444.97635359165758
  0
LINE
  8
_0-0_0
  6
CONTINUOUS
 62
    7
 10
300.98752585898319
 20
444.97635359165758
 11
300.98752585898319
 21
444.93278116826951
  0
LINE
  8
_0-0_0
  6
CONTINUOUS
 62
    7
 10
300.98752585898319
 20
444.93278116826951
 11
300.98752585898319
 21
444.90357328006428
  0
LINE
  8
_0-0_0
  6
CONTINUOUS
 62
    7
 10
300.98752585898319
 20
444.90357328006428
 11
300.98752585898319
 21
444.88585702000546
  0
LINE
  8
_0-0_0
  6
CONTINUOUS
 62
    7
 10
300.98752585898319
 20
444.88585702000546
 11
300.98752585898319
 21
444.87675948105641
  0
LINE
  8
_0-0_0
  6
CONTINUOUS
 62
    7
 10
300.98752585898319
 20
444.87675948105641
 11
300.98752585898319
 21
444.87340775618031
  0
LINE
  8
_0-0_0
  6
CONTINUOUS
 62
    7
 10
300.98752585898319
 20
444.87340775618031
 11
300.98752585898319
 21
444.87292893834092
  0
LINE
  8
_0-0_0
  6
CONTINUOUS
 62
    7
 10
300.98752585898319
 20
444.87292893834092
 11
300.99099702168076
 21
444.69318873188791
  0
LINE
  8
_0-0_0
  6
CONTINUOUS
 62
    7
 10
300.99099702168076
 20
444.69318873188791
 11
301.00139788244377
 21
444.47942032644738
  0
LINE
  8
_0-0_0
  6
CONTINUOUS
 62
    7
 10
301.00139788244377
 20
444.47942032644738
 11
301.01870950027802
 21
444.23532890316437
  0
LINE
  8
_0-0_0
  6
CONTINUOUS
 62
    7
 10
301.01870950027802
 20
444.23532890316437
 11
301.04291293418919
 21
443.96461964318382
  0
LINE
  8
_0-0_0
  6
CONTINUOUS
 62
    7
 10
301.04291293418919
 20
443.96461964318382
 11
301.07398924318295
 21
443.67099772765067
  0
LINE
  8
_0-0_0
  6
CONTINUOUS
 62
    7
 10
301.07398924318295
 20
443.67099772765067
 11
301.11191948626498
 21
443.35816833771003
  0
LINE
  8
_0-0_0
  6
CONTINUOUS
 62
    7
 10
301.11191948626498
 20
443.35816833771003
 11
301.15668472244073
 21
443.02983665450682
  0
LINE
  8
_0-0_0
  6
CONTINUOUS
 62
    7
 10
301.15668472244073
 20
443.02983665450682
 11
301.20826601071627
 21
442.689707859186
  0
LINE
  8
_0-0_0
  6
CONTINUOUS
 62
    7
 10
301.20826601071627
 20
442.689707859186
 11
301.26664441009711
 21
442.34148713289272
  0
LINE
  8
_0-0_0
  6
CONTINUOUS
 62
    7
 10
301.26664441009711
 20
442.34148713289272
 11
301.33180097958876
 21
441.98887965677159
  0
LINE
  8
_0-0_0
  6
CONTINUOUS
 62
    7
 10
301.33180097958876
 20
441.98887965677159
 11
301.40371677819707
 21
441.63559061196821
  0
LINE
  8
_0-0_0
  6
CONTINUOUS
 62
    7
 10
301.40371677819707
 20
441.63559061196821
 11
301.48237286492781
 21
441.28532517962708
  0
LINE
  8
_0-0_0
  6
CONTINUOUS
 62
    7
 10
301.48237286492781
 20
441.28532517962708
 11
301.56775029878622
 21
440.94178854089341
  0
LINE
  8
_0-0_0
  6
CONTINUOUS
 62
    7
 10
301.56775029878622
 20
440.94178854089341
 11
301.65983013877849
 21
440.60868587691198
  0
LINE
  8
_0-0_0
  6
CONTINUOUS
 62
    7
 10
301.65983013877849
 20
440.60868587691198
 11
301.75859344391006
 21
440.28972236882805
  0
LINE
  8
_0-0_0
  6
CONTINUOUS
 62
    7
 10
301.75859344391006
 20
440.28972236882805
 11
301.86402127318672
 21
439.98860319778652
  0
LINE
  8
_0-0_0
  6
CONTINUOUS
 62
    7
 10
301.86402127318672
 20
439.98860319778652
 11
301.97609468561382
 21
439.70903354493231
  0
LINE
  8
_0-0_0
  6
CONTINUOUS
 62
    7
 10
301.97609468561382
 20
439.70903354493231
 11
302.09479474019747
 21
439.45471859141048
  0
LINE
  8
_0-0_0
  6
CONTINUOUS
 62
    7
 10
302.09479474019747
 20
439.45471859141048
 11
302.22010249594325
 21
439.22936351836597
  0
LINE
  8
_0-0_0
  6
CONTINUOUS
 62
    7
 10
302.22010249594325
 20
439.22936351836597
 11
302.35199901185644
 21
439.03667350694383
  0
LINE
  8
_0-0_0
  6
CONTINUOUS
 62
    7
 10
302.35199901185644
 20
439.03667350694383
 11
302.49046534694332
 21
438.88035373828922
  0
LINE
  8
_0-0_0
  6
CONTINUOUS
 62
    7
 10
302.49046534694332
 20
438.88035373828922
 11
302.63548256020903
 21
438.76410939354662
  0
LINE
  8
_0-0_0
  6
CONTINUOUS
 62
    7
 10
302.63548256020903
 20
438.76410939354662
 11
302.78703171065956
 21
438.69164565386143
  0
LINE
  8
_0-0_0
  6
CONTINUOUS
 62
    7
 10
302.78703171065956
 20
438.69164565386143
 11
302.94509385730134
 21
438.66666770037858
  0
LINE
  8
_0-0_0
  6
CONTINUOUS
 62
    7
 10
302.94509385730134
 20
438.66666770037858
 11
321.3080674339883
 21
438.66666770037858
  0
LINE
  8
_0-0_0
  6
CONTINUOUS
 62
    7
 10
321.3080674339883
 20
438.66666770037858
 11
338.14171671762585
 21
438.66666770037858
  0
LINE
  8
_0-0_0
  6
CONTINUOUS
 62
    7
 10
338.14171671762585
 20
438.66666770037858
 11
353.51253406878152
 21
438.66666770037858
  0
LINE
  8
_0-0_0
  6
CONTINUOUS
 62
    7
 10
353.51253406878152
 20
438.66666770037858
 11
367.48701184802235
 21
438.66666770037853
  0
LINE
  8
_0-0_0
  6
CONTINUOUS
 62
    7
 10
367.48701184802235
 20
438.66666770037853
 11
380.13164241591602
 21
438.66666770037858
  0
LINE
  8
_0-0_0
  6
CONTINUOUS
 62
    7
 10
380.13164241591602
 20
438.66666770037858
 11
391.51291813302987
 21
438.66666770037864
  0
LINE
  8
_0-0_0
  6
CONTINUOUS
 62
    7
 10
391.51291813302987
 20
438.66666770037864
 11
401.69733135993113
 21
438.66666770037864
  0
LINE
  8
_0-0_0
  6
CONTINUOUS
 62
    7
 10
401.69733135993113
 20
438.66666770037864
 11
410.75137445718713
 21
438.66666770037858
  0
LINE
  8
_0-0_0
  6
CONTINUOUS
 62
    7
 10
410.75137445718713
 20
438.66666770037858
 11
418.74153978536532
 21
438.66666770037858
  0
LINE
  8
_0-0_0
  6
CONTINUOUS
 62
    7
 10
418.74153978536532
 20
438.66666770037858
 11
425.73431970503322
 21
438.66666770037858
  0
LINE
  8
_0-0_0
  6
CONTINUOUS
 62
    7
 10
425.73431970503322
 20
438.66666770037858
 11
431.79620657675787
 21
438.66666770037858
  0
LINE
  8
_0-0_0
  6
CONTINUOUS
 62
    7
 10
431.79620657675787
 20
438.66666770037858
 11
436.99369276110667
 21
438.66666770037858
  0
LINE
  8
_0-0_0
  6
CONTINUOUS
 62
    7
 10
436.99369276110667
 20
438.66666770037858
 11
441.39327061864731
 21
438.66666770037858
  0
LINE
  8
_0-0_0
  6
CONTINUOUS
 62
    7
 10
441.39327061864731
 20
438.66666770037858
 11
445.06143250994683
 21
438.66666770037858
  0
LINE
  8
_0-0_0
  6
CONTINUOUS
 62
    7
 10
445.06143250994683
 20
438.66666770037858
 11
448.06467079557297
 21
438.66666770037858
  0
LINE
  8
_0-0_0
  6
CONTINUOUS
 62
    7
 10
448.06467079557297
 20
438.66666770037858
 11
450.46947783609255
 21
438.66666770037858
  0
LINE
  8
_0-0_0
  6
CONTINUOUS
 62
    7
 10
450.46947783609255
 20
438.66666770037858
 11
452.34234599207326
 21
438.66666770037858
  0
LINE
  8
_0-0_0
  6
CONTINUOUS
 62
    7
 10
452.34234599207326
 20
438.66666770037858
 11
453.74976762408255
 21
438.66666770037858
  0
LINE
  8
_0-0_0
  6
CONTINUOUS
 62
    7
 10
453.74976762408255
 20
438.66666770037858
 11
454.75823509268753
 21
438.66666770037858
  0
LINE
  8
_0-0_0
  6
CONTINUOUS
 62
    7
 10
454.75823509268753
 20
438.66666770037858
 11
455.43424075845559
 21
438.66666770037858
  0
LINE
  8
_0-0_0
  6
CONTINUOUS
 62
    7
 10
455.43424075845559
 20
438.66666770037858
 11
455.84427698195441
 21
438.66666770037858
  0
LINE
  8
_0-0_0
  6
CONTINUOUS
 62
    7
 10
455.84427698195441
 20
438.66666770037858
 11
456.0548361237511
 21
438.66666770037858
  0
LINE
  8
_0-0_0
  6
CONTINUOUS
 62
    7
 10
456.0548361237511
 20
438.66666770037858
 11
456.13241054441312
 21
438.66666770037858
  0
LINE
  8
_0-0_0
  6
CONTINUOUS
 62
    7
 10
456.13241054441312
 20
438.66666770037858
 11
456.14349260450763
 21
438.66666770037858
  0
LINE
  8
_0-0_0
  6
CONTINUOUS
 62
    7
 10
456.14349260450763
 20
438.66666770037858
 11
456.32899777155274
 21
438.67325529250593
  0
LINE
  8
_0-0_0
  6
CONTINUOUS
 62
    7
 10
456.32899777155274
 20
438.67325529250593
 11
456.5119201987294
 21
438.69238809305392
  0
LINE
  8
_0-0_0
  6
CONTINUOUS
 62
    7
 10
456.5119201987294
 20
438.69238809305392
 11
456.69178771410742
 21
438.72312113827121
  0
LINE
  8
_0-0_0
  6
CONTINUOUS
 62
    7
 10
456.69178771410742
 20
438.72312113827121
 11
456.86812814575728
 21
438.76450946440679
  0
LINE
  8
_0-0_0
  6
CONTINUOUS
 62
    7
 10
456.86812814575728
 20
438.76450946440679
 11
457.04046932174862
 21
438.81560810770941
  0
LINE
  8
_0-0_0
  6
CONTINUOUS
 62
    7
 10
457.04046932174862
 20
438.81560810770941
 11
457.20833907015208
 21
438.87547210442813
  0
LINE
  8
_0-0_0
  6
CONTINUOUS
 62
    7
 10
457.20833907015208
 20
438.87547210442813
 11
457.37126521903741
 21
438.94315649081142
  0
LINE
  8
_0-0_0
  6
CONTINUOUS
 62
    7
 10
457.37126521903741
 20
438.94315649081142
 11
457.52877559647459
 21
439.01771630310839
  0
LINE
  8
_0-0_0
  6
CONTINUOUS
 62
    7
 10
457.52877559647459
 20
439.01771630310839
 11
457.68039803053409
 21
439.09820657756791
  0
LINE
  8
_0-0_0
  6
CONTINUOUS
 62
    7
 10
457.68039803053409
 20
439.09820657756791
 11
457.82566034928601
 21
439.18368235043857
  0
LINE
  8
_0-0_0
  6
CONTINUOUS
 62
    7
 10
457.82566034928601
 20
439.18368235043857
 11
457.96409038080043
 21
439.27319865796949
  0
LINE
  8
_0-0_0
  6
CONTINUOUS
 62
    7
 10
457.96409038080043
 20
439.27319865796949
 11
458.09521595314709
 21
439.3658105364093
  0
LINE
  8
_0-0_0
  6
CONTINUOUS
 62
    7
 10
458.09521595314709
 20
439.3658105364093
 11
458.21856489439654
 21
439.46057302200688
  0
LINE
  8
_0-0_0
  6
CONTINUOUS
 62
    7
 10
458.21856489439654
 20
439.46057302200688
 11
458.33366503261902
 21
439.55654115101129
  0
LINE
  8
_0-0_0
  6
CONTINUOUS
 62
    7
 10
458.33366503261902
 20
439.55654115101129
 11
458.44004419588401
 21
439.65276995967099
  0
LINE
  8
_0-0_0
  6
CONTINUOUS
 62
    7
 10
458.44004419588401
 20
439.65276995967099
 11
458.53723021226216
 21
439.74831448423521
  0
LINE
  8
_0-0_0
  6
CONTINUOUS
 62
    7
 10
458.53723021226216
 20
439.74831448423521
 11
458.62475090982338
 21
439.84222976095236
  0
LINE
  8
_0-0_0
  6
CONTINUOUS
 62
    7
 10
458.62475090982338
 20
439.84222976095236
 11
458.70213411663792
 21
439.93357082607167
  0
LINE
  8
_0-0_0
  6
CONTINUOUS
 62
    7
 10
458.70213411663792
 20
439.93357082607167
 11
458.76890766077577
 21
440.02139271584178
  0
LINE
  8
_0-0_0
  6
CONTINUOUS
 62
    7
 10
458.76890766077577
 20
440.02139271584178
 11
458.82459937030711
 21
440.10475046651163
  0
LINE
  8
_0-0_0
  6
CONTINUOUS
 62
    7
 10
458.82459937030711
 20
440.10475046651163
 11
458.8687370733021
 21
440.18269911432992
  0
LINE
  8
_0-0_0
  6
CONTINUOUS
 62
    7
 10
458.8687370733021
 20
440.18269911432992
 11
458.90084859783059
 21
440.25429369554581
  0
LINE
  8
_0-0_0
  6
CONTINUOUS
 62
    7
 10
458.90084859783059
 20
440.25429369554581
 11
458.92046177196306
 21
440.31858924640778
  0
LINE
  8
_0-0_0
  6
CONTINUOUS
 62
    7
 10
458.92046177196306
 20
440.31858924640778
 11
458.92710442376938
 21
440.37464080316465
  0
LINE
  8
_0-0_0
  6
CONTINUOUS
 62
    7
 10
458.92710442376938
 20
440.37464080316465
 11
458.92710442376938
 21
441.70722479295807
  0
LINE
  8
_0-0_0
  6
CONTINUOUS
 62
    7
 10
458.92710442376938
 20
441.70722479295807
 11
458.92710442376938
 21
442.92882713483868
  0
LINE
  8
_0-0_0
  6
CONTINUOUS
 62
    7
 10
458.92710442376938
 20
442.92882713483868
 11
458.92710442376938
 21
444.04427311784622
  0
LINE
  8
_0-0_0
  6
CONTINUOUS
 62
    7
 10
458.92710442376938
 20
444.04427311784622
 11
458.92710442376938
 21
445.05838803102029
  0
LINE
  8
_0-0_0
  6
CONTINUOUS
 62
    7
 10
458.92710442376938
 20
445.05838803102029
 11
458.92710442376938
 21
445.97599716340062
  0
LINE
  8
_0-0_0
  6
CONTINUOUS
 62
    7
 10
458.92710442376938
 20
445.97599716340062
 11
458.92710442376938
 21
446.80192580402689
  0
LINE
  8
_0-0_0
  6
CONTINUOUS
 62
    7
 10
458.92710442376938
 20
446.80192580402689
 11
458.92710442376932
 21
447.54099924193883
  0
LINE
  8
_0-0_0
  6
CONTINUOUS
 62
    7
 10
458.92710442376932
 20
447.54099924193883
 11
458.92710442376938
 21
448.19804276617617
  0
LINE
  8
_0-0_0
  6
CONTINUOUS
 62
    7
 10
458.92710442376938
 20
448.19804276617617
 11
458.92710442376932
 21
448.77788166577852
  0
LINE
  8
_0-0_0
  6
CONTINUOUS
 62
    7
 10
458.92710442376932
 20
448.77788166577852
 11
458.92710442376938
 21
449.28534122978544
  0
LINE
  8
_0-0_0
  6
CONTINUOUS
 62
    7
 10
458.92710442376938
 20
449.28534122978544
 11
458.92710442376938
 21
449.72524674723684
  0
LINE
  8
_0-0_0
  6
CONTINUOUS
 62
    7
 10
458.92710442376938
 20
449.72524674723684
 11
458.92710442376938
 21
450.10242350717238
  0
LINE
  8
_0-0_0
  6
CONTINUOUS
 62
    7
 10
458.92710442376938
 20
450.10242350717238
 11
458.92710442376938
 21
450.42169679863161
  0
LINE
  8
_0-0_0
  6
CONTINUOUS
 62
    7
 10
458.92710442376938
 20
450.42169679863161
 11
458.92710442376938
 21
450.68789191065429
  0
LINE
  8
_0-0_0
  6
CONTINUOUS
 62
    7
 10
458.92710442376938
 20
450.68789191065429
 11
458.92710442376938
 21
450.90583413228012
  0
LINE
  8
_0-0_0
  6
CONTINUOUS
 62
    7
 10
458.92710442376938
 20
450.90583413228012
 11
458.92710442376938
 21
451.08034875254879
  0
LINE
  8
_0-0_0
  6
CONTINUOUS
 62
    7
 10
458.92710442376938
 20
451.08034875254879
 11
458.92710442376932
 21
451.21626106050002
  0
LINE
  8
_0-0_0
  6
CONTINUOUS
 62
    7
 10
458.92710442376932
 20
451.21626106050002
 11
458.92710442376938
 21
451.31839634517343
  0
LINE
  8
_0-0_0
  6
CONTINUOUS
 62
    7
 10
458.92710442376938
 20
451.31839634517343
 11
458.92710442376938
 21
451.39157989560857
  0
LINE
  8
_0-0_0
  6
CONTINUOUS
 62
    7
 10
458.92710442376938
 20
451.39157989560857
 11
458.92710442376938
 21
451.44063700084541
  0
LINE
  8
_0-0_0
  6
CONTINUOUS
 62
    7
 10
458.92710442376938
 20
451.44063700084541
 11
458.92710442376938
 21
451.47039294992339
  0
LINE
  8
_0-0_0
  6
CONTINUOUS
 62
    7
 10
458.92710442376938
 20
451.47039294992339
 11
458.92710442376938
 21
451.48567303188253
  0
LINE
  8
_0-0_0
  6
CONTINUOUS
 62
    7
 10
458.92710442376938
 20
451.48567303188253
 11
458.92710442376938
 21
451.49130253576209
  0
LINE
  8
_0-0_0
  6
CONTINUOUS
 62
    7
 10
458.92710442376938
 20
451.49130253576209
 11
458.92710442376938
 21
451.49210675060198
  0
LINE
  8
_0-0_0
  6
CONTINUOUS
 62
    7
 10
458.92710442376938
 20
451.49210675060198
 11
439.99583404747796
 21
451.49210675060198
  0
LINE
  8
_0-0_0
  6
CONTINUOUS
 62
    7
 10
439.99583404747796
 20
451.49210675060198
 11
422.6412174502621
 21
451.49210675060198
  0
LINE
  8
_0-0_0
  6
CONTINUOUS
 62
    7
 10
422.6412174502621
 20
451.49210675060198
 11
406.79470446781431
 21
451.49210675060198
  0
LINE
  8
_0-0_0
  6
CONTINUOUS
 62
    7
 10
406.79470446781431
 20
451.49210675060198
 11
392.38774493582662
 21
451.49210675060198
  0
LINE
  8
_0-0_0
  6
CONTINUOUS
 62
    7
 10
392.38774493582662
 20
451.49210675060198
 11
379.35178868999168
 21
451.49210675060198
  0
LINE
  8
_0-0_0
  6
CONTINUOUS
 62
    7
 10
379.35178868999168
 20
451.49210675060198
 11
367.61828556600187
 21
451.49210675060198
  0
LINE
  8
_0-0_0
  6
CONTINUOUS
 62
    7
 10
367.61828556600187
 20
451.49210675060198
 11
357.11868539954946
 21
451.49210675060209
  0
LINE
  8
_0-0_0
  6
CONTINUOUS
 62
    7
 10
357.11868539954946
 20
451.49210675060209
 11
347.78443802632665
 21
451.49210675060198
  0
LINE
  8
_0-0_0
  6
CONTINUOUS
 62
    7
 10
347.78443802632665
 20
451.49210675060198
 11
339.54699328202622
 21
451.49210675060198
  0
LINE
  8
_0-0_0
  6
CONTINUOUS
 62
    7
 10
339.54699328202622
 20
451.49210675060198
 11
332.33780100234014
 21
451.49210675060198
  0
LINE
  8
_0-0_0
  6
CONTINUOUS
 62
    7
 10
332.33780100234014
 20
451.49210675060198
 11
326.08831102296102
 21
451.49210675060198
  0
LINE
  8
_0-0_0
  6
CONTINUOUS
 62
    7
 10
326.08831102296102
 20
451.49210675060198
 11
320.72997317958095
 21
451.49210675060198
  0
LINE
  8
_0-0_0
  6
CONTINUOUS
 62
    7
 10
320.72997317958095
 20
451.49210675060198
 11
316.19423730789265
 21
451.49210675060198
  0
LINE
  8
_0-0_0
  6
CONTINUOUS
 62
    7
 10
316.19423730789265
 20
451.49210675060198
 11
312.41255324358832
 21
451.49210675060198
  0
LINE
  8
_0-0_0
  6
CONTINUOUS
 62
    7
 10
312.41255324358832
 20
451.49210675060198
 11
309.31637082236023
 21
451.49210675060198
  0
LINE
  8
_0-0_0
  6
CONTINUOUS
 62
    7
 10
309.31637082236023
 20
451.49210675060198
 11
306.83713987990097
 21
451.49210675060198
  0
LINE
  8
_0-0_0
  6
CONTINUOUS
 62
    7
 10
306.83713987990097
 20
451.49210675060198
 11
304.90631025190271
 21
451.49210675060198
  0
LINE
  8
_0-0_0
  6
CONTINUOUS
 62
    7
 10
304.90631025190271
 20
451.49210675060198
 11
303.45533177405775
 21
451.49210675060198
  0
LINE
  8
_0-0_0
  6
CONTINUOUS
 62
    7
 10
303.45533177405775
 20
451.49210675060198
 11
302.41565428205882
 21
451.49210675060198
  0
LINE
  8
_0-0_0
  6
CONTINUOUS
 62
    7
 10
302.41565428205882
 20
451.49210675060198
 11
301.71872761159773
 21
451.49210675060198
  0
LINE
  8
_0-0_0
  6
CONTINUOUS
 62
    7
 10
301.71872761159773
 20
451.49210675060198
 11
301.29600159836747
 21
451.49210675060198
  0
LINE
  8
_0-0_0
  6
CONTINUOUS
 62
    7
 10
301.29600159836747
 20
451.49210675060198
 11
301.07892607806002
 21
451.49210675060198
  0
LINE
  8
_0-0_0
  6
CONTINUOUS
 62
    7
 10
301.07892607806002
 20
451.49210675060198
 11
300.99895088636777
 21
451.49210675060198
  0
LINE
  8
_0-0_0
  6
CONTINUOUS
 62
    7
 10
300.99895088636777
 20
451.49210675060198
 11
300.98752585898319
 21
451.49210675060198
  0
LINE
  8
_0-0_0
  6
CONTINUOUS
 62
    7
 10
300.98752585898319
 20
550.93305357195277
 11
300.98752585898319
 21
551.75757585488918
  0
LINE
  8
_0-0_0
  6
CONTINUOUS
 62
    7
 10
300.98752585898319
 20
551.75757585488918
 11
300.98752585898319
 21
552.51342941420114
  0
LINE
  8
_0-0_0
  6
CONTINUOUS
 62
    7
 10
300.98752585898319
 20
552.51342941420114
 11
300.98752585898319
 21
553.20359984656841
  0
LINE
  8
_0-0_0
  6
CONTINUOUS
 62
    7
 10
300.98752585898319
 20
553.20359984656841
 11
300.98752585898319
 21
553.83107274867018
  0
LINE
  8
_0-0_0
  6
CONTINUOUS
 62
    7
 10
300.98752585898319
 20
553.83107274867018
 11
300.98752585898319
 21
554.39883371718577
  0
LINE
  8
_0-0_0
  6
CONTINUOUS
 62
    7
 10
300.98752585898319
 20
554.39883371718577
 11
300.98752585898302
 21
554.90986834879436
  0
LINE
  8
_0-0_0
  6
CONTINUOUS
 62
    7
 10
300.98752585898302
 20
554.90986834879436
 11
300.98752585898319
 21
555.36716224017539
  0
LINE
  8
_0-0_0
  6
CONTINUOUS
 62
    7
 10
300.98752585898319
 20
555.36716224017539
 11
300.98752585898319
 21
555.77370098800827
  0
LINE
  8
_0-0_0
  6
CONTINUOUS
 62
    7
 10
300.98752585898319
 20
555.77370098800827
 11
300.98752585898319
 21
556.13247018897198
  0
LINE
  8
_0-0_0
  6
CONTINUOUS
 62
    7
 10
300.98752585898319
 20
556.13247018897198
 11
300.98752585898319
 21
556.44645543974616
  0
LINE
  8
_0-0_0
  6
CONTINUOUS
 62
    7
 10
300.98752585898319
 20
556.44645543974616
 11
300.98752585898319
 21
556.7186423370099
  0
LINE
  8
_0-0_0
  6
CONTINUOUS
 62
    7
 10
300.98752585898319
 20
556.7186423370099
 11
300.98752585898319
 21
556.95201647744273
  0
LINE
  8
_0-0_0
  6
CONTINUOUS
 62
    7
 10
300.98752585898319
 20
556.95201647744273
 11
300.98752585898319
 21
557.14956345772373
  0
LINE
  8
_0-0_0
  6
CONTINUOUS
 62
    7
 10
300.98752585898319
 20
557.14956345772373
 11
300.98752585898319
 21
557.31426887453244
  0
LINE
  8
_0-0_0
  6
CONTINUOUS
 62
    7
 10
300.98752585898319
 20
557.31426887453244
 11
300.98752585898319
 21
557.44911832454795
  0
LINE
  8
_0-0_0
  6
CONTINUOUS
 62
    7
 10
300.98752585898319
 20
557.44911832454795
 11
300.98752585898319
 21
557.55709740444968
  0
LINE
  8
_0-0_0
  6
CONTINUOUS
 62
    7
 10
300.98752585898319
 20
557.55709740444968
 11
300.98752585898319
 21
557.64119171091693
  0
LINE
  8
_0-0_0
  6
CONTINUOUS
 62
    7
 10
300.98752585898319
 20
557.64119171091693
 11
300.98752585898319
 21
557.70438684062901
  0
LINE
  8
_0-0_0
  6
CONTINUOUS
 62
    7
 10
300.98752585898319
 20
557.70438684062901
 11
300.98752585898319
 21
557.74966839026524
  0
LINE
  8
_0-0_0
  6
CONTINUOUS
 62
    7
 10
300.98752585898319
 20
557.74966839026524
 11
300.98752585898319
 21
557.78002195650481
  0
LINE
  8
_0-0_0
  6
CONTINUOUS
 62
    7
 10
300.98752585898319
 20
557.78002195650481
 11
300.98752585898319
 21
557.79843313602726
  0
LINE
  8
_0-0_0
  6
CONTINUOUS
 62
    7
 10
300.98752585898319
 20
557.79843313602726
 11
300.98752585898319
 21
557.80788752551177
  0
LINE
  8
_0-0_0
  6
CONTINUOUS
 62
    7
 10
300.98752585898319
 20
557.80788752551177
 11
300.98752585898319
 21
557.81137072163756
  0
LINE
  8
_0-0_0
  6
CONTINUOUS
 62
    7
 10
300.98752585898319
 20
557.81137072163756
 11
300.98752585898319
 21
557.81186832108415
  0
LINE
  8
_0-0_0
  6
CONTINUOUS
 62
    7
 10
300.98752585898319
 20
557.81186832108415
 11
300.99099702168076
 21
557.94109935515678
  0
LINE
  8
_0-0_0
  6
CONTINUOUS
 62
    7
 10
300.99099702168076
 20
557.94109935515678
 11
301.00139788244377
 21
558.07039012831694
  0
LINE
  8
_0-0_0
  6
CONTINUOUS
 62
    7
 10
301.00139788244377
 20
558.07039012831694
 11
301.01870950027802
 21
558.19924643538502
  0
LINE
  8
_0-0_0
  6
CONTINUOUS
 62
    7
 10
301.01870950027802
 20
558.19924643538502
 11
301.04291293418919
 21
558.32717407118014
  0
LINE
  8
_0-0_0
  6
CONTINUOUS
 62
    7
 10
301.04291293418919
 20
558.32717407118014
 11
301.07398924318295
 21
558.45367883052234
  0
LINE
  8
_0-0_0
  6
CONTINUOUS
 62
    7
 10
301.07398924318295
 20
558.45367883052234
 11
301.11191948626498
 21
558.57826650823154
  0
LINE
  8
_0-0_0
  6
CONTINUOUS
 62
    7
 10
301.11191948626498
 20
558.57826650823154
 11
301.15668472244073
 21
558.70044289912744
  0
LINE
  8
_0-0_0
  6
CONTINUOUS
 62
    7
 10
301.15668472244073
 20
558.70044289912744
 11
301.20826601071627
 21
558.81971379802985
  0
LINE
  8
_0-0_0
  6
CONTINUOUS
 62
    7
 10
301.20826601071627
 20
558.81971379802985
 11
301.26664441009711
 21
558.93558499975848
  0
LINE
  8
_0-0_0
  6
CONTINUOUS
 62
    7
 10
301.26664441009711
 20
558.93558499975848
 11
301.33180097958876
 21
559.04756229913312
  0
LINE
  8
_0-0_0
  6
CONTINUOUS
 62
    7
 10
301.33180097958876
 20
559.04756229913312
 11
301.40371677819707
 21
559.15515149097382
  0
LINE
  8
_0-0_0
  6
CONTINUOUS
 62
    7
 10
301.40371677819707
 20
559.15515149097382
 11
301.48237286492781
 21
559.25785837010017
  0
LINE
  8
_0-0_0
  6
CONTINUOUS
 62
    7
 10
301.48237286492781
 20
559.25785837010017
 11
301.56775029878622
 21
559.35518873133196
  0
LINE
  8
_0-0_0
  6
CONTINUOUS
 62
    7
 10
301.56775029878622
 20
559.35518873133196
 11
301.65983013877849
 21
559.44664836948891
  0
LINE
  8
_0-0_0
  6
CONTINUOUS
 62
    7
 10
301.65983013877849
 20
559.44664836948891
 11
301.75859344391006
 21
559.53174307939116
  0
LINE
  8
_0-0_0
  6
CONTINUOUS
 62
    7
 10
301.75859344391006
 20
559.53174307939116
 11
301.86402127318672
 21
559.60997865585807
  0
LINE
  8
_0-0_0
  6
CONTINUOUS
 62
    7
 10
301.86402127318672
 20
559.60997865585807
 11
301.97609468561382
 21
559.68086089370968
  0
LINE
  8
_0-0_0
  6
CONTINUOUS
 62
    7
 10
301.97609468561382
 20
559.68086089370968
 11
302.09479474019747
 21
559.74389558776579
  0
LINE
  8
_0-0_0
  6
CONTINUOUS
 62
    7
 10
302.09479474019747
 20
559.74389558776579
 11
302.22010249594325
 21
559.79858853284622
  0
LINE
  8
_0-0_0
  6
CONTINUOUS
 62
    7
 10
302.22010249594325
 20
559.79858853284622
 11
302.35199901185644
 21
559.84444552377045
  0
LINE
  8
_0-0_0
  6
CONTINUOUS
 62
    7
 10
302.35199901185644
 20
559.84444552377045
 11
302.49046534694332
 21
559.88097235535872
  0
LINE
  8
_0-0_0
  6
CONTINUOUS
 62
    7
 10
302.49046534694332
 20
559.88097235535872
 11
302.63548256020903
 21
559.90767482243052
  0
LINE
  8
_0-0_0
  6
CONTINUOUS
 62
    7
 10
302.63548256020903
 20
559.90767482243052
 11
302.78703171065956
 21
559.92405871980566
  0
LINE
  8
_0-0_0
  6
CONTINUOUS
 62
    7
 10
302.78703171065956
 20
559.92405871980566
 11
302.94509385730134
 21
559.92962984230417
  0
LINE
  8
_0-0_0
  6
CONTINUOUS
 62
    7
 10
302.94509385730134
 20
559.92962984230417
 11
321.3080674339883
 21
559.92962984230417
  0
LINE
  8
_0-0_0
  6
CONTINUOUS
 62
    7
 10
321.3080674339883
 20
559.92962984230417
 11
338.14171671762585
 21
559.92962984230417
  0
LINE
  8
_0-0_0
  6
CONTINUOUS
 62
    7
 10
338.14171671762585
 20
559.92962984230417
 11
353.51253406878152
 21
559.92962984230417
  0
LINE
  8
_0-0_0
  6
CONTINUOUS
 62
    7
 10
353.51253406878152
 20
559.92962984230417
 11
367.48701184802235
 21
559.92962984230405
  0
LINE
  8
_0-0_0
  6
CONTINUOUS
 62
    7
 10
367.48701184802235
 20
559.92962984230405
 11
380.13164241591602
 21
559.92962984230417
  0
LINE
  8
_0-0_0
  6
CONTINUOUS
 62
    7
 10
380.13164241591602
 20
559.92962984230417
 11
391.51291813302987
 21
559.92962984230417
  0
LINE
  8
_0-0_0
  6
CONTINUOUS
 62
    7
 10
391.51291813302987
 20
559.92962984230417
 11
401.69733135993113
 21
559.92962984230417
  0
LINE
  8
_0-0_0
  6
CONTINUOUS
 62
    7
 10
401.69733135993113
 20
559.92962984230417
 11
410.75137445718713
 21
559.92962984230417
  0
LINE
  8
_0-0_0
  6
CONTINUOUS
 62
    7
 10
410.75137445718713
 20
559.92962984230417
 11
418.74153978536532
 21
559.92962984230417
  0
LINE
  8
_0-0_0
  6
CONTINUOUS
 62
    7
 10
418.74153978536532
 20
559.92962984230417
 11
425.73431970503322
 21
559.92962984230417
  0
LINE
  8
_0-0_0
  6
CONTINUOUS
 62
    7
 10
425.73431970503322
 20
559.92962984230417
 11
431.79620657675787
 21
559.92962984230417
  0
LINE
  8
_0-0_0
  6
CONTINUOUS
 62
    7
 10
431.79620657675787
 20
559.92962984230417
 11
436.99369276110667
 21
559.92962984230417
  0
LINE
  8
_0-0_0
  6
CONTINUOUS
 62
    7
 10
436.99369276110667
 20
559.92962984230417
 11
441.39327061864731
 21
559.92962984230417
  0
LINE
  8
_0-0_0
  6
CONTINUOUS
 62
    7
 10
441.39327061864731
 20
559.92962984230417
 11
445.06143250994683
 21
559.92962984230417
  0
LINE
  8
_0-0_0
  6
CONTINUOUS
 62
    7
 10
445.06143250994683
 20
559.92962984230417
 11
448.06467079557297
 21
559.92962984230417
  0
LINE
  8
_0-0_0
  6
CONTINUOUS
 62
    7
 10
448.06467079557297
 20
559.92962984230417
 11
450.46947783609255
 21
559.92962984230417
  0
LINE
  8
_0-0_0
  6
CONTINUOUS
 62
    7
 10
450.46947783609255
 20
559.92962984230417
 11
452.34234599207326
 21
559.92962984230417
  0
LINE
  8
_0-0_0
  6
CONTINUOUS
 62
    7
 10
452.34234599207326
 20
559.92962984230417
 11
453.74976762408255
 21
559.92962984230417
  0
LINE
  8
_0-0_0
  6
CONTINUOUS
 62
    7
 10
453.74976762408255
 20
559.92962984230417
 11
454.75823509268753
 21
559.92962984230417
  0
LINE
  8
_0-0_0
  6
CONTINUOUS
 62
    7
 10
454.75823509268753
 20
559.92962984230417
 11
455.43424075845559
 21
559.92962984230417
  0
LINE
  8
_0-0_0
  6
CONTINUOUS
 62
    7
 10
455.43424075845559
 20
559.92962984230417
 11
455.84427698195441
 21
559.92962984230417
  0
LINE
  8
_0-0_0
  6
CONTINUOUS
 62
    7
 10
455.84427698195441
 20
559.92962984230417
 11
456.0548361237511
 21
559.92962984230417
  0
LINE
  8
_0-0_0
  6
CONTINUOUS
 62
    7
 10
456.0548361237511
 20
559.92962984230417
 11
456.13241054441312
 21
559.92962984230417
  0
LINE
  8
_0-0_0
  6
CONTINUOUS
 62
    7
 10
456.13241054441312
 20
559.92962984230417
 11
456.14349260450763
 21
559.92962984230417
  0
LINE
  8
_0-0_0
  6
CONTINUOUS
 62
    7
 10
456.14349260450763
 20
559.92962984230417
 11
456.32899777155274
 21
559.92405871980566
  0
LINE
  8
_0-0_0
  6
CONTINUOUS
 62
    7
 10
456.32899777155274
 20
559.92405871980566
 11
456.5119201987294
 21
559.90767482243052
  0
LINE
  8
_0-0_0
  6
CONTINUOUS
 62
    7
 10
456.5119201987294
 20
559.90767482243052
 11
456.69178771410742
 21
559.88097235535861
  0
LINE
  8
_0-0_0
  6
CONTINUOUS
 62
    7
 10
456.69178771410742
 20
559.88097235535861
 11
456.86812814575728
 21
559.84444552377045
  0
LINE
  8
_0-0_0
  6
CONTINUOUS
 62
    7
 10
456.86812814575728
 20
559.84444552377045
 11
457.04046932174862
 21
559.79858853284611
  0
LINE
  8
_0-0_0
  6
CONTINUOUS
 62
    7
 10
457.04046932174862
 20
559.79858853284611
 11
457.20833907015208
 21
559.74389558776579
  0
LINE
  8
_0-0_0
  6
CONTINUOUS
 62
    7
 10
457.20833907015208
 20
559.74389558776579
 11
457.37126521903741
 21
559.68086089370979
  0
LINE
  8
_0-0_0
  6
CONTINUOUS
 62
    7
 10
457.37126521903741
 20
559.68086089370979
 11
457.52877559647459
 21
559.60997865585807
  0
LINE
  8
_0-0_0
  6
CONTINUOUS
 62
    7
 10
457.52877559647459
 20
559.60997865585807
 11
457.68039803053409
 21
559.53174307939105
  0
LINE
  8
_0-0_0
  6
CONTINUOUS
 62
    7
 10
457.68039803053409
 20
559.53174307939105
 11
457.82566034928601
 21
559.44664836948914
  0
LINE
  8
_0-0_0
  6
CONTINUOUS
 62
    7
 10
457.82566034928601
 20
559.44664836948914
 11
457.96409038080043
 21
559.35518873133196
  0
LINE
  8
_0-0_0
  6
CONTINUOUS
 62
    7
 10
457.96409038080043
 20
559.35518873133196
 11
458.09521595314709
 21
559.25785837010017
  0
LINE
  8
_0-0_0
  6
CONTINUOUS
 62
    7
 10
458.09521595314709
 20
559.25785837010017
 11
458.21856489439654
 21
559.15515149097382
  0
LINE
  8
_0-0_0
  6
CONTINUOUS
 62
    7
 10
458.21856489439654
 20
559.15515149097382
 11
458.33366503261902
 21
559.04756229913323
  0
LINE
  8
_0-0_0
  6
CONTINUOUS
 62
    7
 10
458.33366503261902
 20
559.04756229913323
 11
458.44004419588401
 21
558.93558499975848
  0
LINE
  8
_0-0_0
  6
CONTINUOUS
 62
    7
 10
458.44004419588401
 20
558.93558499975848
 11
458.53723021226216
 21
558.81971379802985
  0
LINE
  8
_0-0_0
  6
CONTINUOUS
 62
    7
 10
458.53723021226216
 20
558.81971379802985
 11
458.62475090982338
 21
558.70044289912744
  0
LINE
  8
_0-0_0
  6
CONTINUOUS
 62
    7
 10
458.62475090982338
 20
558.70044289912744
 11
458.70213411663792
 21
558.57826650823154
  0
LINE
  8
_0-0_0
  6
CONTINUOUS
 62
    7
 10
458.70213411663792
 20
558.57826650823154
 11
458.76890766077577
 21
558.45367883052234
  0
LINE
  8
_0-0_0
  6
CONTINUOUS
 62
    7
 10
458.76890766077577
 20
558.45367883052234
 11
458.82459937030711
 21
558.32717407118002
  0
LINE
  8
_0-0_0
  6
CONTINUOUS
 62
    7
 10
458.82459937030711
 20
558.32717407118002
 11
458.8687370733021
 21
558.19924643538502
  0
LINE
  8
_0-0_0
  6
CONTINUOUS
 62
    7
 10
458.8687370733021
 20
558.19924643538502
 11
458.90084859783059
 21
558.07039012831706
  0
LINE
  8
_0-0_0
  6
CONTINUOUS
 62
    7
 10
458.90084859783059
 20
558.07039012831706
 11
458.92046177196306
 21
557.94109935515678
  0
LINE
  8
_0-0_0
  6
CONTINUOUS
 62
    7
 10
458.92046177196306
 20
557.94109935515678
 11
458.92710442376938
 21
557.81186832108415
  0
LINE
  8
_0-0_0
  6
CONTINUOUS
 62
    7
 10
458.92710442376938
 20
557.81186832108415
 11
458.92710442376938
 21
556.98734603814796
  0
LINE
  8
_0-0_0
  6
CONTINUOUS
 62
    7
 10
458.92710442376938
 20
556.98734603814796
 11
458.92710442376938
 21
556.23149247883589
  0
LINE
  8
_0-0_0
  6
CONTINUOUS
 62
    7
 10
458.92710442376938
 20
556.23149247883589
 11
458.92710442376938
 21
555.54132204646851
  0
LINE
  8
_0-0_0
  6
CONTINUOUS
 62
    7
 10
458.92710442376938
 20
555.54132204646851
 11
458.92710442376938
 21
554.91384914436685
  0
LINE
  8
_0-0_0
  6
CONTINUOUS
 62
    7
 10
458.92710442376938
 20
554.91384914436685
 11
458.92710442376938
 21
554.34608817585126
  0
LINE
  8
_0-0_0
  6
CONTINUOUS
 62
    7
 10
458.92710442376938
 20
554.34608817585126
 11
458.92710442376938
 21
553.83505354424256
  0
LINE
  8
_0-0_0
  6
CONTINUOUS
 62
    7
 10
458.92710442376938
 20
553.83505354424256
 11
458.92710442376932
 21
553.37775965286153
  0
LINE
  8
_0-0_0
  6
CONTINUOUS
 62
    7
 10
458.92710442376932
 20
553.37775965286153
 11
458.92710442376938
 21
552.97122090502887
  0
LINE
  8
_0-0_0
  6
CONTINUOUS
 62
    7
 10
458.92710442376938
 20
552.97122090502887
 11
458.92710442376932
 21
552.61245170406494
  0
LINE
  8
_0-0_0
  6
CONTINUOUS
 62
    7
 10
458.92710442376932
 20
552.61245170406494
 11
458.92710442376938
 21
552.29846645329076
  0
LINE
  8
_0-0_0
  6
CONTINUOUS
 62
    7
 10
458.92710442376938
 20
552.29846645329076
 11
458.92710442376938
 21
552.02627955602702
  0
LINE
  8
_0-0_0
  6
CONTINUOUS
 62
    7
 10
458.92710442376938
 20
552.02627955602702
 11
458.92710442376938
 21
551.79290541559419
  0
LINE
  8
_0-0_0
  6
CONTINUOUS
 62
    7
 10
458.92710442376938
 20
551.79290541559419
 11
458.92710442376938
 21
551.59535843531319
  0
LINE
  8
_0-0_0
  6
CONTINUOUS
 62
    7
 10
458.92710442376938
 20
551.59535843531319
 11
458.92710442376938
 21
551.43065301850447
  0
LINE
  8
_0-0_0
  6
CONTINUOUS
 62
    7
 10
458.92710442376938
 20
551.43065301850447
 11
458.92710442376938
 21
551.29580356848896
  0
LINE
  8
_0-0_0
  6
CONTINUOUS
 62
    7
 10
458.92710442376938
 20
551.29580356848896
 11
458.92710442376938
 21
551.18782448858724
  0
LINE
  8
_0-0_0
  6
CONTINUOUS
 62
    7
 10
458.92710442376938
 20
551.18782448858724
 11
458.92710442376932
 21
551.10373018211999
  0
LINE
  8
_0-0_0
  6
CONTINUOUS
 62
    7
 10
458.92710442376932
 20
551.10373018211999
 11
458.92710442376938
 21
551.0405350524079
  0
LINE
  8
_0-0_0
  6
CONTINUOUS
 62
    7
 10
458.92710442376938
 20
551.0405350524079
 11
458.92710442376938
 21
550.99525350277167
  0
LINE
  8
_0-0_0
  6
CONTINUOUS
 62
    7
 10
458.92710442376938
 20
550.99525350277167
 11
458.92710442376938
 21
550.96489993653199
  0
LINE
  8
_0-0_0
  6
CONTINUOUS
 62
    7
 10
458.92710442376938
 20
550.96489993653199
 11
458.92710442376938
 21
550.94648875700966
  0
LINE
  8
_0-0_0
  6
CONTINUOUS
 62
    7
 10
458.92710442376938
 20
550.94648875700966
 11
458.92710442376938
 21
550.93703436752514
  0
LINE
  8
_0-0_0
  6
CONTINUOUS
 62
    7
 10
458.92710442376938
 20
550.93703436752514
 11
458.92710442376938
 21
550.93355117139936
  0
LINE
  8
_0-0_0
  6
CONTINUOUS
 62
    7
 10
458.92710442376938
 20
550.93355117139936
 11
458.92710442376938
 21
550.93305357195277
  0
LINE
  8
_0-0_0
  6
CONTINUOUS
 62
    7
 10
458.92710442376938
 20
550.93305357195277
 11
439.99583404747796
 21
550.93305357195277
  0
LINE
  8
_0-0_0
  6
CONTINUOUS
 62
    7
 10
439.99583404747796
 20
550.93305357195277
 11
422.6412174502621
 21
550.93305357195266
  0
LINE
  8
_0-0_0
  6
CONTINUOUS
 62
    7
 10
422.6412174502621
 20
550.93305357195266
 11
406.79470446781431
 21
550.93305357195288
  0
LINE
  8
_0-0_0
  6
CONTINUOUS
 62
    7
 10
406.79470446781431
 20
550.93305357195288
 11
392.38774493582662
 21
550.93305357195266
  0
LINE
  8
_0-0_0
  6
CONTINUOUS
 62
    7
 10
392.38774493582662
 20
550.93305357195266
 11
379.35178868999168
 21
550.93305357195266
  0
LINE
  8
_0-0_0
  6
CONTINUOUS
 62
    7
 10
379.35178868999168
 20
550.93305357195266
 11
367.61828556600187
 21
550.93305357195277
  0
LINE
  8
_0-0_0
  6
CONTINUOUS
 62
    7
 10
367.61828556600187
 20
550.93305357195277
 11
357.11868539954946
 21
550.93305357195277
  0
LINE
  8
_0-0_0
  6
CONTINUOUS
 62
    7
 10
357.11868539954946
 20
550.93305357195277
 11
347.78443802632665
 21
550.93305357195277
  0
LINE
  8
_0-0_0
  6
CONTINUOUS
 62
    7
 10
347.78443802632665
 20
550.93305357195277
 11
339.54699328202622
 21
550.93305357195266
  0
LINE
  8
_0-0_0
  6
CONTINUOUS
 62
    7
 10
339.54699328202622
 20
550.93305357195266
 11
332.33780100234014
 21
550.93305357195277
  0
LINE
  8
_0-0_0
  6
CONTINUOUS
 62
    7
 10
332.33780100234014
 20
550.93305357195277
 11
326.08831102296102
 21
550.93305357195277
  0
LINE
  8
_0-0_0
  6
CONTINUOUS
 62
    7
 10
326.08831102296102
 20
550.93305357195277
 11
320.72997317958095
 21
550.93305357195277
  0
LINE
  8
_0-0_0
  6
CONTINUOUS
 62
    7
 10
320.72997317958095
 20
550.93305357195277
 11
316.19423730789265
 21
550.93305357195277
  0
LINE
  8
_0-0_0
  6
CONTINUOUS
 62
    7
 10
316.19423730789265
 20
550.93305357195277
 11
312.41255324358832
 21
550.93305357195266
  0
LINE
  8
_0-0_0
  6
CONTINUOUS
 62
    7
 10
312.41255324358832
 20
550.93305357195266
 11
309.31637082236023
 21
550.93305357195277
  0
LINE
  8
_0-0_0
  6
CONTINUOUS
 62
    7
 10
309.31637082236023
 20
550.93305357195277
 11
306.83713987990097
 21
550.93305357195277
  0
LINE
  8
_0-0_0
  6
CONTINUOUS
 62
    7
 10
306.83713987990097
 20
550.93305357195277
 11
304.90631025190271
 21
550.93305357195277
  0
LINE
  8
_0-0_0
  6
CONTINUOUS
 62
    7
 10
304.90631025190271
 20
550.93305357195277
 11
303.45533177405775
 21
550.93305357195277
  0
LINE
  8
_0-0_0
  6
CONTINUOUS
 62
    7
 10
303.45533177405775
 20
550.93305357195277
 11
302.41565428205882
 21
550.93305357195277
  0
LINE
  8
_0-0_0
  6
CONTINUOUS
 62
    7
 10
302.41565428205882
 20
550.93305357195277
 11
301.71872761159773
 21
550.93305357195277
  0
LINE
  8
_0-0_0
  6
CONTINUOUS
 62
    7
 10
301.71872761159773
 20
550.93305357195277
 11
301.29600159836747
 21
550.93305357195277
  0
LINE
  8
_0-0_0
  6
CONTINUOUS
 62
    7
 10
301.29600159836747
 20
550.93305357195277
 11
301.07892607806002
 21
550.93305357195266
  0
LINE
  8
_0-0_0
  6
CONTINUOUS
 62
    7
 10
301.07892607806002
 20
550.93305357195266
 11
300.99895088636777
 21
550.93305357195277
  0
LINE
  8
_0-0_0
  6
CONTINUOUS
 62
    7
 10
300.99895088636777
 20
550.93305357195277
 11
300.98752585898319
 21
550.93305357195277
  0
LINE
  8
_0-0_0
  6
CONTINUOUS
 62
    7
 10
312.32147051165452
 20
539.19934091893174
 11
312.31702118189321
 21
539.09151322330911
  0
LINE
  8
_0-0_0
  6
CONTINUOUS
 62
    7
 10
312.31702118189321
 20
539.09151322330911
 11
312.30405922811212
 21
538.98854883250931
  0
LINE
  8
_0-0_0
  6
CONTINUOUS
 62
    7
 10
312.30405922811212
 20
538.98854883250931
 11
312.28316370356652
 21
538.89042330781456
  0
LINE
  8
_0-0_0
  6
CONTINUOUS
 62
    7
 10
312.28316370356652
 20
538.89042330781456
 11
312.25491366151147
 21
538.79711221050718
  0
LINE
  8
_0-0_0
  6
CONTINUOUS
 62
    7
 10
312.25491366151147
 20
538.79711221050718
 11
312.21988815520155
 21
538.70859110186939
  0
LINE
  8
_0-0_0
  6
CONTINUOUS
 62
    7
 10
312.21988815520155
 20
538.70859110186939
 11
312.17866623789212
 21
538.62483554318362
  0
LINE
  8
_0-0_0
  6
CONTINUOUS
 62
    7
 10
312.17866623789212
 20
538.62483554318362
 11
312.13182696283809
 21
538.54582109573221
  0
LINE
  8
_0-0_0
  6
CONTINUOUS
 62
    7
 10
312.13182696283809
 20
538.54582109573221
 11
312.07994938329432
 21
538.47152332079713
  0
LINE
  8
_0-0_0
  6
CONTINUOUS
 62
    7
 10
312.07994938329432
 20
538.47152332079713
 11
312.02361255251594
 21
538.40191777966118
  0
LINE
  8
_0-0_0
  6
CONTINUOUS
 62
    7
 10
312.02361255251594
 20
538.40191777966118
 11
311.96339552375798
 21
538.3369800336061
  0
LINE
  8
_0-0_0
  6
CONTINUOUS
 62
    7
 10
311.96339552375798
 20
538.3369800336061
 11
311.89987735027529
 21
538.27668564391456
  0
LINE
  8
_0-0_0
  6
CONTINUOUS
 62
    7
 10
311.89987735027529
 20
538.27668564391456
 11
311.83363708532278
 21
538.2210101718689
  0
LINE
  8
_0-0_0
  6
CONTINUOUS
 62
    7
 10
311.83363708532278
 20
538.2210101718689
 11
311.76525378215564
 21
538.1699291787512
  0
LINE
  8
_0-0_0
  6
CONTINUOUS
 62
    7
 10
311.76525378215564
 20
538.1699291787512
 11
311.69530649402873
 21
538.12341822584381
  0
LINE
  8
_0-0_0
  6
CONTINUOUS
 62
    7
 10
311.69530649402873
 20
538.12341822584381
 11
311.62437427419718
 21
538.08145287442926
  0
LINE
  8
_0-0_0
  6
CONTINUOUS
 62
    7
 10
311.62437427419718
 20
538.08145287442926
 11
311.55303617591562
 21
538.04400868578944
  0
LINE
  8
_0-0_0
  6
CONTINUOUS
 62
    7
 10
311.55303617591562
 20
538.04400868578944
 11
311.48187125243959
 21
538.011061221207
  0
LINE
  8
_0-0_0
  6
CONTINUOUS
 62
    7
 10
311.48187125243959
 20
538.011061221207
 11
311.41145855702354
 21
537.98258604196394
  0
LINE
  8
_0-0_0
  6
CONTINUOUS
 62
    7
 10
311.41145855702354
 20
537.98258604196394
 11
311.34237714292283
 21
537.95855870934281
  0
LINE
  8
_0-0_0
  6
CONTINUOUS
 62
    7
 10
311.34237714292283
 20
537.95855870934281
 11
311.27520606339232
 21
537.93895478462593
  0
LINE
  8
_0-0_0
  6
CONTINUOUS
 62
    7
 10
311.27520606339232
 20
537.93895478462593
 11
311.21052437168692
 21
537.92374982909541
  0
LINE
  8
_0-0_0
  6
CONTINUOUS
 62
    7
 10
311.21052437168692
 20
537.92374982909541
 11
311.14891112106181
 21
537.91291940403357
  0
LINE
  8
_0-0_0
  6
CONTINUOUS
 62
    7
 10
311.14891112106181
 20
537.91291940403357
 11
311.09094536477164
 21
537.90643907072285
  0
LINE
  8
_0-0_0
  6
CONTINUOUS
 62
    7
 10
311.09094536477164
 20
537.90643907072285
 11
311.03720615607182
 21
537.90428439044535
  0
LINE
  8
_0-0_0
  6
CONTINUOUS
 62
    7
 10
311.03720615607182
 20
537.90428439044535
 11
310.92975795406755
 21
537.90643907072274
  0
LINE
  8
_0-0_0
  6
CONTINUOUS
 62
    7
 10
310.92975795406755
 20
537.90643907072274
 11
310.82715594075353
 21
537.91291940403357
  0
LINE
  8
_0-0_0
  6
CONTINUOUS
 62
    7
 10
310.82715594075353
 20
537.91291940403357
 11
310.72937576342258
 21
537.92374982909541
  0
LINE
  8
_0-0_0
  6
CONTINUOUS
 62
    7
 10
310.72937576342258
 20
537.92374982909541
 11
310.63639306936778
 21
537.93895478462582
  0
LINE
  8
_0-0_0
  6
CONTINUOUS
 62
    7
 10
310.63639306936778
 20
537.93895478462582
 11
310.54818350588221
 21
537.95855870934292
  0
LINE
  8
_0-0_0
  6
CONTINUOUS
 62
    7
 10
310.54818350588221
 20
537.95855870934292
 11
310.46472272025869
 21
537.98258604196394
  0
LINE
  8
_0-0_0
  6
CONTINUOUS
 62
    7
 10
310.46472272025869
 20
537.98258604196394
 11
310.38598635979042
 21
538.011061221207
  0
LINE
  8
_0-0_0
  6
CONTINUOUS
 62
    7
 10
310.38598635979042
 20
538.011061221207
 11
310.31195007177018
 21
538.04400868578944
  0
LINE
  8
_0-0_0
  6
CONTINUOUS
 62
    7
 10
310.31195007177018
 20
538.04400868578944
 11
310.24258950349122
 21
538.08145287442926
  0
LINE
  8
_0-0_0
  6
CONTINUOUS
 62
    7
 10
310.24258950349122
 20
538.08145287442926
 11
310.17788030224642
 21
538.12341822584381
  0
LINE
  8
_0-0_0
  6
CONTINUOUS
 62
    7
 10
310.17788030224642
 20
538.12341822584381
 11
310.11779811532898
 21
538.1699291787512
  0
LINE
  8
_0-0_0
  6
CONTINUOUS
 62
    7
 10
310.11779811532898
 20
538.1699291787512
 11
310.06231859003162
 21
538.2210101718689
  0
LINE
  8
_0-0_0
  6
CONTINUOUS
 62
    7
 10
310.06231859003162
 20
538.2210101718689
 11
310.01141737364776
 21
538.27668564391467
  0
LINE
  8
_0-0_0
  6
CONTINUOUS
 62
    7
 10
310.01141737364776
 20
538.27668564391467
 11
309.96507011347001
 21
538.3369800336061
  0
LINE
  8
_0-0_0
  6
CONTINUOUS
 62
    7
 10
309.96507011347001
 20
538.3369800336061
 11
309.92325245679149
 21
538.40191777966106
  0
LINE
  8
_0-0_0
  6
CONTINUOUS
 62
    7
 10
309.92325245679149
 20
538.40191777966106
 11
309.88594005090533
 21
538.47152332079713
  0
LINE
  8
_0-0_0
  6
CONTINUOUS
 62
    7
 10
309.88594005090533
 20
538.47152332079713
 11
309.85310854310455
 21
538.54582109573209
  0
LINE
  8
_0-0_0
  6
CONTINUOUS
 62
    7
 10
309.85310854310455
 20
538.54582109573209
 11
309.82473358068205
 21
538.62483554318374
  0
LINE
  8
_0-0_0
  6
CONTINUOUS
 62
    7
 10
309.82473358068205
 20
538.62483554318374
 11
309.80079081093089
 21
538.70859110186939
  0
LINE
  8
_0-0_0
  6
CONTINUOUS
 62
    7
 10
309.80079081093089
 20
538.70859110186939
 11
309.78125588114409
 21
538.79711221050707
  0
LINE
  8
_0-0_0
  6
CONTINUOUS
 62
    7
 10
309.78125588114409
 20
538.79711221050707
 11
309.76610443861466
 21
538.89042330781456
  0
LINE
  8
_0-0_0
  6
CONTINUOUS
 62
    7
 10
309.76610443861466
 20
538.89042330781456
 11
309.75531213063562
 21
538.98854883250931
  0
LINE
  8
_0-0_0
  6
CONTINUOUS
 62
    7
 10
309.75531213063562
 20
538.98854883250931
 11
309.74885460449997
 21
539.09151322330922
  0
LINE
  8
_0-0_0
  6
CONTINUOUS
 62
    7
 10
309.74885460449997
 20
539.09151322330922
 11
309.74670750750079
 21
539.19934091893174
  0
LINE
  8
_0-0_0
  6
CONTINUOUS
 62
    7
 10
309.74670750750079
 20
539.19934091893174
 11
309.74885460449991
 21
539.25326992779935
  0
LINE
  8
_0-0_0
  6
CONTINUOUS
 62
    7
 10
309.74885460449991
 20
539.25326992779935
 11
309.75531213063562
 21
539.31144041189486
  0
LINE
  8
_0-0_0
  6
CONTINUOUS
 62
    7
 10
309.75531213063562
 20
539.31144041189486
 11
309.76610443861466
 21
539.37327127281969
  0
LINE
  8
_0-0_0
  6
CONTINUOUS
 62
    7
 10
309.76610443861466
 20
539.37327127281969
 11
309.78125588114409
 21
539.43818141217503
  0
LINE
  8
_0-0_0
  6
CONTINUOUS
 62
    7
 10
309.78125588114409
 20
539.43818141217503
 11
309.80079081093072
 21
539.50558973156205
  0
LINE
  8
_0-0_0
  6
CONTINUOUS
 62
    7
 10
309.80079081093072
 20
539.50558973156205
 11
309.82473358068205
 21
539.5749151325823
  0
LINE
  8
_0-0_0
  6
CONTINUOUS
 62
    7
 10
309.82473358068205
 20
539.5749151325823
 11
309.85310854310455
 21
539.64557651683674
  0
LINE
  8
_0-0_0
  6
CONTINUOUS
 62
    7
 10
309.85310854310455
 20
539.64557651683674
 11
309.88594005090533
 21
539.716992785927
  0
LINE
  8
_0-0_0
  6
CONTINUOUS
 62
    7
 10
309.88594005090533
 20
539.716992785927
 11
309.92325245679149
 21
539.78858284145429
  0
LINE
  8
_0-0_0
  6
CONTINUOUS
 62
    7
 10
309.92325245679149
 20
539.78858284145429
 11
309.96507011347001
 21
539.85976558501989
  0
LINE
  8
_0-0_0
  6
CONTINUOUS
 62
    7
 10
309.96507011347001
 20
539.85976558501989
 11
310.01141737364776
 21
539.92995991822499
  0
LINE
  8
_0-0_0
  6
CONTINUOUS
 62
    7
 10
310.01141737364776
 20
539.92995991822499
 11
310.06231859003162
 21
539.99858474267103
  0
LINE
  8
_0-0_0
  6
CONTINUOUS
 62
    7
 10
310.06231859003162
 20
539.99858474267103
 11
310.11779811532898
 21
540.06505895995929
  0
LINE
  8
_0-0_0
  6
CONTINUOUS
 62
    7
 10
310.11779811532898
 20
540.06505895995929
 11
310.17788030224642
 21
540.12880147169096
  0
LINE
  8
_0-0_0
  6
CONTINUOUS
 62
    7
 10
310.17788030224642
 20
540.12880147169096
 11
310.24258950349122
 21
540.18923117946747
  0
LINE
  8
_0-0_0
  6
CONTINUOUS
 62
    7
 10
310.24258950349122
 20
540.18923117946747
 11
310.31195007177018
 21
540.24576698489
  0
LINE
  8
_0-0_0
  6
CONTINUOUS
 62
    7
 10
310.31195007177018
 20
540.24576698489
 11
310.38598635979031
 21
540.29782778955996
  0
LINE
  8
_0-0_0
  6
CONTINUOUS
 62
    7
 10
310.38598635979031
 20
540.29782778955996
 11
310.46472272025869
 21
540.34483249507866
  0
LINE
  8
_0-0_0
  6
CONTINUOUS
 62
    7
 10
310.46472272025869
 20
540.34483249507866
 11
310.54818350588221
 21
540.38620000304718
  0
LINE
  8
_0-0_0
  6
CONTINUOUS
 62
    7
 10
310.54818350588221
 20
540.38620000304718
 11
310.63639306936778
 21
540.42134921506715
  0
LINE
  8
_0-0_0
  6
CONTINUOUS
 62
    7
 10
310.63639306936778
 20
540.42134921506715
 11
310.72937576342258
 21
540.44969903273966
  0
LINE
  8
_0-0_0
  6
CONTINUOUS
 62
    7
 10
310.72937576342258
 20
540.44969903273966
 11
310.82715594075353
 21
540.470668357666
  0
LINE
  8
_0-0_0
  6
CONTINUOUS
 62
    7
 10
310.82715594075353
 20
540.470668357666
 11
310.92975795406772
 21
540.48367609144759
  0
LINE
  8
_0-0_0
  6
CONTINUOUS
 62
    7
 10
310.92975795406772
 20
540.48367609144759
 11
311.03720615607182
 21
540.48814113568551
  0
LINE
  8
_0-0_0
  6
CONTINUOUS
 62
    7
 10
311.03720615607182
 20
540.48814113568551
 11
311.09094536477181
 21
540.48367609144748
  0
LINE
  8
_0-0_0
  6
CONTINUOUS
 62
    7
 10
311.09094536477181
 20
540.48367609144748
 11
311.14891112106164
 21
540.47066835766589
  0
LINE
  8
_0-0_0
  6
CONTINUOUS
 62
    7
 10
311.14891112106164
 20
540.47066835766589
 11
311.21052437168692
 21
540.44969903273966
  0
LINE
  8
_0-0_0
  6
CONTINUOUS
 62
    7
 10
311.21052437168692
 20
540.44969903273966
 11
311.27520606339232
 21
540.42134921506715
  0
LINE
  8
_0-0_0
  6
CONTINUOUS
 62
    7
 10
311.27520606339232
 20
540.42134921506715
 11
311.34237714292294
 21
540.38620000304729
  0
LINE
  8
_0-0_0
  6
CONTINUOUS
 62
    7
 10
311.34237714292294
 20
540.38620000304729
 11
311.41145855702371
 21
540.34483249507855
  0
LINE
  8
_0-0_0
  6
CONTINUOUS
 62
    7
 10
311.41145855702371
 20
540.34483249507855
 11
311.48187125243959
 21
540.29782778956007
  0
LINE
  8
_0-0_0
  6
CONTINUOUS
 62
    7
 10
311.48187125243959
 20
540.29782778956007
 11
311.55303617591562
 21
540.24576698489
  0
LINE
  8
_0-0_0
  6
CONTINUOUS
 62
    7
 10
311.55303617591562
 20
540.24576698489
 11
311.62437427419718
 21
540.18923117946747
  0
LINE
  8
_0-0_0
  6
CONTINUOUS
 62
    7
 10
311.62437427419718
 20
540.18923117946747
 11
311.69530649402873
 21
540.12880147169096
  0
LINE
  8
_0-0_0
  6
CONTINUOUS
 62
    7
 10
311.69530649402873
 20
540.12880147169096
 11
311.76525378215558
 21
540.06505895995917
  0
LINE
  8
_0-0_0
  6
CONTINUOUS
 62
    7
 10
311.76525378215558
 20
540.06505895995917
 11
311.83363708532278
 21
539.99858474267103
  0
LINE
  8
_0-0_0
  6
CONTINUOUS
 62
    7
 10
311.83363708532278
 20
539.99858474267103
 11
311.89987735027529
 21
539.92995991822499
  0
LINE
  8
_0-0_0
  6
CONTINUOUS
 62
    7
 10
311.89987735027529
 20
539.92995991822499
 11
311.96339552375798
 21
539.85976558501989
  0
LINE
  8
_0-0_0
  6
CONTINUOUS
 62
    7
 10
311.96339552375798
 20
539.85976558501989
 11
312.02361255251611
 21
539.78858284145417
  0
LINE
  8
_0-0_0
  6
CONTINUOUS
 62
    7
 10
312.02361255251611
 20
539.78858284145417
 11
312.07994938329432
 21
539.716992785927
  0
LINE
  8
_0-0_0
  6
CONTINUOUS
 62
    7
 10
312.07994938329432
 20
539.716992785927
 11
312.13182696283809
 21
539.64557651683685
  0
LINE
  8
_0-0_0
  6
CONTINUOUS
 62
    7
 10
312.13182696283809
 20
539.64557651683685
 11
312.17866623789212
 21
539.57491513258219
  0
LINE
  8
_0-0_0
  6
CONTINUOUS
 62
    7
 10
312.17866623789212
 20
539.57491513258219
 11
312.21988815520155
 21
539.50558973156205
  0
LINE
  8
_0-0_0
  6
CONTINUOUS
 62
    7
 10
312.21988815520155
 20
539.50558973156205
 11
312.25491366151141
 21
539.43818141217491
  0
LINE
  8
_0-0_0
  6
CONTINUOUS
 62
    7
 10
312.25491366151141
 20
539.43818141217491
 11
312.28316370356652
 21
539.37327127281969
  0
LINE
  8
_0-0_0
  6
CONTINUOUS
 62
    7
 10
312.28316370356652
 20
539.37327127281969
 11
312.30405922811212
 21
539.31144041189498
  0
LINE
  8
_0-0_0
  6
CONTINUOUS
 62
    7
 10
312.30405922811212
 20
539.31144041189498
 11
312.31702118189321
 21
539.25326992779947
  0
LINE
  8
_0-0_0
  6
CONTINUOUS
 62
    7
 10
312.31702118189321
 20
539.25326992779947
 11
312.32147051165452
 21
539.19934091893174
  0
LINE
  8
_0-0_0
  6
CONTINUOUS
 62
    7
 10
566.66544646165346
 20
545.79241920085155
 11
566.79544315044063
 21
545.66635600073334
  0
LINE
  8
_0-0_0
  6
CONTINUOUS
 62
    7
 10
566.79544315044063
 20
545.66635600073334
 11
566.91461331958226
 21
545.54777370566285
  0
LINE
  8
_0-0_0
  6
CONTINUOUS
 62
    7
 10
566.91461331958226
 20
545.54777370566285
 11
567.02342768732387
 21
545.43599371690925
  0
LINE
  8
_0-0_0
  6
CONTINUOUS
 62
    7
 10
567.02342768732387
 20
545.43599371690925
 11
567.1223569719109
 21
545.33033743574185
  0
LINE
  8
_0-0_0
  6
CONTINUOUS
 62
    7
 10
567.1223569719109
 20
545.33033743574185
 11
567.21187189158877
 21
545.23012626342938
  0
LINE
  8
_0-0_0
  6
CONTINUOUS
 62
    7
 10
567.21187189158877
 20
545.23012626342938
 11
567.2924431646029
 21
545.13468160124125
  0
LINE
  8
_0-0_0
  6
CONTINUOUS
 62
    7
 10
567.2924431646029
 20
545.13468160124125
 11
567.36454150919883
 21
545.04332485044597
  0
LINE
  8
_0-0_0
  6
CONTINUOUS
 62
    7
 10
567.36454150919883
 20
545.04332485044597
 11
567.42863764362198
 21
544.95537741231317
  0
LINE
  8
_0-0_0
  6
CONTINUOUS
 62
    7
 10
567.42863764362198
 20
544.95537741231317
 11
567.48520228611778
 21
544.8701606881117
  0
LINE
  8
_0-0_0
  6
CONTINUOUS
 62
    7
 10
567.48520228611778
 20
544.8701606881117
 11
567.53470615493188
 21
544.78699607911051
  0
LINE
  8
_0-0_0
  6
CONTINUOUS
 62
    7
 10
567.53470615493188
 20
544.78699607911051
 11
567.57761996830925
 21
544.70520498657879
  0
LINE
  8
_0-0_0
  6
CONTINUOUS
 62
    7
 10
567.57761996830925
 20
544.70520498657879
 11
567.61441444449588
 21
544.6241088117855
  0
LINE
  8
_0-0_0
  6
CONTINUOUS
 62
    7
 10
567.61441444449588
 20
544.6241088117855
 11
567.64556030173696
 21
544.54302895599983
  0
LINE
  8
_0-0_0
  6
CONTINUOUS
 62
    7
 10
567.64556030173696
 20
544.54302895599983
 11
567.67152825827804
 21
544.46128682049073
  0
LINE
  8
_0-0_0
  6
CONTINUOUS
 62
    7
 10
567.67152825827804
 20
544.46128682049073
 11
567.69278903236466
 21
544.37820380652738
  0
LINE
  8
_0-0_0
  6
CONTINUOUS
 62
    7
 10
567.69278903236466
 20
544.37820380652738
 11
567.70981334224189
 21
544.29310131537864
  0
LINE
  8
_0-0_0
  6
CONTINUOUS
 62
    7
 10
567.70981334224189
 20
544.29310131537864
 11
567.72307190615572
 21
544.20530074831379
  0
LINE
  8
_0-0_0
  6
CONTINUOUS
 62
    7
 10
567.72307190615572
 20
544.20530074831379
 11
567.73303544235114
 21
544.1141235066018
  0
LINE
  8
_0-0_0
  6
CONTINUOUS
 62
    7
 10
567.73303544235114
 20
544.1141235066018
 11
567.74017466907389
 21
544.01889099151163
  0
LINE
  8
_0-0_0
  6
CONTINUOUS
 62
    7
 10
567.74017466907389
 20
544.01889099151163
 11
567.74496030456942
 21
543.91892460431268
  0
LINE
  8
_0-0_0
  6
CONTINUOUS
 62
    7
 10
567.74496030456942
 20
543.91892460431268
 11
567.74786306708302
 21
543.81354574627358
  0
LINE
  8
_0-0_0
  6
CONTINUOUS
 62
    7
 10
567.74786306708302
 20
543.81354574627358
 11
567.74935367486046
 21
543.70207581866373
  0
LINE
  8
_0-0_0
  6
CONTINUOUS
 62
    7
 10
567.74935367486046
 20
543.70207581866373
 11
567.74990284614671
 21
543.58383622275187
  0
LINE
  8
_0-0_0
  6
CONTINUOUS
 62
    7
 10
567.74990284614671
 20
543.58383622275187
 11
567.74998129918765
 21
543.45814835980741
  0
LINE
  8
_0-0_0
  6
CONTINUOUS
 62
    7
 10
567.74998129918765
 20
543.45814835980741
 11
567.74998129918765
 21
532.79852026634899
  0
LINE
  8
_0-0_0
  6
CONTINUOUS
 62
    7
 10
567.74998129918765
 20
532.79852026634899
 11
567.74998129918777
 21
523.02665842328111
  0
LINE
  8
_0-0_0
  6
CONTINUOUS
 62
    7
 10
567.74998129918777
 20
523.02665842328111
 11
567.74998129918777
 21
514.10396429797811
  0
LINE
  8
_0-0_0
  6
CONTINUOUS
 62
    7
 10
567.74998129918777
 20
514.10396429797811
 11
567.74998129918765
 21
505.99183935781457
  0
LINE
  8
_0-0_0
  6
CONTINUOUS
 62
    7
 10
567.74998129918765
 20
505.99183935781457
 11
567.74998129918777
 21
498.65168507016438
  0
LINE
  8
_0-0_0
  6
CONTINUOUS
 62
    7
 10
567.74998129918777
 20
498.65168507016438
 11
567.74998129918765
 21
492.04490290240233
  0
LINE
  8
_0-0_0
  6
CONTINUOUS
 62
    7
 10
567.74998129918765
 20
492.04490290240233
 11
567.74998129918777
 21
486.13289432190243
  0
LINE
  8
_0-0_0
  6
CONTINUOUS
 62
    7
 10
567.74998129918777
 20
486.13289432190243
 11
567.74998129918765
 21
480.87706079603902
  0
LINE
  8
_0-0_0
  6
CONTINUOUS
 62
    7
 10
567.74998129918765
 20
480.87706079603902
 11
567.74998129918765
 21
476.23880379218662
  0
LINE
  8
_0-0_0
  6
CONTINUOUS
 62
    7
 10
567.74998129918765
 20
476.23880379218662
 11
567.74998129918754
 21
472.17952477771922
  0
LINE
  8
_0-0_0
  6
CONTINUOUS
 62
    7
 10
567.74998129918754
 20
472.17952477771922
 11
567.74998129918765
 21
468.66062522001141
  0
LINE
  8
_0-0_0
  6
CONTINUOUS
 62
    7
 10
567.74998129918765
 20
468.66062522001141
 11
567.74998129918765
 21
465.64350658643752
  0
LINE
  8
_0-0_0
  6
CONTINUOUS
 62
    7
 10
567.74998129918765
 20
465.64350658643752
 11
567.74998129918765
 21
463.08957034437162
  0
LINE
  8
_0-0_0
  6
CONTINUOUS
 62
    7
 10
567.74998129918765
 20
463.08957034437162
 11
567.74998129918765
 21
460.96021796118839
  0
LINE
  8
_0-0_0
  6
CONTINUOUS
 62
    7
 10
567.74998129918765
 20
460.96021796118839
 11
567.74998129918765
 21
459.21685090426183
  0
LINE
  8
_0-0_0
  6
CONTINUOUS
 62
    7
 10
567.74998129918765
 20
459.21685090426183
 11
567.74998129918765
 21
457.8208706409664
  0
LINE
  8
_0-0_0
  6
CONTINUOUS
 62
    7
 10
567.74998129918765
 20
457.8208706409664
 11
567.74998129918765
 21
456.73367863867657
  0
LINE
  8
_0-0_0
  6
CONTINUOUS
 62
    7
 10
567.74998129918765
 20
456.73367863867657
 11
567.74998129918777
 21
455.91667636476632
  0
LINE
  8
_0-0_0
  6
CONTINUOUS
 62
    7
 10
567.74998129918777
 20
455.91667636476632
 11
567.74998129918765
 21
455.33126528661012
  0
LINE
  8
_0-0_0
  6
CONTINUOUS
 62
    7
 10
567.74998129918765
 20
455.33126528661012
 11
567.74998129918765
 21
454.93884687158231
  0
LINE
  8
_0-0_0
  6
CONTINUOUS
 62
    7
 10
567.74998129918765
 20
454.93884687158231
 11
567.74998129918765
 21
454.70082258705747
  0
LINE
  8
_0-0_0
  6
CONTINUOUS
 62
    7
 10
567.74998129918765
 20
454.70082258705747
 11
567.74998129918754
 21
454.57859390040932
  0
LINE
  8
_0-0_0
  6
CONTINUOUS
 62
    7
 10
567.74998129918754
 20
454.57859390040932
 11
567.74998129918765
 21
454.53356227901281
  0
LINE
  8
_0-0_0
  6
CONTINUOUS
 62
    7
 10
567.74998129918765
 20
454.53356227901281
 11
567.74998129918765
 21
454.52712919024179
  0
LINE
  8
_0-0_0
  6
CONTINUOUS
 62
    7
 10
567.74998129918765
 20
454.52712919024179
 11
567.74782270684807
 21
454.26799377625923
  0
LINE
  8
_0-0_0
  6
CONTINUOUS
 62
    7
 10
567.74782270684807
 20
454.26799377625923
 11
567.74133241828474
 21
454.02138864024658
  0
LINE
  8
_0-0_0
  6
CONTINUOUS
 62
    7
 10
567.74133241828474
 20
454.02138864024658
 11
567.7304886661791
 21
453.78688676817228
  0
LINE
  8
_0-0_0
  6
CONTINUOUS
 62
    7
 10
567.7304886661791
 20
453.78688676817228
 11
567.7152696832145
 21
453.56406114600543
  0
LINE
  8
_0-0_0
  6
CONTINUOUS
 62
    7
 10
567.7152696832145
 20
453.56406114600543
 11
567.69565370207226
 21
453.35248475971531
  0
LINE
  8
_0-0_0
  6
CONTINUOUS
 62
    7
 10
567.69565370207226
 20
453.35248475971531
 11
567.67161895543518
 21
453.15173059527012
  0
LINE
  8
_0-0_0
  6
CONTINUOUS
 62
    7
 10
567.67161895543518
 20
453.15173059527012
 11
567.64314367598547
 21
452.96137163863921
  0
LINE
  8
_0-0_0
  6
CONTINUOUS
 62
    7
 10
567.64314367598547
 20
452.96137163863921
 11
567.61020609640548
 21
452.78098087579139
  0
LINE
  8
_0-0_0
  6
CONTINUOUS
 62
    7
 10
567.61020609640548
 20
452.78098087579139
 11
567.57278444937742
 21
452.61013129269571
  0
LINE
  8
_0-0_0
  6
CONTINUOUS
 62
    7
 10
567.57278444937742
 20
452.61013129269571
 11
567.53085696758353
 21
452.44839587532078
  0
LINE
  8
_0-0_0
  6
CONTINUOUS
 62
    7
 10
567.53085696758353
 20
452.44839587532078
 11
567.48440188370614
 21
452.29534760963583
  0
LINE
  8
_0-0_0
  6
CONTINUOUS
 62
    7
 10
567.48440188370614
 20
452.29534760963583
 11
567.4333974304277
 21
452.15055948160955
  0
LINE
  8
_0-0_0
  6
CONTINUOUS
 62
    7
 10
567.4333974304277
 20
452.15055948160955
 11
567.37782184043022
 21
452.013604477211
  0
LINE
  8
_0-0_0
  6
CONTINUOUS
 62
    7
 10
567.37782184043022
 20
452.013604477211
 11
567.31765334639636
 21
451.88405558240902
  0
LINE
  8
_0-0_0
  6
CONTINUOUS
 62
    7
 10
567.31765334639636
 20
451.88405558240902
 11
567.25287018100801
 21
451.76148578317247
  0
LINE
  8
_0-0_0
  6
CONTINUOUS
 62
    7
 10
567.25287018100801
 20
451.76148578317247
 11
567.18345057694762
 21
451.64546806547031
  0
LINE
  8
_0-0_0
  6
CONTINUOUS
 62
    7
 10
567.18345057694762
 20
451.64546806547031
 11
567.10937276689742
 21
451.53557541527141
  0
LINE
  8
_0-0_0
  6
CONTINUOUS
 62
    7
 10
567.10937276689742
 20
451.53557541527141
 11
567.03061498353998
 21
451.43138081854482
  0
LINE
  8
_0-0_0
  6
CONTINUOUS
 62
    7
 10
567.03061498353998
 20
451.43138081854482
 11
566.94715545955728
 21
451.33245726125938
  0
LINE
  8
_0-0_0
  6
CONTINUOUS
 62
    7
 10
566.94715545955728
 20
451.33245726125938
 11
566.85897242763178
 21
451.23837772938379
  0
LINE
  8
_0-0_0
  6
CONTINUOUS
 62
    7
 10
566.85897242763178
 20
451.23837772938379
 11
566.76604412044571
 21
451.14871520888721
  0
LINE
  8
_0-0_0
  6
CONTINUOUS
 62
    7
 10
566.76604412044571
 20
451.14871520888721
 11
566.6683487706814
 21
451.06304268573854
  0
LINE
  8
_0-0_0
  6
CONTINUOUS
 62
    7
 10
566.6683487706814
 20
451.06304268573854
 11
566.56586461102108
 21
450.98093314590653
  0
LINE
  8
_0-0_0
  6
CONTINUOUS
 62
    7
 10
566.56586461102108
 20
450.98093314590653
 11
566.45856987414697
 21
450.90195957536031
  0
LINE
  8
_0-0_0
  6
CONTINUOUS
 62
    7
 10
566.45856987414697
 20
450.90195957536031
 11
564.17273214414331
 21
448.97757052730759
  0
LINE
  8
_0-0_0
  6
CONTINUOUS
 62
    7
 10
564.17273214414331
 20
448.97757052730759
 11
562.07726593299344
 21
447.21345045247847
  0
LINE
  8
_0-0_0
  6
CONTINUOUS
 62
    7
 10
562.07726593299344
 20
447.21345045247847
 11
560.16389421813824
 21
445.60263113464538
  0
LINE
  8
_0-0_0
  6
CONTINUOUS
 62
    7
 10
560.16389421813824
 20
445.60263113464538
 11
558.42433997701903
 21
444.13814435758189
  0
LINE
  8
_0-0_0
  6
CONTINUOUS
 62
    7
 10
558.42433997701903
 20
444.13814435758189
 11
556.85032618707692
 21
442.8130219050604
  0
LINE
  8
_0-0_0
  6
CONTINUOUS
 62
    7
 10
556.85032618707692
 20
442.8130219050604
 11
555.43357582575277
 21
441.62029556085383
  0
LINE
  8
_0-0_0
  6
CONTINUOUS
 62
    7
 10
555.43357582575277
 20
441.62029556085383
 11
554.16581187048848
 21
440.55299710873544
  0
LINE
  8
_0-0_0
  6
CONTINUOUS
 62
    7
 10
554.16581187048848
 20
440.55299710873544
 11
553.03875729872448
 21
439.60415833247771
  0
LINE
  8
_0-0_0
  6
CONTINUOUS
 62
    7
 10
553.03875729872448
 20
439.60415833247771
 11
552.04413508790208
 21
438.76681101585359
  0
LINE
  8
_0-0_0
  6
CONTINUOUS
 62
    7
 10
552.04413508790208
 20
438.76681101585359
 11
551.17366821546261
 21
438.03398694263637
  0
LINE
  8
_0-0_0
  6
CONTINUOUS
 62
    7
 10
551.17366821546261
 20
438.03398694263637
 11
550.41907965884707
 21
437.39871789659833
  0
LINE
  8
_0-0_0
  6
CONTINUOUS
 62
    7
 10
550.41907965884707
 20
437.39871789659833
 11
549.77209239549654
 21
436.85403566151297
  0
LINE
  8
_0-0_0
  6
CONTINUOUS
 62
    7
 10
549.77209239549654
 20
436.85403566151297
 11
549.22442940285237
 21
436.39297202115256
  0
LINE
  8
_0-0_0
  6
CONTINUOUS
 62
    7
 10
549.22442940285237
 20
436.39297202115256
 11
548.76781365835564
 21
436.00855875929051
  0
LINE
  8
_0-0_0
  6
CONTINUOUS
 62
    7
 10
548.76781365835564
 20
436.00855875929051
 11
548.39396813944722
 21
435.69382765969948
  0
LINE
  8
_0-0_0
  6
CONTINUOUS
 62
    7
 10
548.39396813944722
 20
435.69382765969948
 11
548.09461582356869
 21
435.44181050615248
  0
LINE
  8
_0-0_0
  6
CONTINUOUS
 62
    7
 10
548.09461582356869
 20
435.44181050615248
 11
547.8614796881609
 21
435.24553908242228
  0
LINE
  8
_0-0_0
  6
CONTINUOUS
 62
    7
 10
547.8614796881609
 20
435.24553908242228
 11
547.68628271066518
 21
435.0980451722819
  0
LINE
  8
_0-0_0
  6
CONTINUOUS
 62
    7
 10
547.68628271066518
 20
435.0980451722819
 11
547.56074786852264
 21
434.99236055950399
  0
LINE
  8
_0-0_0
  6
CONTINUOUS
 62
    7
 10
547.56074786852264
 20
434.99236055950399
 11
547.47659813917426
 21
434.9215170278618
  0
LINE
  8
_0-0_0
  6
CONTINUOUS
 62
    7
 10
547.47659813917426
 20
434.9215170278618
 11
547.42555650006136
 21
434.87854636112797
  0
LINE
  8
_0-0_0
  6
CONTINUOUS
 62
    7
 10
547.42555650006136
 20
434.87854636112797
 11
547.39934592862494
 21
434.85648034307542
  0
LINE
  8
_0-0_0
  6
CONTINUOUS
 62
    7
 10
547.39934592862494
 20
434.85648034307542
 11
547.38968940230632
 21
434.84835075747719
  0
LINE
  8
_0-0_0
  6
CONTINUOUS
 62
    7
 10
547.38968940230632
 20
434.84835075747719
 11
547.38830989854648
 21
434.84718938810602
  0
LINE
  8
_0-0_0
  6
CONTINUOUS
 62
    7
 10
550.19681629863464
 20
447.06999549670866
 11
550.68674601591374
 21
447.06999549670866
  0
LINE
  8
_0-0_0
  6
CONTINUOUS
 62
    7
 10
550.68674601591374
 20
447.06999549670866
 11
551.13587289614713
 21
447.06999549670866
  0
LINE
  8
_0-0_0
  6
CONTINUOUS
 62
    7
 10
551.13587289614713
 20
447.06999549670866
 11
551.54597097572821
 21
447.06999549670866
  0
LINE
  8
_0-0_0
  6
CONTINUOUS
 62
    7
 10
551.54597097572821
 20
447.06999549670866
 11
551.91881429105035
 21
447.06999549670866
  0
LINE
  8
_0-0_0
  6
CONTINUOUS
 62
    7
 10
551.91881429105035
 20
447.06999549670866
 11
552.25617687850684
 21
447.06999549670866
  0
LINE
  8
_0-0_0
  6
CONTINUOUS
 62
    7
 10
552.25617687850684
 20
447.06999549670866
 11
552.55983277449081
 21
447.06999549670866
  0
LINE
  8
_0-0_0
  6
CONTINUOUS
 62
    7
 10
552.55983277449081
 20
447.06999549670866
 11
552.83155601539556
 21
447.06999549670866
  0
LINE
  8
_0-0_0
  6
CONTINUOUS
 62
    7
 10
552.83155601539556
 20
447.06999549670866
 11
553.07312063761469
 21
447.06999549670866
  0
LINE
  8
_0-0_0
  6
CONTINUOUS
 62
    7
 10
553.07312063761469
 20
447.06999549670866
 11
553.28630067754113
 21
447.06999549670866
  0
LINE
  8
_0-0_0
  6
CONTINUOUS
 62
    7
 10
553.28630067754113
 20
447.06999549670866
 11
553.47287017156839
 21
447.06999549670866
  0
LINE
  8
_0-0_0
  6
CONTINUOUS
 62
    7
 10
553.47287017156839
 20
447.06999549670866
 11
553.6346031560895
 21
447.06999549670866
  0
LINE
  8
_0-0_0
  6
CONTINUOUS
 62
    7
 10
553.6346031560895
 20
447.06999549670866
 11
553.77327366749796
 21
447.06999549670866
  0
LINE
  8
_0-0_0
  6
CONTINUOUS
 62
    7
 10
553.77327366749796
 20
447.06999549670866
 11
553.89065574218705
 21
447.06999549670866
  0
LINE
  8
_0-0_0
  6
CONTINUOUS
 62
    7
 10
553.89065574218705
 20
447.06999549670866
 11
553.98852341654992
 21
447.06999549670866
  0
LINE
  8
_0-0_0
  6
CONTINUOUS
 62
    7
 10
553.98852341654992
 20
447.06999549670866
 11
554.06865072697997
 21
447.06999549670866
  0
LINE
  8
_0-0_0
  6
CONTINUOUS
 62
    7
 10
554.06865072697997
 20
447.06999549670866
 11
554.13281170987045
 21
447.06999549670866
  0
LINE
  8
_0-0_0
  6
CONTINUOUS
 62
    7
 10
554.13281170987045
 20
447.06999549670866
 11
554.18278040161476
 21
447.06999549670866
  0
LINE
  8
_0-0_0
  6
CONTINUOUS
 62
    7
 10
554.18278040161476
 20
447.06999549670866
 11
554.22033083860583
 21
447.06999549670866
  0
LINE
  8
_0-0_0
  6
CONTINUOUS
 62
    7
 10
554.22033083860583
 20
447.06999549670866
 11
554.24723705723738
 21
447.06999549670866
  0
LINE
  8
_0-0_0
  6
CONTINUOUS
 62
    7
 10
554.24723705723738
 20
447.06999549670866
 11
554.26527309390247
 21
447.06999549670866
  0
LINE
  8
_0-0_0
  6
CONTINUOUS
 62
    7
 10
554.26527309390247
 20
447.06999549670866
 11
554.27621298499434
 21
447.06999549670866
  0
LINE
  8
_0-0_0
  6
CONTINUOUS
 62
    7
 10
554.27621298499434
 20
447.06999549670866
 11
554.28183076690652
 21
447.06999549670866
  0
LINE
  8
_0-0_0
  6
CONTINUOUS
 62
    7
 10
554.28183076690652
 20
447.06999549670866
 11
554.28390047603193
 21
447.06999549670866
  0
LINE
  8
_0-0_0
  6
CONTINUOUS
 62
    7
 10
554.28390047603193
 20
447.06999549670866
 11
554.28419614876418
 21
447.06999549670866
  0
LINE
  8
_0-0_0
  6
CONTINUOUS
 62
    7
 10
554.28419614876418
 20
447.06999549670866
 11
554.33799906282559
 21
447.07105759211731
  0
LINE
  8
_0-0_0
  6
CONTINUOUS
 62
    7
 10
554.33799906282559
 20
447.07105759211731
 11
554.39568472218343
 21
447.07418404198177
  0
LINE
  8
_0-0_0
  6
CONTINUOUS
 62
    7
 10
554.39568472218343
 20
447.07418404198177
 11
554.4568259432275
 21
447.07928509176088
  0
LINE
  8
_0-0_0
  6
CONTINUOUS
 62
    7
 10
554.4568259432275
 20
447.07928509176088
 11
554.5209955423478
 21
447.08627098691284
  0
LINE
  8
_0-0_0
  6
CONTINUOUS
 62
    7
 10
554.5209955423478
 20
447.08627098691284
 11
554.58776633593425
 21
447.0950519728961
  0
LINE
  8
_0-0_0
  6
CONTINUOUS
 62
    7
 10
554.58776633593425
 20
447.0950519728961
 11
554.65671114037707
 21
447.10553829516914
  0
LINE
  8
_0-0_0
  6
CONTINUOUS
 62
    7
 10
554.65671114037707
 20
447.10553829516914
 11
554.72740277206606
 21
447.11764019919042
  0
LINE
  8
_0-0_0
  6
CONTINUOUS
 62
    7
 10
554.72740277206606
 20
447.11764019919042
 11
554.79941404739111
 21
447.1312679304184
  0
LINE
  8
_0-0_0
  6
CONTINUOUS
 62
    7
 10
554.79941404739111
 20
447.1312679304184
 11
554.87231778274224
 21
447.14633173431127
  0
LINE
  8
_0-0_0
  6
CONTINUOUS
 62
    7
 10
554.87231778274224
 20
447.14633173431127
 11
554.94568679450936
 21
447.16274185632778
  0
LINE
  8
_0-0_0
  6
CONTINUOUS
 62
    7
 10
554.94568679450936
 20
447.16274185632778
 11
555.01909389908258
 21
447.18040854192623
  0
LINE
  8
_0-0_0
  6
CONTINUOUS
 62
    7
 10
555.01909389908258
 20
447.18040854192623
 11
555.09211191285169
 21
447.19924203656501
  0
LINE
  8
_0-0_0
  6
CONTINUOUS
 62
    7
 10
555.09211191285169
 20
447.19924203656501
 11
555.16431365220672
 21
447.21915258570272
  0
LINE
  8
_0-0_0
  6
CONTINUOUS
 62
    7
 10
555.16431365220672
 20
447.21915258570272
 11
555.23527193353755
 21
447.24005043479741
  0
LINE
  8
_0-0_0
  6
CONTINUOUS
 62
    7
 10
555.23527193353755
 20
447.24005043479741
 11
555.3045595732342
 21
447.2618458293079
  0
LINE
  8
_0-0_0
  6
CONTINUOUS
 62
    7
 10
555.3045595732342
 20
447.2618458293079
 11
555.3717493876868
 21
447.28444901469243
  0
LINE
  8
_0-0_0
  6
CONTINUOUS
 62
    7
 10
555.3717493876868
 20
447.28444901469243
 11
555.43641419328515
 21
447.30777023640962
  0
LINE
  8
_0-0_0
  6
CONTINUOUS
 62
    7
 10
555.43641419328515
 20
447.30777023640962
 11
555.49812680641912
 21
447.33171973991767
  0
LINE
  8
_0-0_0
  6
CONTINUOUS
 62
    7
 10
555.49812680641912
 20
447.33171973991767
 11
555.55646004347886
 21
447.35620777067533
  0
LINE
  8
_0-0_0
  6
CONTINUOUS
 62
    7
 10
555.55646004347886
 20
447.35620777067533
 11
555.61098672085404
 21
447.38114457414048
  0
LINE
  8
_0-0_0
  6
CONTINUOUS
 62
    7
 10
555.61098672085404
 20
447.38114457414048
 11
555.66127965493502
 21
447.40644039577228
  0
LINE
  8
_0-0_0
  6
CONTINUOUS
 62
    7
 10
555.66127965493502
 20
447.40644039577228
 11
555.70691166211145
 21
447.43200548102863
  0
LINE
  8
_0-0_0
  6
CONTINUOUS
 62
    7
 10
555.70691166211145
 20
447.43200548102863
 11
555.74745555877337
 21
447.45775007536793
  0
LINE
  8
_0-0_0
  6
CONTINUOUS
 62
    7
 10
555.74745555877337
 20
447.45775007536793
 11
555.78248416131089
 21
447.48358442424899
  0
LINE
  8
_0-0_0
  6
CONTINUOUS
 62
    7
 10
555.78248416131089
 20
447.48358442424899
 11
555.82154493271094
 21
447.56792558836429
  0
LINE
  8
_0-0_0
  6
CONTINUOUS
 62
    7
 10
555.82154493271094
 20
447.56792558836429
 11
555.88469804344311
 21
447.66489222466032
  0
LINE
  8
_0-0_0
  6
CONTINUOUS
 62
    7
 10
555.88469804344311
 20
447.66489222466032
 11
555.96965384377552
 21
447.77304282080229
  0
LINE
  8
_0-0_0
  6
CONTINUOUS
 62
    7
 10
555.96965384377552
 20
447.77304282080229
 11
556.0741226839765
 21
447.89093586445631
  0
LINE
  8
_0-0_0
  6
CONTINUOUS
 62
    7
 10
556.0741226839765
 20
447.89093586445631
 11
556.19581491431484
 21
448.01712984328788
  0
LINE
  8
_0-0_0
  6
CONTINUOUS
 62
    7
 10
556.19581491431484
 20
448.01712984328788
 11
556.33244088505887
 21
448.15018324496288
  0
LINE
  8
_0-0_0
  6
CONTINUOUS
 62
    7
 10
556.33244088505887
 20
448.15018324496288
 11
556.48171094647716
 21
448.28865455714708
  0
LINE
  8
_0-0_0
  6
CONTINUOUS
 62
    7
 10
556.48171094647716
 20
448.28865455714708
 11
556.64133544883816
 21
448.43110226750611
  0
LINE
  8
_0-0_0
  6
CONTINUOUS
 62
    7
 10
556.64133544883816
 20
448.43110226750611
 11
556.80902474241032
 21
448.57608486370572
  0
LINE
  8
_0-0_0
  6
CONTINUOUS
 62
    7
 10
556.80902474241032
 20
448.57608486370572
 11
556.98248917746218
 21
448.72216083341175
  0
LINE
  8
_0-0_0
  6
CONTINUOUS
 62
    7
 10
556.98248917746218
 20
448.72216083341175
 11
557.15943910426199
 21
448.86788866428981
  0
LINE
  8
_0-0_0
  6
CONTINUOUS
 62
    7
 10
557.15943910426199
 20
448.86788866428981
 11
557.33758487307875
 21
449.01182684400572
  0
LINE
  8
_0-0_0
  6
CONTINUOUS
 62
    7
 10
557.33758487307875
 20
449.01182684400572
 11
557.51463683418046
 21
449.15253386022522
  0
LINE
  8
_0-0_0
  6
CONTINUOUS
 62
    7
 10
557.51463683418046
 20
449.15253386022522
 11
557.6883053378358
 21
449.28856820061412
  0
LINE
  8
_0-0_0
  6
CONTINUOUS
 62
    7
 10
557.6883053378358
 20
449.28856820061412
 11
557.85630073431332
 21
449.41848835283798
  0
LINE
  8
_0-0_0
  6
CONTINUOUS
 62
    7
 10
557.85630073431332
 20
449.41848835283798
 11
558.01633337388125
 21
449.54085280456286
  0
LINE
  8
_0-0_0
  6
CONTINUOUS
 62
    7
 10
558.01633337388125
 20
449.54085280456286
 11
558.16611360680827
 21
449.65422004345407
  0
LINE
  8
_0-0_0
  6
CONTINUOUS
 62
    7
 10
558.16611360680827
 20
449.65422004345407
 11
558.30335178336293
 21
449.75714855717786
  0
LINE
  8
_0-0_0
  6
CONTINUOUS
 62
    7
 10
558.30335178336293
 20
449.75714855717786
 11
558.42575825381346
 21
449.84819683339941
  0
LINE
  8
_0-0_0
  6
CONTINUOUS
 62
    7
 10
558.42575825381346
 20
449.84819683339941
 11
558.53104336842864
 21
449.92592335978492
  0
LINE
  8
_0-0_0
  6
CONTINUOUS
 62
    7
 10
558.53104336842864
 20
449.92592335978492
 11
558.61691747747682
 21
449.98888662399992
  0
LINE
  8
_0-0_0
  6
CONTINUOUS
 62
    7
 10
558.61691747747682
 20
449.98888662399992
 11
558.68109093122621
 21
450.03564511371019
  0
LINE
  8
_0-0_0
  6
CONTINUOUS
 62
    7
 10
558.68109093122621
 20
450.03564511371019
 11
558.72127407994583
 21
450.06475731658145
  0
LINE
  8
_0-0_0
  6
CONTINUOUS
 62
    7
 10
558.72127407994583
 20
450.06475731658145
 11
558.73517727390379
 21
450.07478172027947
  0
LINE
  8
_0-0_0
  6
CONTINUOUS
 62
    7
 10
558.73517727390379
 20
450.07478172027947
 11
558.76883226799669
 21
450.10031620739659
  0
LINE
  8
_0-0_0
  6
CONTINUOUS
 62
    7
 10
558.76883226799669
 20
450.10031620739659
 11
558.80380962664049
 21
450.12618115441683
  0
LINE
  8
_0-0_0
  6
CONTINUOUS
 62
    7
 10
558.80380962664049
 20
450.12618115441683
 11
558.83986446751078
 21
450.1526417452128
  0
LINE
  8
_0-0_0
  6
CONTINUOUS
 62
    7
 10
558.83986446751078
 20
450.1526417452128
 11
558.87675190828361
 21
450.17996316365759
  0
LINE
  8
_0-0_0
  6
CONTINUOUS
 62
    7
 10
558.87675190828361
 20
450.17996316365759
 11
558.91422706663434
 21
450.20841059362368
  0
LINE
  8
_0-0_0
  6
CONTINUOUS
 62
    7
 10
558.91422706663434
 20
450.20841059362368
 11
558.9520450602389
 21
450.23824921898427
  0
LINE
  8
_0-0_0
  6
CONTINUOUS
 62
    7
 10
558.9520450602389
 20
450.23824921898427
 11
558.98996100677346
 21
450.26974422361178
  0
LINE
  8
_0-0_0
  6
CONTINUOUS
 62
    7
 10
558.98996100677346
 20
450.26974422361178
 11
559.02773002391325
 21
450.30316079137936
  0
LINE
  8
_0-0_0
  6
CONTINUOUS
 62
    7
 10
559.02773002391325
 20
450.30316079137936
 11
559.06510722933433
 21
450.33876410615949
  0
LINE
  8
_0-0_0
  6
CONTINUOUS
 62
    7
 10
559.06510722933433
 20
450.33876410615949
 11
559.1018477407124
 21
450.37681935182519
  0
LINE
  8
_0-0_0
  6
CONTINUOUS
 62
    7
 10
559.1018477407124
 20
450.37681935182519
 11
559.13770667572317
 21
450.41759171224919
  0
LINE
  8
_0-0_0
  6
CONTINUOUS
 62
    7
 10
559.13770667572317
 20
450.41759171224919
 11
559.17243915204267
 21
450.4613463713045
  0
LINE
  8
_0-0_0
  6
CONTINUOUS
 62
    7
 10
559.17243915204267
 20
450.4613463713045
 11
559.20580028734639
 21
450.50834851286368
  0
LINE
  8
_0-0_0
  6
CONTINUOUS
 62
    7
 10
559.20580028734639
 20
450.50834851286368
 11
559.23754519931038
 21
450.55886332079967
  0
LINE
  8
_0-0_0
  6
CONTINUOUS
 62
    7
 10
559.23754519931038
 20
450.55886332079967
 11
559.2674290056101
 21
450.61315597898522
  0
LINE
  8
_0-0_0
  6
CONTINUOUS
 62
    7
 10
559.2674290056101
 20
450.61315597898522
 11
559.29520682392149
 21
450.67149167129321
  0
LINE
  8
_0-0_0
  6
CONTINUOUS
 62
    7
 10
559.29520682392149
 20
450.67149167129321
 11
559.32063377192003
 21
450.73413558159638
  0
LINE
  8
_0-0_0
  6
CONTINUOUS
 62
    7
 10
559.32063377192003
 20
450.73413558159638
 11
559.34346496728222
 21
450.80135289376761
  0
LINE
  8
_0-0_0
  6
CONTINUOUS
 62
    7
 10
559.34346496728222
 20
450.80135289376761
 11
559.36345552768307
 21
450.87340879167959
  0
LINE
  8
_0-0_0
  6
CONTINUOUS
 62
    7
 10
559.36345552768307
 20
450.87340879167959
 11
559.38036057079898
 21
450.95056845920521
  0
LINE
  8
_0-0_0
  6
CONTINUOUS
 62
    7
 10
559.38036057079898
 20
450.95056845920521
 11
559.3939352143052
 21
451.03309708021743
  0
LINE
  8
_0-0_0
  6
CONTINUOUS
 62
    7
 10
559.3939352143052
 20
451.03309708021743
 11
559.40393457587777
 21
451.1212598385888
  0
LINE
  8
_0-0_0
  6
CONTINUOUS
 62
    7
 10
559.40393457587777
 20
451.1212598385888
 11
559.41011377319251
 21
451.21532191819227
  0
LINE
  8
_0-0_0
  6
CONTINUOUS
 62
    7
 10
559.41011377319251
 20
451.21532191819227
 11
559.41222792392489
 21
451.31554850290058
  0
LINE
  8
_0-0_0
  6
CONTINUOUS
 62
    7
 10
559.41222792392489
 20
451.31554850290058
 11
559.412227923925
 21
451.34479397766711
  0
LINE
  8
_0-0_0
  6
CONTINUOUS
 62
    7
 10
559.412227923925
 20
451.34479397766711
 11
559.41222792392489
 21
451.38038210670408
  0
LINE
  8
_0-0_0
  6
CONTINUOUS
 62
    7
 10
559.41222792392489
 20
451.38038210670408
 11
559.41222792392477
 21
451.42163837103283
  0
LINE
  8
_0-0_0
  6
CONTINUOUS
 62
    7
 10
559.41222792392477
 20
451.42163837103283
 11
559.41222792392489
 21
451.4678882516742
  0
LINE
  8
_0-0_0
  6
CONTINUOUS
 62
    7
 10
559.41222792392489
 20
451.4678882516742
 11
559.41222792392489
 21
451.51845722964924
  0
LINE
  8
_0-0_0
  6
CONTINUOUS
 62
    7
 10
559.41222792392489
 20
451.51845722964924
 11
559.41222792392489
 21
451.57267078597869
  0
LINE
  8
_0-0_0
  6
CONTINUOUS
 62
    7
 10
559.41222792392489
 20
451.57267078597869
 11
559.41222792392477
 21
451.6298544016837
  0
LINE
  8
_0-0_0
  6
CONTINUOUS
 62
    7
 10
559.41222792392477
 20
451.6298544016837
 11
559.41222792392489
 21
451.68933355778518
  0
LINE
  8
_0-0_0
  6
CONTINUOUS
 62
    7
 10
559.41222792392489
 20
451.68933355778518
 11
559.412227923925
 21
451.75043373530411
  0
LINE
  8
_0-0_0
  6
CONTINUOUS
 62
    7
 10
559.412227923925
 20
451.75043373530411
 11
559.41222792392489
 21
451.81248041526135
  0
LINE
  8
_0-0_0
  6
CONTINUOUS
 62
    7
 10
559.41222792392489
 20
451.81248041526135
 11
559.41222792392489
 21
451.87479907867782
  0
LINE
  8
_0-0_0
  6
CONTINUOUS
 62
    7
 10
559.41222792392489
 20
451.87479907867782
 11
559.41222792392489
 21
451.93671520657449
  0
LINE
  8
_0-0_0
  6
CONTINUOUS
 62
    7
 10
559.41222792392489
 20
451.93671520657449
 11
559.41222792392489
 21
451.99755427997252
  0
LINE
  8
_0-0_0
  6
CONTINUOUS
 62
    7
 10
559.41222792392489
 20
451.99755427997252
 11
559.41222792392489
 21
452.05664177989252
  0
LINE
  8
_0-0_0
  6
CONTINUOUS
 62
    7
 10
559.41222792392489
 20
452.05664177989252
 11
559.41222792392489
 21
452.11330318735571
  0
LINE
  8
_0-0_0
  6
CONTINUOUS
 62
    7
 10
559.41222792392489
 20
452.11330318735571
 11
559.41222792392489
 21
452.16686398338288
  0
LINE
  8
_0-0_0
  6
CONTINUOUS
 62
    7
 10
559.41222792392489
 20
452.16686398338288
 11
559.41222792392489
 21
452.21664964899509
  0
LINE
  8
_0-0_0
  6
CONTINUOUS
 62
    7
 10
559.41222792392489
 20
452.21664964899509
 11
559.41222792392489
 21
452.26198566521327
  0
LINE
  8
_0-0_0
  6
CONTINUOUS
 62
    7
 10
559.41222792392489
 20
452.26198566521327
 11
559.41222792392489
 21
452.30219751305839
  0
LINE
  8
_0-0_0
  6
CONTINUOUS
 62
    7
 10
559.41222792392489
 20
452.30219751305839
 11
559.41222792392489
 21
452.33661067355138
  0
LINE
  8
_0-0_0
  6
CONTINUOUS
 62
    7
 10
559.41222792392489
 20
452.33661067355138
 11
559.41222792392489
 21
452.36455062771307
  0
LINE
  8
_0-0_0
  6
CONTINUOUS
 62
    7
 10
559.41222792392489
 20
452.36455062771307
 11
559.41222792392489
 21
452.38534285656453
  0
LINE
  8
_0-0_0
  6
CONTINUOUS
 62
    7
 10
559.41222792392489
 20
452.38534285656453
 11
559.41222792392489
 21
452.39831284112682
  0
LINE
  8
_0-0_0
  6
CONTINUOUS
 62
    7
 10
559.41222792392489
 20
452.39831284112682
 11
559.41222792392489
 21
452.40278606242072
  0
LINE
  8
_0-0_0
  6
CONTINUOUS
 62
    7
 10
559.41222792392489
 20
452.40278606242072
 11
559.40876964132383
 21
452.4551000409399
  0
LINE
  8
_0-0_0
  6
CONTINUOUS
 62
    7
 10
559.40876964132383
 20
452.4551000409399
 11
559.39866688499217
 21
452.50771184134697
  0
LINE
  8
_0-0_0
  6
CONTINUOUS
 62
    7
 10
559.39866688499217
 20
452.50771184134697
 11
559.38232779213695
 21
452.56039707728814
  0
LINE
  8
_0-0_0
  6
CONTINUOUS
 62
    7
 10
559.38232779213695
 20
452.56039707728814
 11
559.36016049996488
 21
452.61293136240931
  0
LINE
  8
_0-0_0
  6
CONTINUOUS
 62
    7
 10
559.36016049996488
 20
452.61293136240931
 11
559.33257314568334
 21
452.66509031035667
  0
LINE
  8
_0-0_0
  6
CONTINUOUS
 62
    7
 10
559.33257314568334
 20
452.66509031035667
 11
559.29997386649939
 21
452.71664953477637
  0
LINE
  8
_0-0_0
  6
CONTINUOUS
 62
    7
 10
559.29997386649939
 20
452.71664953477637
 11
559.26277079962006
 21
452.76738464931452
  0
LINE
  8
_0-0_0
  6
CONTINUOUS
 62
    7
 10
559.26277079962006
 20
452.76738464931452
 11
559.22137208225217
 21
452.81707126761688
  0
LINE
  8
_0-0_0
  6
CONTINUOUS
 62
    7
 10
559.22137208225217
 20
452.81707126761688
 11
559.17618585160301
 21
452.86548500332981
  0
LINE
  8
_0-0_0
  6
CONTINUOUS
 62
    7
 10
559.17618585160301
 20
452.86548500332981
 11
559.12762024487949
 21
452.91240147009933
  0
LINE
  8
_0-0_0
  6
CONTINUOUS
 62
    7
 10
559.12762024487949
 20
452.91240147009933
 11
559.07608339928879
 21
452.95759628157151
  0
LINE
  8
_0-0_0
  6
CONTINUOUS
 62
    7
 10
559.07608339928879
 20
452.95759628157151
 11
559.02198345203772
 21
453.00084505139239
  0
LINE
  8
_0-0_0
  6
CONTINUOUS
 62
    7
 10
559.02198345203772
 20
453.00084505139239
 11
558.96572854033343
 21
453.04192339320809
  0
LINE
  8
_0-0_0
  6
CONTINUOUS
 62
    7
 10
558.96572854033343
 20
453.04192339320809
 11
558.90772680138298
 21
453.08060692066488
  0
LINE
  8
_0-0_0
  6
CONTINUOUS
 62
    7
 10
558.90772680138298
 20
453.08060692066488
 11
558.84838637239363
 21
453.11667124740859
  0
LINE
  8
_0-0_0
  6
CONTINUOUS
 62
    7
 10
558.84838637239363
 20
453.11667124740859
 11
558.7881153905721
 21
453.14989198708543
  0
LINE
  8
_0-0_0
  6
CONTINUOUS
 62
    7
 10
558.7881153905721
 20
453.14989198708543
 11
558.72732199312554
 21
453.18004475334129
  0
LINE
  8
_0-0_0
  6
CONTINUOUS
 62
    7
 10
558.72732199312554
 20
453.18004475334129
 11
558.66641431726089
 21
453.2069051598225
  0
LINE
  8
_0-0_0
  6
CONTINUOUS
 62
    7
 10
558.66641431726089
 20
453.2069051598225
 11
558.60580050018552
 21
453.23024882017512
  0
LINE
  8
_0-0_0
  6
CONTINUOUS
 62
    7
 10
558.60580050018552
 20
453.23024882017512
 11
558.54588867910616
 21
453.24985134804501
  0
LINE
  8
_0-0_0
  6
CONTINUOUS
 62
    7
 10
558.54588867910616
 20
453.24985134804501
 11
558.48708699123006
 21
453.26548835707842
  0
LINE
  8
_0-0_0
  6
CONTINUOUS
 62
    7
 10
558.48708699123006
 20
453.26548835707842
 11
558.42980357376393
 21
453.27693546092132
  0
LINE
  8
_0-0_0
  6
CONTINUOUS
 62
    7
 10
558.42980357376393
 20
453.27693546092132
 11
558.37444656391517
 21
453.28396827322013
  0
LINE
  8
_0-0_0
  6
CONTINUOUS
 62
    7
 10
558.37444656391517
 20
453.28396827322013
 11
558.32142409889082
 21
453.28636240762057
  0
LINE
  8
_0-0_0
  6
CONTINUOUS
 62
    7
 10
558.32142409889082
 20
453.28636240762057
 11
558.25653436434288
 21
453.28636240762057
  0
LINE
  8
_0-0_0
  6
CONTINUOUS
 62
    7
 10
558.25653436434288
 20
453.28636240762057
 11
558.11810646782988
 21
453.28636240762052
  0
LINE
  8
_0-0_0
  6
CONTINUOUS
 62
    7
 10
558.11810646782988
 20
453.28636240762052
 11
557.91292364973276
 21
453.28636240762057
  0
LINE
  8
_0-0_0
  6
CONTINUOUS
 62
    7
 10
557.91292364973276
 20
453.28636240762057
 11
557.6477691504324
 21
453.28636240762057
  0
LINE
  8
_0-0_0
  6
CONTINUOUS
 62
    7
 10
557.6477691504324
 20
453.28636240762057
 11
557.32942621030998
 21
453.28636240762057
  0
LINE
  8
_0-0_0
  6
CONTINUOUS
 62
    7
 10
557.32942621030998
 20
453.28636240762057
 11
556.96467806974681
 21
453.28636240762052
  0
LINE
  8
_0-0_0
  6
CONTINUOUS
 62
    7
 10
556.96467806974681
 20
453.28636240762052
 11
556.56030796912364
 21
453.28636240762057
  0
LINE
  8
_0-0_0
  6
CONTINUOUS
 62
    7
 10
556.56030796912364
 20
453.28636240762057
 11
556.12309914882178
 21
453.28636240762057
  0
LINE
  8
_0-0_0
  6
CONTINUOUS
 62
    7
 10
556.12309914882178
 20
453.28636240762057
 11
555.65983484922208
 21
453.28636240762057
  0
LINE
  8
_0-0_0
  6
CONTINUOUS
 62
    7
 10
555.65983484922208
 20
453.28636240762057
 11
555.17729831070608
 21
453.28636240762057
  0
LINE
  8
_0-0_0
  6
CONTINUOUS
 62
    7
 10
555.17729831070608
 20
453.28636240762057
 11
554.68227277365429
 21
453.28636240762069
  0
LINE
  8
_0-0_0
  6
CONTINUOUS
 62
    7
 10
554.68227277365429
 20
453.28636240762069
 11
554.18154147844803
 21
453.28636240762057
  0
LINE
  8
_0-0_0
  6
CONTINUOUS
 62
    7
 10
554.18154147844803
 20
453.28636240762057
 11
553.68188766546837
 21
453.28636240762057
  0
LINE
  8
_0-0_0
  6
CONTINUOUS
 62
    7
 10
553.68188766546837
 20
453.28636240762057
 11
553.19009457509628
 21
453.28636240762057
  0
LINE
  8
_0-0_0
  6
CONTINUOUS
 62
    7
 10
553.19009457509628
 20
453.28636240762057
 11
552.71294544771308
 21
453.28636240762057
  0
LINE
  8
_0-0_0
  6
CONTINUOUS
 62
    7
 10
552.71294544771308
 20
453.28636240762057
 11
552.25722352369962
 21
453.28636240762057
  0
LINE
  8
_0-0_0
  6
CONTINUOUS
 62
    7
 10
552.25722352369962
 20
453.28636240762057
 11
551.8297120434371
 21
453.28636240762057
  0
LINE
  8
_0-0_0
  6
CONTINUOUS
 62
    7
 10
551.8297120434371
 20
453.28636240762057
 11
551.43719424730659
 21
453.28636240762057
  0
LINE
  8
_0-0_0
  6
CONTINUOUS
 62
    7
 10
551.43719424730659
 20
453.28636240762057
 11
551.08645337568896
 21
453.28636240762057
  0
LINE
  8
_0-0_0
  6
CONTINUOUS
 62
    7
 10
551.08645337568896
 20
453.28636240762057
 11
550.78427266896563
 21
453.28636240762057
  0
LINE
  8
_0-0_0
  6
CONTINUOUS
 62
    7
 10
550.78427266896563
 20
453.28636240762057
 11
550.53743536751745
 21
453.28636240762057
  0
LINE
  8
_0-0_0
  6
CONTINUOUS
 62
    7
 10
550.53743536751745
 20
453.28636240762057
 11
550.3527247117255
 21
453.28636240762057
  0
LINE
  8
_0-0_0
  6
CONTINUOUS
 62
    7
 10
550.3527247117255
 20
453.28636240762057
 11
550.23692394197087
 21
453.28636240762052
  0
LINE
  8
_0-0_0
  6
CONTINUOUS
 62
    7
 10
550.23692394197087
 20
453.28636240762052
 11
550.19681629863464
 21
453.28636240762057
  0
LINE
  8
_0-0_0
  6
CONTINUOUS
 62
    7
 10
550.19681629863464
 20
453.28636240762057
 11
550.19681629863464
 21
453.25488485526489
  0
LINE
  8
_0-0_0
  6
CONTINUOUS
 62
    7
 10
550.19681629863464
 20
453.25488485526489
 11
550.19681629863464
 21
453.16404963275312
  0
LINE
  8
_0-0_0
  6
CONTINUOUS
 62
    7
 10
550.19681629863464
 20
453.16404963275312
 11
550.19681629863464
 21
453.01925289191729
  0
LINE
  8
_0-0_0
  6
CONTINUOUS
 62
    7
 10
550.19681629863464
 20
453.01925289191729
 11
550.19681629863453
 21
452.82589078459
  0
LINE
  8
_0-0_0
  6
CONTINUOUS
 62
    7
 10
550.19681629863453
 20
452.82589078459
 11
550.19681629863453
 21
452.58935946260362
  0
LINE
  8
_0-0_0
  6
CONTINUOUS
 62
    7
 10
550.19681629863453
 20
452.58935946260362
 11
550.19681629863464
 21
452.31505507779048
  0
LINE
  8
_0-0_0
  6
CONTINUOUS
 62
    7
 10
550.19681629863464
 20
452.31505507779048
 11
550.19681629863464
 21
452.00837378198321
  0
LINE
  8
_0-0_0
  6
CONTINUOUS
 62
    7
 10
550.19681629863464
 20
452.00837378198321
 11
550.19681629863464
 21
451.67471172701369
  0
LINE
  8
_0-0_0
  6
CONTINUOUS
 62
    7
 10
550.19681629863464
 20
451.67471172701369
 11
550.19681629863464
 21
451.31946506471479
  0
LINE
  8
_0-0_0
  6
CONTINUOUS
 62
    7
 10
550.19681629863464
 20
451.31946506471479
 11
550.19681629863464
 21
450.94802994691872
  0
LINE
  8
_0-0_0
  6
CONTINUOUS
 62
    7
 10
550.19681629863464
 20
450.94802994691872
 11
550.19681629863464
 21
450.56580252545791
  0
LINE
  8
_0-0_0
  6
CONTINUOUS
 62
    7
 10
550.19681629863464
 20
450.56580252545791
 11
550.19681629863476
 21
450.17817895216461
  0
LINE
  8
_0-0_0
  6
CONTINUOUS
 62
    7
 10
550.19681629863476
 20
450.17817895216461
 11
550.19681629863464
 21
449.79055537887132
  0
LINE
  8
_0-0_0
  6
CONTINUOUS
 62
    7
 10
550.19681629863464
 20
449.79055537887132
 11
550.19681629863453
 21
449.40832795741039
  0
LINE
  8
_0-0_0
  6
CONTINUOUS
 62
    7
 10
550.19681629863453
 20
449.40832795741039
 11
550.19681629863464
 21
449.03689283961432
  0
LINE
  8
_0-0_0
  6
CONTINUOUS
 62
    7
 10
550.19681629863464
 20
449.03689283961432
 11
550.19681629863464
 21
448.68164617731537
  0
LINE
  8
_0-0_0
  6
CONTINUOUS
 62
    7
 10
550.19681629863464
 20
448.68164617731537
 11
550.19681629863464
 21
448.34798412234602
  0
LINE
  8
_0-0_0
  6
CONTINUOUS
 62
    7
 10
550.19681629863464
 20
448.34798412234602
 11
550.19681629863464
 21
448.04130282653858
  0
LINE
  8
_0-0_0
  6
CONTINUOUS
 62
    7
 10
550.19681629863464
 20
448.04130282653858
 11
550.19681629863464
 21
447.76699844172549
  0
LINE
  8
_0-0_0
  6
CONTINUOUS
 62
    7
 10
550.19681629863464
 20
447.76699844172549
 11
550.19681629863464
 21
447.53046711973911
  0
LINE
  8
_0-0_0
  6
CONTINUOUS
 62
    7
 10
550.19681629863464
 20
447.53046711973911
 11
550.19681629863464
 21
447.33710501241194
  0
LINE
  8
_0-0_0
  6
CONTINUOUS
 62
    7
 10
550.19681629863464
 20
447.33710501241194
 11
550.19681629863464
 21
447.19230827157611
  0
LINE
  8
_0-0_0
  6
CONTINUOUS
 62
    7
 10
550.19681629863464
 20
447.19230827157611
 11
550.19681629863464
 21
447.10147304906423
  0
LINE
  8
_0-0_0
  6
CONTINUOUS
 62
    7
 10
550.19681629863464
 20
447.10147304906423
 11
550.19681629863464
 21
447.06999549670866
  0
LINE
  8
_0-0_0
  6
CONTINUOUS
 62
    7
 10
551.48509322992584
 20
451.10562078967951
 11
551.48509322992584
 21
450.48837064781992
  0
LINE
  8
_0-0_0
  6
CONTINUOUS
 62
    7
 10
551.48509322992584
 20
451.10562078967951
 11
551.48509322992584
 21
450.48837064781992
  0
LINE
  8
_0-0_0
  6
CONTINUOUS
 62
    7
 10
551.48509322992584
 20
450.48837064781992
 11
551.48509322992584
 21
449.60792755207092
  0
LINE
  8
_0-0_0
  6
CONTINUOUS
 62
    7
 10
551.48509322992584
 20
450.48837064781992
 11
551.48509322992584
 21
449.60792755207092
  0
LINE
  8
_0-0_0
  6
CONTINUOUS
 62
    7
 10
550.39742389864205
 20
451.78240267110908
 11
550.39742389864205
 21
448.7744831980873
  0
LINE
  8
_0-0_0
  6
CONTINUOUS
 62
    7
 10
550.39742389864205
 20
451.78240267110908
 11
550.39742389864205
 21
448.7744831980873
  0
LINE
  8
_0-0_0
  6
CONTINUOUS
 62
    7
 10
551.2750821486693
 20
448.7744831980873
 11
550.39742389864205
 21
448.7744831980873
  0
LINE
  8
_0-0_0
  6
CONTINUOUS
 62
    7
 10
551.2750821486693
 20
448.98441091130849
 11
551.2750821486693
 21
448.7744831980873
  0
LINE
  8
_0-0_0
  6
CONTINUOUS
 62
    7
 10
551.48509322992584
 20
449.60792755207092
 11
551.2750821486693
 21
448.98441091130849
  0
LINE
  8
_0-0_0
  6
CONTINUOUS
 62
    7
 10
551.2750821486693
 20
451.3155485029007
 11
551.48509322992584
 21
451.10562078967951
  0
LINE
  8
_0-0_0
  6
CONTINUOUS
 62
    7
 10
551.2750821486693
 20
451.78240267110908
 11
551.2750821486693
 21
451.3155485029007
  0
LINE
  8
_0-0_0
  6
CONTINUOUS
 62
    7
 10
550.39742389864205
 20
451.78240267110908
 11
551.2750821486693
 21
451.78240267110908
  0
LINE
  8
_0-0_0
  6
CONTINUOUS
 62
    7
 10
550.39742389864205
 20
448.7744831980873
 11
550.19681629863464
 21
448.57082198376821
  0
LINE
  8
_0-0_0
  6
CONTINUOUS
 62
    7
 10
550.19681629863464
 20
452.19599159865049
 11
550.39742389864205
 21
451.78240267110908
  0
LINE
  8
_0-0_0
  6
CONTINUOUS
 62
    7
 10
551.2750821486693
 20
448.7744831980873
 11
550.39742389864205
 21
448.7744831980873
  0
LINE
  8
_0-0_0
  6
CONTINUOUS
 62
    7
 10
551.2750821486693
 20
448.98441091130849
 11
551.2750821486693
 21
448.7744831980873
  0
LINE
  8
_0-0_0
  6
CONTINUOUS
 62
    7
 10
551.48509322992584
 20
449.60792755207092
 11
551.2750821486693
 21
448.98441091130849
  0
LINE
  8
_0-0_0
  6
CONTINUOUS
 62
    7
 10
551.2750821486693
 20
451.3155485029007
 11
551.48509322992584
 21
451.10562078967951
  0
LINE
  8
_0-0_0
  6
CONTINUOUS
 62
    7
 10
551.2750821486693
 20
451.78240267110908
 11
551.2750821486693
 21
451.3155485029007
  0
LINE
  8
_0-0_0
  6
CONTINUOUS
 62
    7
 10
550.39742389864205
 20
451.78240267110908
 11
551.2750821486693
 21
451.78240267110908
  0
LINE
  8
_0-0_0
  6
CONTINUOUS
 62
    7
 10
550.39742389864205
 20
448.7744831980873
 11
550.19681629863464
 21
448.57082198376821
  0
LINE
  8
_0-0_0
  6
CONTINUOUS
 62
    7
 10
550.19681629863464
 20
452.19599159865049
 11
550.39742389864205
 21
451.78240267110908
  0
LINE
  8
_0-0_0
  6
CONTINUOUS
 62
    7
 10
550.19681629863464
 20
549.46458755749813
 11
550.19681629863476
 21
549.53932475901331
  0
LINE
  8
_0-0_0
  6
CONTINUOUS
 62
    7
 10
550.19681629863476
 20
549.53932475901331
 11
550.19681629863464
 21
549.60783761906214
  0
LINE
  8
_0-0_0
  6
CONTINUOUS
 62
    7
 10
550.19681629863464
 20
549.60783761906214
 11
550.19681629863464
 21
549.67039676118736
  0
LINE
  8
_0-0_0
  6
CONTINUOUS
 62
    7
 10
550.19681629863464
 20
549.67039676118736
 11
550.19681629863464
 21
549.72727280893048
  0
LINE
  8
_0-0_0
  6
CONTINUOUS
 62
    7
 10
550.19681629863464
 20
549.72727280893048
 11
550.19681629863464
 21
549.77873638583378
  0
LINE
  8
_0-0_0
  6
CONTINUOUS
 62
    7
 10
550.19681629863464
 20
549.77873638583378
 11
550.19681629863464
 21
549.82505811543899
  0
LINE
  8
_0-0_0
  6
CONTINUOUS
 62
    7
 10
550.19681629863464
 20
549.82505811543899
 11
550.19681629863476
 21
549.86650862128829
  0
LINE
  8
_0-0_0
  6
CONTINUOUS
 62
    7
 10
550.19681629863476
 20
549.86650862128829
 11
550.19681629863476
 21
549.90335852692374
  0
LINE
  8
_0-0_0
  6
CONTINUOUS
 62
    7
 10
550.19681629863476
 20
549.90335852692374
 11
550.19681629863464
 21
549.93587845588695
  0
LINE
  8
_0-0_0
  6
CONTINUOUS
 62
    7
 10
550.19681629863464
 20
549.93587845588695
 11
550.19681629863464
 21
549.96433903172044
  0
LINE
  8
_0-0_0
  6
CONTINUOUS
 62
    7
 10
550.19681629863464
 20
549.96433903172044
 11
550.19681629863464
 21
549.98901087796594
  0
LINE
  8
_0-0_0
  6
CONTINUOUS
 62
    7
 10
550.19681629863464
 20
549.98901087796594
 11
550.19681629863464
 21
550.01016461816539
  0
LINE
  8
_0-0_0
  6
CONTINUOUS
 62
    7
 10
550.19681629863464
 20
550.01016461816539
 11
550.19681629863464
 21
550.02807087586086
  0
LINE
  8
_0-0_0
  6
CONTINUOUS
 62
    7
 10
550.19681629863464
 20
550.02807087586086
 11
550.19681629863464
 21
550.04300027459442
  0
LINE
  8
_0-0_0
  6
CONTINUOUS
 62
    7
 10
550.19681629863464
 20
550.04300027459442
 11
550.19681629863464
 21
550.05522343790801
  0
LINE
  8
_0-0_0
  6
CONTINUOUS
 62
    7
 10
550.19681629863464
 20
550.05522343790801
 11
550.19681629863464
 21
550.06501098934359
  0
LINE
  8
_0-0_0
  6
CONTINUOUS
 62
    7
 10
550.19681629863464
 20
550.06501098934359
 11
550.19681629863476
 21
550.07263355244322
  0
LINE
  8
_0-0_0
  6
CONTINUOUS
 62
    7
 10
550.19681629863476
 20
550.07263355244322
 11
550.19681629863464
 21
550.07836175074874
  0
LINE
  8
_0-0_0
  6
CONTINUOUS
 62
    7
 10
550.19681629863464
 20
550.07836175074874
 11
550.19681629863464
 21
550.08246620780233
  0
LINE
  8
_0-0_0
  6
CONTINUOUS
 62
    7
 10
550.19681629863464
 20
550.08246620780233
 11
550.19681629863464
 21
550.08521754714604
  0
LINE
  8
_0-0_0
  6
CONTINUOUS
 62
    7
 10
550.19681629863464
 20
550.08521754714604
 11
550.19681629863464
 21
550.08688639232173
  0
LINE
  8
_0-0_0
  6
CONTINUOUS
 62
    7
 10
550.19681629863464
 20
550.08688639232173
 11
550.19681629863464
 21
550.08774336687145
  0
LINE
  8
_0-0_0
  6
CONTINUOUS
 62
    7
 10
550.19681629863464
 20
550.08774336687145
 11
550.19681629863464
 21
550.08805909433704
  0
LINE
  8
_0-0_0
  6
CONTINUOUS
 62
    7
 10
550.19681629863464
 20
550.08805909433704
 11
550.19681629863464
 21
550.08810419826068
  0
LINE
  8
_0-0_0
  6
CONTINUOUS
 62
    7
 10
550.19681629863464
 20
550.08810419826068
 11
550.68674601591374
 21
550.08810419826068
  0
LINE
  8
_0-0_0
  6
CONTINUOUS
 62
    7
 10
550.68674601591374
 20
550.08810419826068
 11
551.13587289614713
 21
550.08810419826068
  0
LINE
  8
_0-0_0
  6
CONTINUOUS
 62
    7
 10
551.13587289614713
 20
550.08810419826068
 11
551.5459709757281
 21
550.08810419826079
  0
LINE
  8
_0-0_0
  6
CONTINUOUS
 62
    7
 10
551.5459709757281
 20
550.08810419826079
 11
551.91881429105035
 21
550.08810419826057
  0
LINE
  8
_0-0_0
  6
CONTINUOUS
 62
    7
 10
551.91881429105035
 20
550.08810419826057
 11
552.25617687850672
 21
550.08810419826068
  0
LINE
  8
_0-0_0
  6
CONTINUOUS
 62
    7
 10
552.25617687850672
 20
550.08810419826068
 11
552.5598327744907
 21
550.08810419826068
  0
LINE
  8
_0-0_0
  6
CONTINUOUS
 62
    7
 10
552.5598327744907
 20
550.08810419826068
 11
552.83155601539556
 21
550.08810419826057
  0
LINE
  8
_0-0_0
  6
CONTINUOUS
 62
    7
 10
552.83155601539556
 20
550.08810419826057
 11
553.07312063761469
 21
550.08810419826068
  0
LINE
  8
_0-0_0
  6
CONTINUOUS
 62
    7
 10
553.07312063761469
 20
550.08810419826068
 11
553.28630067754113
 21
550.08810419826068
  0
LINE
  8
_0-0_0
  6
CONTINUOUS
 62
    7
 10
553.28630067754113
 20
550.08810419826068
 11
553.47287017156839
 21
550.08810419826068
  0
LINE
  8
_0-0_0
  6
CONTINUOUS
 62
    7
 10
553.47287017156839
 20
550.08810419826068
 11
553.6346031560895
 21
550.08810419826068
  0
LINE
  8
_0-0_0
  6
CONTINUOUS
 62
    7
 10
553.6346031560895
 20
550.08810419826068
 11
553.77327366749807
 21
550.08810419826068
  0
LINE
  8
_0-0_0
  6
CONTINUOUS
 62
    7
 10
553.77327366749807
 20
550.08810419826068
 11
553.89065574218705
 21
550.08810419826068
  0
LINE
  8
_0-0_0
  6
CONTINUOUS
 62
    7
 10
553.89065574218705
 20
550.08810419826068
 11
553.98852341654992
 21
550.08810419826068
  0
LINE
  8
_0-0_0
  6
CONTINUOUS
 62
    7
 10
553.98852341654992
 20
550.08810419826068
 11
554.06865072697997
 21
550.08810419826068
  0
LINE
  8
_0-0_0
  6
CONTINUOUS
 62
    7
 10
554.06865072697997
 20
550.08810419826068
 11
554.13281170987045
 21
550.08810419826068
  0
LINE
  8
_0-0_0
  6
CONTINUOUS
 62
    7
 10
554.13281170987045
 20
550.08810419826068
 11
554.18278040161465
 21
550.08810419826068
  0
LINE
  8
_0-0_0
  6
CONTINUOUS
 62
    7
 10
554.18278040161465
 20
550.08810419826068
 11
554.22033083860583
 21
550.08810419826068
  0
LINE
  8
_0-0_0
  6
CONTINUOUS
 62
    7
 10
554.22033083860583
 20
550.08810419826068
 11
554.2472370572375
 21
550.08810419826068
  0
LINE
  8
_0-0_0
  6
CONTINUOUS
 62
    7
 10
554.2472370572375
 20
550.08810419826068
 11
554.26527309390235
 21
550.08810419826068
  0
LINE
  8
_0-0_0
  6
CONTINUOUS
 62
    7
 10
554.26527309390235
 20
550.08810419826068
 11
554.27621298499446
 21
550.08810419826068
  0
LINE
  8
_0-0_0
  6
CONTINUOUS
 62
    7
 10
554.27621298499446
 20
550.08810419826068
 11
554.28183076690641
 21
550.08810419826068
  0
LINE
  8
_0-0_0
  6
CONTINUOUS
 62
    7
 10
554.28183076690641
 20
550.08810419826068
 11
554.28390047603193
 21
550.08810419826068
  0
LINE
  8
_0-0_0
  6
CONTINUOUS
 62
    7
 10
554.28390047603193
 20
550.08810419826068
 11
554.28419614876418
 21
550.08810419826068
  0
LINE
  8
_0-0_0
  6
CONTINUOUS
 62
    7
 10
554.28419614876418
 20
550.08810419826068
 11
554.33799906282547
 21
550.08492856472037
  0
LINE
  8
_0-0_0
  6
CONTINUOUS
 62
    7
 10
554.33799906282547
 20
550.08492856472037
 11
554.39568472218343
 21
550.07568905995549
  0
LINE
  8
_0-0_0
  6
CONTINUOUS
 62
    7
 10
554.39568472218343
 20
550.07568905995549
 11
554.45682594322739
 21
550.0608167777483
  0
LINE
  8
_0-0_0
  6
CONTINUOUS
 62
    7
 10
554.45682594322739
 20
550.0608167777483
 11
554.52099554234769
 21
550.04074281188218
  0
LINE
  8
_0-0_0
  6
CONTINUOUS
 62
    7
 10
554.52099554234769
 20
550.04074281188218
 11
554.58776633593425
 21
550.01589825614008
  0
LINE
  8
_0-0_0
  6
CONTINUOUS
 62
    7
 10
554.58776633593425
 20
550.01589825614008
 11
554.65671114037718
 21
549.98671420430503
  0
LINE
  8
_0-0_0
  6
CONTINUOUS
 62
    7
 10
554.65671114037718
 20
549.98671420430503
 11
554.72740277206606
 21
549.95362175015998
  0
LINE
  8
_0-0_0
  6
CONTINUOUS
 62
    7
 10
554.72740277206606
 20
549.95362175015998
 11
554.79941404739111
 21
549.91705198748764
  0
LINE
  8
_0-0_0
  6
CONTINUOUS
 62
    7
 10
554.79941404739111
 20
549.91705198748764
 11
554.87231778274224
 21
549.87743601007128
  0
LINE
  8
_0-0_0
  6
CONTINUOUS
 62
    7
 10
554.87231778274224
 20
549.87743601007128
 11
554.94568679450947
 21
549.83520491169384
  0
LINE
  8
_0-0_0
  6
CONTINUOUS
 62
    7
 10
554.94568679450947
 20
549.83520491169384
 11
555.01909389908258
 21
549.79078978613825
  0
LINE
  8
_0-0_0
  6
CONTINUOUS
 62
    7
 10
555.01909389908258
 20
549.79078978613825
 11
555.09211191285158
 21
549.74462172718745
  0
LINE
  8
_0-0_0
  6
CONTINUOUS
 62
    7
 10
555.09211191285158
 20
549.74462172718745
 11
555.1643136522066
 21
549.69713182862461
  0
LINE
  8
_0-0_0
  6
CONTINUOUS
 62
    7
 10
555.1643136522066
 20
549.69713182862461
 11
555.23527193353755
 21
549.64875118423254
  0
LINE
  8
_0-0_0
  6
CONTINUOUS
 62
    7
 10
555.23527193353755
 20
549.64875118423254
 11
555.3045595732342
 21
549.59991088779429
  0
LINE
  8
_0-0_0
  6
CONTINUOUS
 62
    7
 10
555.3045595732342
 20
549.59991088779429
 11
555.3717493876868
 21
549.55104203309281
  0
LINE
  8
_0-0_0
  6
CONTINUOUS
 62
    7
 10
555.3717493876868
 20
549.55104203309281
 11
555.43641419328503
 21
549.50257571391103
  0
LINE
  8
_0-0_0
  6
CONTINUOUS
 62
    7
 10
555.43641419328503
 20
549.50257571391103
 11
555.49812680641912
 21
549.4549430240321
  0
LINE
  8
_0-0_0
  6
CONTINUOUS
 62
    7
 10
555.49812680641912
 20
549.4549430240321
 11
555.55646004347864
 21
549.40857505723886
  0
LINE
  8
_0-0_0
  6
CONTINUOUS
 62
    7
 10
555.55646004347864
 20
549.40857505723886
 11
555.61098672085404
 21
549.36390290731424
  0
LINE
  8
_0-0_0
  6
CONTINUOUS
 62
    7
 10
555.61098672085404
 20
549.36390290731424
 11
555.66127965493502
 21
549.32135766804151
  0
LINE
  8
_0-0_0
  6
CONTINUOUS
 62
    7
 10
555.66127965493502
 20
549.32135766804151
 11
555.70691166211145
 21
549.28137043320339
  0
LINE
  8
_0-0_0
  6
CONTINUOUS
 62
    7
 10
555.70691166211145
 20
549.28137043320339
 11
555.74745555877348
 21
549.24437229658281
  0
LINE
  8
_0-0_0
  6
CONTINUOUS
 62
    7
 10
555.74745555877348
 20
549.24437229658281
 11
555.78248416131089
 21
549.21079435196293
  0
LINE
  8
_0-0_0
  6
CONTINUOUS
 62
    7
 10
555.78248416131089
 20
549.21079435196293
 11
555.82154493271094
 21
549.17382749343994
  0
LINE
  8
_0-0_0
  6
CONTINUOUS
 62
    7
 10
555.82154493271094
 20
549.17382749343994
 11
555.88469804344311
 21
549.11669714116238
  0
LINE
  8
_0-0_0
  6
CONTINUOUS
 62
    7
 10
555.88469804344311
 20
549.11669714116238
 11
555.96965384377552
 21
549.04133573760839
  0
LINE
  8
_0-0_0
  6
CONTINUOUS
 62
    7
 10
555.96965384377552
 20
549.04133573760839
 11
556.0741226839765
 21
548.94967572525604
  0
LINE
  8
_0-0_0
  6
CONTINUOUS
 62
    7
 10
556.0741226839765
 20
548.94967572525604
 11
556.19581491431484
 21
548.84364954658395
  0
LINE
  8
_0-0_0
  6
CONTINUOUS
 62
    7
 10
556.19581491431484
 20
548.84364954658395
 11
556.33244088505887
 21
548.72518964407016
  0
LINE
  8
_0-0_0
  6
CONTINUOUS
 62
    7
 10
556.33244088505887
 20
548.72518964407016
 11
556.48171094647716
 21
548.59622846019317
  0
LINE
  8
_0-0_0
  6
CONTINUOUS
 62
    7
 10
556.48171094647716
 20
548.59622846019317
 11
556.64133544883816
 21
548.45869843743117
  0
LINE
  8
_0-0_0
  6
CONTINUOUS
 62
    7
 10
556.64133544883816
 20
548.45869843743117
 11
556.80902474241032
 21
548.31453201826218
  0
LINE
  8
_0-0_0
  6
CONTINUOUS
 62
    7
 10
556.80902474241032
 20
548.31453201826218
 11
556.98248917746218
 21
548.16566164516485
  0
LINE
  8
_0-0_0
  6
CONTINUOUS
 62
    7
 10
556.98248917746218
 20
548.16566164516485
 11
557.15943910426199
 21
548.01401976061732
  0
LINE
  8
_0-0_0
  6
CONTINUOUS
 62
    7
 10
557.15943910426199
 20
548.01401976061732
 11
557.33758487307875
 21
547.86153880709787
  0
LINE
  8
_0-0_0
  6
CONTINUOUS
 62
    7
 10
557.33758487307875
 20
547.86153880709787
 11
557.51463683418046
 21
547.71015122708479
  0
LINE
  8
_0-0_0
  6
CONTINUOUS
 62
    7
 10
557.51463683418046
 20
547.71015122708479
 11
557.6883053378358
 21
547.56178946305636
  0
LINE
  8
_0-0_0
  6
CONTINUOUS
 62
    7
 10
557.6883053378358
 20
547.56178946305636
 11
557.85630073431332
 21
547.41838595749095
  0
LINE
  8
_0-0_0
  6
CONTINUOUS
 62
    7
 10
557.85630073431332
 20
547.41838595749095
 11
558.01633337388125
 21
547.28187315286652
  0
LINE
  8
_0-0_0
  6
CONTINUOUS
 62
    7
 10
558.01633337388125
 20
547.28187315286652
 11
558.16611360680827
 21
547.1541834916618
  0
LINE
  8
_0-0_0
  6
CONTINUOUS
 62
    7
 10
558.16611360680827
 20
547.1541834916618
 11
558.30335178336293
 21
547.03724941635471
  0
LINE
  8
_0-0_0
  6
CONTINUOUS
 62
    7
 10
558.30335178336293
 20
547.03724941635471
 11
558.42575825381346
 21
546.93300336942377
  0
LINE
  8
_0-0_0
  6
CONTINUOUS
 62
    7
 10
558.42575825381346
 20
546.93300336942377
 11
558.53104336842864
 21
546.84337779334714
  0
LINE
  8
_0-0_0
  6
CONTINUOUS
 62
    7
 10
558.53104336842864
 20
546.84337779334714
 11
558.61691747747682
 21
546.77030513060322
  0
LINE
  8
_0-0_0
  6
CONTINUOUS
 62
    7
 10
558.61691747747682
 20
546.77030513060322
 11
558.68109093122621
 21
546.71571782367005
  0
LINE
  8
_0-0_0
  6
CONTINUOUS
 62
    7
 10
558.68109093122621
 20
546.71571782367005
 11
558.72127407994583
 21
546.68154831502602
  0
LINE
  8
_0-0_0
  6
CONTINUOUS
 62
    7
 10
558.72127407994583
 20
546.68154831502602
 11
558.73517727390379
 21
546.66972904714953
  0
LINE
  8
_0-0_0
  6
CONTINUOUS
 62
    7
 10
558.73517727390379
 20
546.66972904714953
 11
558.7688322679968
 21
546.66630318882699
  0
LINE
  8
_0-0_0
  6
CONTINUOUS
 62
    7
 10
558.7688322679968
 20
546.66630318882699
 11
558.80380962664037
 21
546.65635652706749
  0
LINE
  8
_0-0_0
  6
CONTINUOUS
 62
    7
 10
558.80380962664037
 20
546.65635652706749
 11
558.83986446751078
 21
546.64038543168499
  0
LINE
  8
_0-0_0
  6
CONTINUOUS
 62
    7
 10
558.83986446751078
 20
546.64038543168499
 11
558.87675190828327
 21
546.61888627249209
  0
LINE
  8
_0-0_0
  6
CONTINUOUS
 62
    7
 10
558.87675190828327
 20
546.61888627249209
 11
558.91422706663423
 21
546.59235541930241
  0
LINE
  8
_0-0_0
  6
CONTINUOUS
 62
    7
 10
558.91422706663423
 20
546.59235541930241
 11
558.95204506023902
 21
546.56128924192899
  0
LINE
  8
_0-0_0
  6
CONTINUOUS
 62
    7
 10
558.95204506023902
 20
546.56128924192899
 11
558.98996100677346
 21
546.526184110185
  0
LINE
  8
_0-0_0
  6
CONTINUOUS
 62
    7
 10
558.98996100677346
 20
546.526184110185
 11
559.02773002391325
 21
546.48753639388372
  0
LINE
  8
_0-0_0
  6
CONTINUOUS
 62
    7
 10
559.02773002391325
 20
546.48753639388372
 11
559.06510722933433
 21
546.4458424628383
  0
LINE
  8
_0-0_0
  6
CONTINUOUS
 62
    7
 10
559.06510722933433
 20
546.4458424628383
 11
559.1018477407124
 21
546.40159868686214
  0
LINE
  8
_0-0_0
  6
CONTINUOUS
 62
    7
 10
559.1018477407124
 20
546.40159868686214
 11
559.13770667572317
 21
546.3553014357683
  0
LINE
  8
_0-0_0
  6
CONTINUOUS
 62
    7
 10
559.13770667572317
 20
546.3553014357683
 11
559.17243915204267
 21
546.30744707936992
  0
LINE
  8
_0-0_0
  6
CONTINUOUS
 62
    7
 10
559.17243915204267
 20
546.30744707936992
 11
559.20580028734639
 21
546.2585319874803
  0
LINE
  8
_0-0_0
  6
CONTINUOUS
 62
    7
 10
559.20580028734639
 20
546.2585319874803
 11
559.23754519931026
 21
546.2090525299127
  0
LINE
  8
_0-0_0
  6
CONTINUOUS
 62
    7
 10
559.23754519931026
 20
546.2090525299127
 11
559.26742900560998
 21
546.15950507648017
  0
LINE
  8
_0-0_0
  6
CONTINUOUS
 62
    7
 10
559.26742900560998
 20
546.15950507648017
 11
559.29520682392138
 21
546.11038599699623
  0
LINE
  8
_0-0_0
  6
CONTINUOUS
 62
    7
 10
559.29520682392138
 20
546.11038599699623
 11
559.32063377192026
 21
546.0621916612738
  0
LINE
  8
_0-0_0
  6
CONTINUOUS
 62
    7
 10
559.32063377192026
 20
546.0621916612738
 11
559.34346496728222
 21
546.01541843912617
  0
LINE
  8
_0-0_0
  6
CONTINUOUS
 62
    7
 10
559.34346496728222
 20
546.01541843912617
 11
559.3634555276833
 21
545.9705627003666
  0
LINE
  8
_0-0_0
  6
CONTINUOUS
 62
    7
 10
559.3634555276833
 20
545.9705627003666
 11
559.38036057079898
 21
545.92812081480827
  0
LINE
  8
_0-0_0
  6
CONTINUOUS
 62
    7
 10
559.38036057079898
 20
545.92812081480827
 11
559.3939352143052
 21
545.88858915226433
  0
LINE
  8
_0-0_0
  6
CONTINUOUS
 62
    7
 10
559.3939352143052
 20
545.88858915226433
 11
559.40393457587777
 21
545.85246408254807
  0
LINE
  8
_0-0_0
  6
CONTINUOUS
 62
    7
 10
559.40393457587777
 20
545.85246408254807
 11
559.41011377319239
 21
545.82024197547275
  0
LINE
  8
_0-0_0
  6
CONTINUOUS
 62
    7
 10
559.41011377319239
 20
545.82024197547275
 11
559.41222792392489
 21
545.79241920085155
  0
LINE
  8
_0-0_0
  6
CONTINUOUS
 62
    7
 10
559.41222792392489
 20
545.79241920085155
 11
559.41222792392489
 21
545.71463057157609
  0
LINE
  8
_0-0_0
  6
CONTINUOUS
 62
    7
 10
559.41222792392489
 20
545.71463057157609
 11
559.41222792392489
 21
545.63657267867598
  0
LINE
  8
_0-0_0
  6
CONTINUOUS
 62
    7
 10
559.41222792392489
 20
545.63657267867598
 11
559.41222792392477
 21
545.5585637427987
  0
LINE
  8
_0-0_0
  6
CONTINUOUS
 62
    7
 10
559.41222792392477
 20
545.5585637427987
 11
559.41222792392489
 21
545.4809219845913
  0
LINE
  8
_0-0_0
  6
CONTINUOUS
 62
    7
 10
559.41222792392489
 20
545.4809219845913
 11
559.41222792392489
 21
545.4039656247013
  0
LINE
  8
_0-0_0
  6
CONTINUOUS
 62
    7
 10
559.41222792392489
 20
545.4039656247013
 11
559.41222792392477
 21
545.32801288377618
  0
LINE
  8
_0-0_0
  6
CONTINUOUS
 62
    7
 10
559.41222792392477
 20
545.32801288377618
 11
559.41222792392489
 21
545.25338198246322
  0
LINE
  8
_0-0_0
  6
CONTINUOUS
 62
    7
 10
559.41222792392489
 20
545.25338198246322
 11
559.41222792392489
 21
545.18039114140993
  0
LINE
  8
_0-0_0
  6
CONTINUOUS
 62
    7
 10
559.41222792392489
 20
545.18039114140993
 11
559.41222792392489
 21
545.10935858126334
  0
LINE
  8
_0-0_0
  6
CONTINUOUS
 62
    7
 10
559.41222792392489
 20
545.10935858126334
 11
559.41222792392489
 21
545.04060252267118
  0
LINE
  8
_0-0_0
  6
CONTINUOUS
 62
    7
 10
559.41222792392489
 20
545.04060252267118
 11
559.41222792392489
 21
544.97444118628084
  0
LINE
  8
_0-0_0
  6
CONTINUOUS
 62
    7
 10
559.41222792392489
 20
544.97444118628084
 11
559.41222792392489
 21
544.91119279273926
  0
LINE
  8
_0-0_0
  6
CONTINUOUS
 62
    7
 10
559.41222792392489
 20
544.91119279273926
 11
559.412227923925
 21
544.85117556269427
  0
LINE
  8
_0-0_0
  6
CONTINUOUS
 62
    7
 10
559.412227923925
 20
544.85117556269427
 11
559.41222792392489
 21
544.79470771679291
  0
LINE
  8
_0-0_0
  6
CONTINUOUS
 62
    7
 10
559.41222792392489
 20
544.79470771679291
 11
559.41222792392489
 21
544.74210747568281
  0
LINE
  8
_0-0_0
  6
CONTINUOUS
 62
    7
 10
559.41222792392489
 20
544.74210747568281
 11
559.41222792392489
 21
544.69369306001124
  0
LINE
  8
_0-0_0
  6
CONTINUOUS
 62
    7
 10
559.41222792392489
 20
544.69369306001124
 11
559.41222792392489
 21
544.64978269042558
  0
LINE
  8
_0-0_0
  6
CONTINUOUS
 62
    7
 10
559.41222792392489
 20
544.64978269042558
 11
559.41222792392489
 21
544.61069458757311
  0
LINE
  8
_0-0_0
  6
CONTINUOUS
 62
    7
 10
559.41222792392489
 20
544.61069458757311
 11
559.41222792392489
 21
544.57674697210132
  0
LINE
  8
_0-0_0
  6
CONTINUOUS
 62
    7
 10
559.41222792392489
 20
544.57674697210132
 11
559.41222792392489
 21
544.5482580646576
  0
LINE
  8
_0-0_0
  6
CONTINUOUS
 62
    7
 10
559.41222792392489
 20
544.5482580646576
 11
559.41222792392489
 21
544.52554608588935
  0
LINE
  8
_0-0_0
  6
CONTINUOUS
 62
    7
 10
559.41222792392489
 20
544.52554608588935
 11
559.41222792392489
 21
544.50892925644382
  0
LINE
  8
_0-0_0
  6
CONTINUOUS
 62
    7
 10
559.41222792392489
 20
544.50892925644382
 11
559.41222792392477
 21
544.4987257969683
  0
LINE
  8
_0-0_0
  6
CONTINUOUS
 62
    7
 10
559.41222792392477
 20
544.4987257969683
 11
559.41222792392489
 21
544.49525392811051
  0
LINE
  8
_0-0_0
  6
CONTINUOUS
 62
    7
 10
559.41222792392489
 20
544.49525392811051
 11
559.40876964132383
 21
544.41948545597916
  0
LINE
  8
_0-0_0
  6
CONTINUOUS
 62
    7
 10
559.40876964132383
 20
544.41948545597916
 11
559.39866688499217
 21
544.34799664357968
  0
LINE
  8
_0-0_0
  6
CONTINUOUS
 62
    7
 10
559.39866688499217
 20
544.34799664357968
 11
559.38232779213695
 21
544.28069365661884
  0
LINE
  8
_0-0_0
  6
CONTINUOUS
 62
    7
 10
559.38232779213695
 20
544.28069365661884
 11
559.36016049996488
 21
544.21748266080294
  0
LINE
  8
_0-0_0
  6
CONTINUOUS
 62
    7
 10
559.36016049996488
 20
544.21748266080294
 11
559.33257314568334
 21
544.15826982183887
  0
LINE
  8
_0-0_0
  6
CONTINUOUS
 62
    7
 10
559.33257314568334
 20
544.15826982183887
 11
559.29997386649939
 21
544.1029613054327
  0
LINE
  8
_0-0_0
  6
CONTINUOUS
 62
    7
 10
559.29997386649939
 20
544.1029613054327
 11
559.26277079962006
 21
544.05146327729153
  0
LINE
  8
_0-0_0
  6
CONTINUOUS
 62
    7
 10
559.26277079962006
 20
544.05146327729153
 11
559.22137208225217
 21
544.00368190312133
  0
LINE
  8
_0-0_0
  6
CONTINUOUS
 62
    7
 10
559.22137208225217
 20
544.00368190312133
 11
559.17618585160301
 21
543.95952334862909
  0
LINE
  8
_0-0_0
  6
CONTINUOUS
 62
    7
 10
559.17618585160301
 20
543.95952334862909
 11
559.12762024487949
 21
543.91889377952123
  0
LINE
  8
_0-0_0
  6
CONTINUOUS
 62
    7
 10
559.12762024487949
 20
543.91889377952123
 11
559.07608339928879
 21
543.88169936150405
  0
LINE
  8
_0-0_0
  6
CONTINUOUS
 62
    7
 10
559.07608339928879
 20
543.88169936150405
 11
559.02198345203772
 21
543.84784626028454
  0
LINE
  8
_0-0_0
  6
CONTINUOUS
 62
    7
 10
559.02198345203772
 20
543.84784626028454
 11
558.96572854033343
 21
543.81724064156867
  0
LINE
  8
_0-0_0
  6
CONTINUOUS
 62
    7
 10
558.96572854033343
 20
543.81724064156867
 11
558.90772680138298
 21
543.78978867106355
  0
LINE
  8
_0-0_0
  6
CONTINUOUS
 62
    7
 10
558.90772680138298
 20
543.78978867106355
 11
558.84838637239363
 21
543.76539651447547
  0
LINE
  8
_0-0_0
  6
CONTINUOUS
 62
    7
 10
558.84838637239363
 20
543.76539651447547
 11
558.7881153905721
 21
543.74397033751097
  0
LINE
  8
_0-0_0
  6
CONTINUOUS
 62
    7
 10
558.7881153905721
 20
543.74397033751097
 11
558.72732199312554
 21
543.72541630587659
  0
LINE
  8
_0-0_0
  6
CONTINUOUS
 62
    7
 10
558.72732199312554
 20
543.72541630587659
 11
558.66641431726089
 21
543.70964058527898
  0
LINE
  8
_0-0_0
  6
CONTINUOUS
 62
    7
 10
558.66641431726089
 20
543.70964058527898
 11
558.60580050018552
 21
543.69654934142454
  0
LINE
  8
_0-0_0
  6
CONTINUOUS
 62
    7
 10
558.60580050018552
 20
543.69654934142454
 11
558.54588867910616
 21
543.68604874001971
  0
LINE
  8
_0-0_0
  6
CONTINUOUS
 62
    7
 10
558.54588867910616
 20
543.68604874001971
 11
558.48708699123006
 21
543.67804494677148
  0
LINE
  8
_0-0_0
  6
CONTINUOUS
 62
    7
 10
558.48708699123006
 20
543.67804494677148
 11
558.42980357376393
 21
543.6724441273858
  0
LINE
  8
_0-0_0
  6
CONTINUOUS
 62
    7
 10
558.42980357376393
 20
543.6724441273858
 11
558.37444656391517
 21
543.66915244756979
  0
LINE
  8
_0-0_0
  6
CONTINUOUS
 62
    7
 10
558.37444656391517
 20
543.66915244756979
 11
558.32142409889082
 21
543.66807607302962
  0
LINE
  8
_0-0_0
  6
CONTINUOUS
 62
    7
 10
558.32142409889082
 20
543.66807607302962
 11
558.25653436434288
 21
543.66807607302951
  0
LINE
  8
_0-0_0
  6
CONTINUOUS
 62
    7
 10
558.25653436434288
 20
543.66807607302951
 11
558.11810646782988
 21
543.66807607302951
  0
LINE
  8
_0-0_0
  6
CONTINUOUS
 62
    7
 10
558.11810646782988
 20
543.66807607302951
 11
557.91292364973276
 21
543.66807607302962
  0
LINE
  8
_0-0_0
  6
CONTINUOUS
 62
    7
 10
557.91292364973276
 20
543.66807607302962
 11
557.6477691504324
 21
543.66807607302962
  0
LINE
  8
_0-0_0
  6
CONTINUOUS
 62
    7
 10
557.6477691504324
 20
543.66807607302962
 11
557.32942621030998
 21
543.66807607302962
  0
LINE
  8
_0-0_0
  6
CONTINUOUS
 62
    7
 10
557.32942621030998
 20
543.66807607302962
 11
556.96467806974681
 21
543.66807607302962
  0
LINE
  8
_0-0_0
  6
CONTINUOUS
 62
    7
 10
556.96467806974681
 20
543.66807607302962
 11
556.56030796912364
 21
543.66807607302962
  0
LINE
  8
_0-0_0
  6
CONTINUOUS
 62
    7
 10
556.56030796912364
 20
543.66807607302962
 11
556.12309914882178
 21
543.66807607302962
  0
LINE
  8
_0-0_0
  6
CONTINUOUS
 62
    7
 10
556.12309914882178
 20
543.66807607302962
 11
555.65983484922208
 21
543.66807607302962
  0
LINE
  8
_0-0_0
  6
CONTINUOUS
 62
    7
 10
555.65983484922208
 20
543.66807607302962
 11
555.17729831070608
 21
543.66807607302962
  0
LINE
  8
_0-0_0
  6
CONTINUOUS
 62
    7
 10
555.17729831070608
 20
543.66807607302962
 11
554.68227277365429
 21
543.66807607302974
  0
LINE
  8
_0-0_0
  6
CONTINUOUS
 62
    7
 10
554.68227277365429
 20
543.66807607302974
 11
554.18154147844803
 21
543.66807607302962
  0
LINE
  8
_0-0_0
  6
CONTINUOUS
 62
    7
 10
554.18154147844803
 20
543.66807607302962
 11
553.68188766546837
 21
543.66807607302962
  0
LINE
  8
_0-0_0
  6
CONTINUOUS
 62
    7
 10
553.68188766546837
 20
543.66807607302962
 11
553.19009457509628
 21
543.66807607302962
  0
LINE
  8
_0-0_0
  6
CONTINUOUS
 62
    7
 10
553.19009457509628
 20
543.66807607302962
 11
552.71294544771308
 21
543.66807607302962
  0
LINE
  8
_0-0_0
  6
CONTINUOUS
 62
    7
 10
552.71294544771308
 20
543.66807607302962
 11
552.25722352369962
 21
543.66807607302962
  0
LINE
  8
_0-0_0
  6
CONTINUOUS
 62
    7
 10
552.25722352369962
 20
543.66807607302962
 11
551.8297120434371
 21
543.66807607302962
  0
LINE
  8
_0-0_0
  6
CONTINUOUS
 62
    7
 10
551.8297120434371
 20
543.66807607302962
 11
551.43719424730659
 21
543.66807607302962
  0
LINE
  8
_0-0_0
  6
CONTINUOUS
 62
    7
 10
551.43719424730659
 20
543.66807607302962
 11
551.08645337568896
 21
543.66807607302962
  0
LINE
  8
_0-0_0
  6
CONTINUOUS
 62
    7
 10
551.08645337568896
 20
543.66807607302962
 11
550.78427266896563
 21
543.66807607302962
  0
LINE
  8
_0-0_0
  6
CONTINUOUS
 62
    7
 10
550.78427266896563
 20
543.66807607302962
 11
550.53743536751745
 21
543.66807607302962
  0
LINE
  8
_0-0_0
  6
CONTINUOUS
 62
    7
 10
550.53743536751745
 20
543.66807607302962
 11
550.3527247117255
 21
543.66807607302962
  0
LINE
  8
_0-0_0
  6
CONTINUOUS
 62
    7
 10
550.3527247117255
 20
543.66807607302962
 11
550.23692394197087
 21
543.66807607302962
  0
LINE
  8
_0-0_0
  6
CONTINUOUS
 62
    7
 10
550.23692394197087
 20
543.66807607302962
 11
550.19681629863464
 21
543.66807607302962
  0
LINE
  8
_0-0_0
  6
CONTINUOUS
 62
    7
 10
551.68883532368238
 20
484.77551939081962
 11
551.55464842623633
 21
484.77665673498518
  0
LINE
  8
_0-0_0
  6
CONTINUOUS
 62
    7
 10
551.55464842623633
 20
484.77665673498518
 11
551.4233865121073
 21
484.78030992614919
  0
LINE
  8
_0-0_0
  6
CONTINUOUS
 62
    7
 10
551.4233865121073
 20
484.78030992614919
 11
551.29529718453432
 21
484.78684070231259
  0
LINE
  8
_0-0_0
  6
CONTINUOUS
 62
    7
 10
551.29529718453432
 20
484.78684070231259
 11
551.17062804675641
 21
484.79661080147628
  0
LINE
  8
_0-0_0
  6
CONTINUOUS
 62
    7
 10
551.17062804675641
 20
484.79661080147628
 11
551.04962670201257
 21
484.80998196164091
  0
LINE
  8
_0-0_0
  6
CONTINUOUS
 62
    7
 10
551.04962670201257
 20
484.80998196164091
 11
550.9325407535415
 21
484.82731592080756
  0
LINE
  8
_0-0_0
  6
CONTINUOUS
 62
    7
 10
550.9325407535415
 20
484.82731592080756
 11
550.81961780458244
 21
484.84897441697677
  0
LINE
  8
_0-0_0
  6
CONTINUOUS
 62
    7
 10
550.81961780458244
 20
484.84897441697677
 11
550.71110545837405
 21
484.87531918814977
  0
LINE
  8
_0-0_0
  6
CONTINUOUS
 62
    7
 10
550.71110545837405
 20
484.87531918814977
 11
550.60725131815548
 21
484.90671197232712
  0
LINE
  8
_0-0_0
  6
CONTINUOUS
 62
    7
 10
550.60725131815548
 20
484.90671197232712
 11
550.50830298716528
 21
484.94351450750997
  0
LINE
  8
_0-0_0
  6
CONTINUOUS
 62
    7
 10
550.50830298716528
 20
484.94351450750997
 11
550.41450806864304
 21
484.98608853169912
  0
LINE
  8
_0-0_0
  6
CONTINUOUS
 62
    7
 10
550.41450806864304
 20
484.98608853169912
 11
550.32611416582722
 21
485.03479578289512
  0
LINE
  8
_0-0_0
  6
CONTINUOUS
 62
    7
 10
550.32611416582722
 20
485.03479578289512
 11
550.24336888195694
 21
485.08999799909918
  0
LINE
  8
_0-0_0
  6
CONTINUOUS
 62
    7
 10
550.24336888195694
 20
485.08999799909918
 11
550.16651982027111
 21
485.15205691831216
  0
LINE
  8
_0-0_0
  6
CONTINUOUS
 62
    7
 10
550.16651982027111
 20
485.15205691831216
 11
550.09581458400862
 21
485.22133427853464
  0
LINE
  8
_0-0_0
  6
CONTINUOUS
 62
    7
 10
550.09581458400862
 20
485.22133427853464
 11
550.03150077640839
 21
485.29819181776759
  0
LINE
  8
_0-0_0
  6
CONTINUOUS
 62
    7
 10
550.03150077640839
 20
485.29819181776759
 11
549.97382600070944
 21
485.38299127401211
  0
LINE
  8
_0-0_0
  6
CONTINUOUS
 62
    7
 10
549.97382600070944
 20
485.38299127401211
 11
549.92303786015054
 21
485.47609438526871
  0
LINE
  8
_0-0_0
  6
CONTINUOUS
 62
    7
 10
549.92303786015054
 20
485.47609438526871
 11
549.87938395797096
 21
485.57786288953832
  0
LINE
  8
_0-0_0
  6
CONTINUOUS
 62
    7
 10
549.87938395797096
 20
485.57786288953832
 11
549.84311189740936
 21
485.68865852482202
  0
LINE
  8
_0-0_0
  6
CONTINUOUS
 62
    7
 10
549.84311189740936
 20
485.68865852482202
 11
549.81446928170487
 21
485.80884302912068
  0
LINE
  8
_0-0_0
  6
CONTINUOUS
 62
    7
 10
549.81446928170487
 20
485.80884302912068
 11
549.79370371409618
 21
485.93877814043492
  0
LINE
  8
_0-0_0
  6
CONTINUOUS
 62
    7
 10
549.79370371409618
 20
485.93877814043492
 11
549.78106279782241
 21
486.07882559676568
  0
LINE
  8
_0-0_0
  6
CONTINUOUS
 62
    7
 10
549.78106279782241
 20
486.07882559676568
 11
549.77679413612259
 21
486.22934713611392
  0
LINE
  8
_0-0_0
  6
CONTINUOUS
 62
    7
 10
549.77679413612259
 20
486.22934713611392
 11
549.77679413612259
 21
491.9033654300211
  0
LINE
  8
_0-0_0
  6
CONTINUOUS
 62
    7
 10
549.77679413612259
 20
491.9033654300211
 11
549.77679413612259
 21
497.10483422208222
  0
LINE
  8
_0-0_0
  6
CONTINUOUS
 62
    7
 10
549.77679413612259
 20
497.10483422208222
 11
549.77679413612248
 21
501.85429914281201
  0
LINE
  8
_0-0_0
  6
CONTINUOUS
 62
    7
 10
549.77679413612248
 20
501.85429914281201
 11
549.77679413612259
 21
506.17230582272566
  0
LINE
  8
_0-0_0
  6
CONTINUOUS
 62
    7
 10
549.77679413612259
 20
506.17230582272566
 11
549.77679413612259
 21
510.07939989233847
  0
LINE
  8
_0-0_0
  6
CONTINUOUS
 62
    7
 10
549.77679413612259
 20
510.07939989233847
 11
549.77679413612259
 21
513.59612698216506
  0
LINE
  8
_0-0_0
  6
CONTINUOUS
 62
    7
 10
549.77679413612259
 20
513.59612698216506
 11
549.77679413612259
 21
516.74303272272084
  0
LINE
  8
_0-0_0
  6
CONTINUOUS
 62
    7
 10
549.77679413612259
 20
516.74303272272084
 11
549.77679413612259
 21
519.54066274452055
  0
LINE
  8
_0-0_0
  6
CONTINUOUS
 62
    7
 10
549.77679413612259
 20
519.54066274452055
 11
549.77679413612259
 21
522.00956267807942
  0
LINE
  8
_0-0_0
  6
CONTINUOUS
 62
    7
 10
549.77679413612259
 20
522.00956267807942
 11
549.77679413612259
 21
524.17027815391248
  0
LINE
  8
_0-0_0
  6
CONTINUOUS
 62
    7
 10
549.77679413612259
 20
524.17027815391248
 11
549.77679413612259
 21
526.04335480253496
  0
LINE
  8
_0-0_0
  6
CONTINUOUS
 62
    7
 10
549.77679413612259
 20
526.04335480253496
 11
549.77679413612259
 21
527.64933825446167
  0
LINE
  8
_0-0_0
  6
CONTINUOUS
 62
    7
 10
549.77679413612259
 20
527.64933825446167
 11
549.77679413612259
 21
529.00877414020761
  0
LINE
  8
_0-0_0
  6
CONTINUOUS
 62
    7
 10
549.77679413612259
 20
529.00877414020761
 11
549.77679413612259
 21
530.14220809028814
  0
LINE
  8
_0-0_0
  6
CONTINUOUS
 62
    7
 10
549.77679413612259
 20
530.14220809028814
 11
549.77679413612259
 21
531.07018573521805
  0
LINE
  8
_0-0_0
  6
CONTINUOUS
 62
    7
 10
549.77679413612259
 20
531.07018573521805
 11
549.77679413612259
 21
531.81325270551247
  0
LINE
  8
_0-0_0
  6
CONTINUOUS
 62
    7
 10
549.77679413612259
 20
531.81325270551247
 11
549.77679413612259
 21
532.39195463168642
  0
LINE
  8
_0-0_0
  6
CONTINUOUS
 62
    7
 10
549.77679413612259
 20
532.39195463168642
 11
549.77679413612259
 21
532.82683714425502
  0
LINE
  8
_0-0_0
  6
CONTINUOUS
 62
    7
 10
549.77679413612259
 20
532.82683714425502
 11
549.77679413612259
 21
533.13844587373342
  0
LINE
  8
_0-0_0
  6
CONTINUOUS
 62
    7
 10
549.77679413612259
 20
533.13844587373342
 11
549.77679413612259
 21
533.34732645063639
  0
LINE
  8
_0-0_0
  6
CONTINUOUS
 62
    7
 10
549.77679413612259
 20
533.34732645063639
 11
549.77679413612259
 21
533.47402450547929
  0
LINE
  8
_0-0_0
  6
CONTINUOUS
 62
    7
 10
549.77679413612259
 20
533.47402450547929
 11
549.77679413612259
 21
533.53908566877681
  0
LINE
  8
_0-0_0
  6
CONTINUOUS
 62
    7
 10
549.77679413612259
 20
533.53908566877681
 11
549.77679413612259
 21
533.56305557104452
  0
LINE
  8
_0-0_0
  6
CONTINUOUS
 62
    7
 10
549.77679413612259
 20
533.56305557104452
 11
549.77679413612259
 21
533.56647984279698
  0
LINE
  8
_0-0_0
  6
CONTINUOUS
 62
    7
 10
549.77679413612259
 20
533.56647984279698
 11
549.78106279782241
 21
533.62662739824964
  0
LINE
  8
_0-0_0
  6
CONTINUOUS
 62
    7
 10
549.78106279782241
 20
533.62662739824964
 11
549.79370371409618
 21
533.69001291678535
  0
LINE
  8
_0-0_0
  6
CONTINUOUS
 62
    7
 10
549.79370371409618
 20
533.69001291678535
 11
549.81446928170476
 21
533.75612098974841
  0
LINE
  8
_0-0_0
  6
CONTINUOUS
 62
    7
 10
549.81446928170476
 20
533.75612098974841
 11
549.84311189740936
 21
533.82443620848369
  0
LINE
  8
_0-0_0
  6
CONTINUOUS
 62
    7
 10
549.84311189740936
 20
533.82443620848369
 11
549.87938395797096
 21
533.89444316433571
  0
LINE
  8
_0-0_0
  6
CONTINUOUS
 62
    7
 10
549.87938395797096
 20
533.89444316433571
 11
549.92303786015066
 21
533.96562644864923
  0
LINE
  8
_0-0_0
  6
CONTINUOUS
 62
    7
 10
549.92303786015066
 20
533.96562644864923
 11
549.97382600070944
 21
534.03747065276889
  0
LINE
  8
_0-0_0
  6
CONTINUOUS
 62
    7
 10
549.97382600070944
 20
534.03747065276889
 11
550.03150077640839
 21
534.10946036803909
  0
LINE
  8
_0-0_0
  6
CONTINUOUS
 62
    7
 10
550.03150077640839
 20
534.10946036803909
 11
550.09581458400839
 21
534.18108018580483
  0
LINE
  8
_0-0_0
  6
CONTINUOUS
 62
    7
 10
550.09581458400839
 20
534.18108018580483
 11
550.16651982027111
 21
534.2518146974104
  0
LINE
  8
_0-0_0
  6
CONTINUOUS
 62
    7
 10
550.16651982027111
 20
534.2518146974104
 11
550.24336888195694
 21
534.32114849420066
  0
LINE
  8
_0-0_0
  6
CONTINUOUS
 62
    7
 10
550.24336888195694
 20
534.32114849420066
 11
550.32611416582722
 21
534.38856616752014
  0
LINE
  8
_0-0_0
  6
CONTINUOUS
 62
    7
 10
550.32611416582722
 20
534.38856616752014
 11
550.41450806864304
 21
534.45355230871348
  0
LINE
  8
_0-0_0
  6
CONTINUOUS
 62
    7
 10
550.41450806864304
 20
534.45355230871348
 11
550.50830298716528
 21
534.51559150912556
  0
LINE
  8
_0-0_0
  6
CONTINUOUS
 62
    7
 10
550.50830298716528
 20
534.51559150912556
 11
550.60725131815525
 21
534.57416836010077
  0
LINE
  8
_0-0_0
  6
CONTINUOUS
 62
    7
 10
550.60725131815525
 20
534.57416836010077
 11
550.71110545837394
 21
534.62876745298365
  0
LINE
  8
_0-0_0
  6
CONTINUOUS
 62
    7
 10
550.71110545837394
 20
534.62876745298365
 11
550.81961780458232
 21
534.67887337911907
  0
LINE
  8
_0-0_0
  6
CONTINUOUS
 62
    7
 10
550.81961780458232
 20
534.67887337911907
 11
550.93254075354162
 21
534.72397072985177
  0
LINE
  8
_0-0_0
  6
CONTINUOUS
 62
    7
 10
550.93254075354162
 20
534.72397072985177
 11
551.04962670201246
 21
534.76354409652595
  0
LINE
  8
_0-0_0
  6
CONTINUOUS
 62
    7
 10
551.04962670201246
 20
534.76354409652595
 11
551.17062804675641
 21
534.7970780704868
  0
LINE
  8
_0-0_0
  6
CONTINUOUS
 62
    7
 10
551.17062804675641
 20
534.7970780704868
 11
551.29529718453432
 21
534.82405724307853
  0
LINE
  8
_0-0_0
  6
CONTINUOUS
 62
    7
 10
551.29529718453432
 20
534.82405724307853
 11
551.42338651210719
 21
534.84396620564587
  0
LINE
  8
_0-0_0
  6
CONTINUOUS
 62
    7
 10
551.42338651210719
 20
534.84396620564587
 11
551.5546484262361
 21
534.85628954953359
  0
LINE
  8
_0-0_0
  6
CONTINUOUS
 62
    7
 10
551.5546484262361
 20
534.85628954953359
 11
551.68883532368238
 21
534.8605118660862
  0
LINE
  8
_0-0_0
  6
CONTINUOUS
 62
    7
 10
551.68883532368238
 20
534.8605118660862
 11
553.07408905650982
 21
534.86051186608609
  0
LINE
  8
_0-0_0
  6
CONTINUOUS
 62
    7
 10
553.07408905650982
 20
534.86051186608609
 11
554.3439746450224
 21
534.8605118660862
  0
LINE
  8
_0-0_0
  6
CONTINUOUS
 62
    7
 10
554.3439746450224
 20
534.8605118660862
 11
555.50350809549423
 21
534.8605118660862
  0
LINE
  8
_0-0_0
  6
CONTINUOUS
 62
    7
 10
555.50350809549423
 20
534.8605118660862
 11
556.55770541420009
 21
534.8605118660862
  0
LINE
  8
_0-0_0
  6
CONTINUOUS
 62
    7
 10
556.55770541420009
 20
534.8605118660862
 11
557.51158260741454
 21
534.8605118660862
  0
LINE
  8
_0-0_0
  6
CONTINUOUS
 62
    7
 10
557.51158260741454
 20
534.8605118660862
 11
558.37015568141192
 21
534.86051186608609
  0
LINE
  8
_0-0_0
  6
CONTINUOUS
 62
    7
 10
558.37015568141192
 20
534.86051186608609
 11
559.13844064246734
 21
534.86051186608609
  0
LINE
  8
_0-0_0
  6
CONTINUOUS
 62
    7
 10
559.13844064246734
 20
534.86051186608609
 11
559.82145349685504
 21
534.8605118660862
  0
LINE
  8
_0-0_0
  6
CONTINUOUS
 62
    7
 10
559.82145349685504
 20
534.8605118660862
 11
560.42421025084934
 21
534.86051186608631
  0
LINE
  8
_0-0_0
  6
CONTINUOUS
 62
    7
 10
560.42421025084934
 20
534.86051186608631
 11
560.95172691072514
 21
534.8605118660862
  0
LINE
  8
_0-0_0
  6
CONTINUOUS
 62
    7
 10
560.95172691072514
 20
534.8605118660862
 11
561.409019482757
 21
534.8605118660862
  0
LINE
  8
_0-0_0
  6
CONTINUOUS
 62
    7
 10
561.409019482757
 20
534.8605118660862
 11
561.80110397321937
 21
534.8605118660862
  0
LINE
  8
_0-0_0
  6
CONTINUOUS
 62
    7
 10
561.80110397321937
 20
534.8605118660862
 11
562.1329963883868
 21
534.8605118660862
  0
LINE
  8
_0-0_0
  6
CONTINUOUS
 62
    7
 10
562.1329963883868
 20
534.8605118660862
 11
562.40971273453408
 21
534.8605118660862
  0
LINE
  8
_0-0_0
  6
CONTINUOUS
 62
    7
 10
562.40971273453408
 20
534.8605118660862
 11
562.63626901793555
 21
534.8605118660862
  0
LINE
  8
_0-0_0
  6
CONTINUOUS
 62
    7
 10
562.63626901793555
 20
534.8605118660862
 11
562.81768124486598
 21
534.8605118660862
  0
LINE
  8
_0-0_0
  6
CONTINUOUS
 62
    7
 10
562.81768124486598
 20
534.8605118660862
 11
562.95896542159971
 21
534.8605118660862
  0
LINE
  8
_0-0_0
  6
CONTINUOUS
 62
    7
 10
562.95896542159971
 20
534.8605118660862
 11
563.06513755441154
 21
534.8605118660862
  0
LINE
  8
_0-0_0
  6
CONTINUOUS
 62
    7
 10
563.06513755441154
 20
534.8605118660862
 11
563.14121364957589
 21
534.8605118660862
  0
LINE
  8
_0-0_0
  6
CONTINUOUS
 62
    7
 10
563.14121364957589
 20
534.8605118660862
 11
563.19220971336722
 21
534.8605118660862
  0
LINE
  8
_0-0_0
  6
CONTINUOUS
 62
    7
 10
563.19220971336722
 20
534.8605118660862
 11
563.22314175206043
 21
534.8605118660862
  0
LINE
  8
_0-0_0
  6
CONTINUOUS
 62
    7
 10
563.22314175206043
 20
534.8605118660862
 11
563.23902577192996
 21
534.8605118660862
  0
LINE
  8
_0-0_0
  6
CONTINUOUS
 62
    7
 10
563.23902577192996
 20
534.8605118660862
 11
563.24487777925037
 21
534.8605118660862
  0
LINE
  8
_0-0_0
  6
CONTINUOUS
 62
    7
 10
563.24487777925037
 20
534.8605118660862
 11
563.24571378029611
 21
534.8605118660862
  0
LINE
  8
_0-0_0
  6
CONTINUOUS
 62
    7
 10
563.24571378029611
 20
534.8605118660862
 11
563.40850179949734
 21
534.78113304018564
  0
LINE
  8
_0-0_0
  6
CONTINUOUS
 62
    7
 10
563.40850179949734
 20
534.78113304018564
 11
563.57273326395443
 21
534.69847137393117
  0
LINE
  8
_0-0_0
  6
CONTINUOUS
 62
    7
 10
563.57273326395443
 20
534.69847137393117
 11
563.73766400349291
 21
534.61192034420912
  0
LINE
  8
_0-0_0
  6
CONTINUOUS
 62
    7
 10
563.73766400349291
 20
534.61192034420912
 11
563.90254984793842
 21
534.5208734279048
  0
LINE
  8
_0-0_0
  6
CONTINUOUS
 62
    7
 10
563.90254984793842
 20
534.5208734279048
 11
564.06664662711705
 21
534.42472410190408
  0
LINE
  8
_0-0_0
  6
CONTINUOUS
 62
    7
 10
564.06664662711705
 20
534.42472410190408
 11
564.22921017085469
 21
534.32286584309281
  0
LINE
  8
_0-0_0
  6
CONTINUOUS
 62
    7
 10
564.22921017085469
 20
534.32286584309281
 11
564.38949630897673
 21
534.21469212835689
  0
LINE
  8
_0-0_0
  6
CONTINUOUS
 62
    7
 10
564.38949630897673
 20
534.21469212835689
 11
564.54676087130952
 21
534.09959643458183
  0
LINE
  8
_0-0_0
  6
CONTINUOUS
 62
    7
 10
564.54676087130952
 20
534.09959643458183
 11
564.70025968767845
 21
533.97697223865339
  0
LINE
  8
_0-0_0
  6
CONTINUOUS
 62
    7
 10
564.70025968767845
 20
533.97697223865339
 11
564.84924858790964
 21
533.84621301745756
  0
LINE
  8
_0-0_0
  6
CONTINUOUS
 62
    7
 10
564.84924858790964
 20
533.84621301745756
 11
564.99298340182884
 21
533.70671224787998
  0
LINE
  8
_0-0_0
  6
CONTINUOUS
 62
    7
 10
564.99298340182884
 20
533.70671224787998
 11
565.1307199592618
 21
533.55786340680652
  0
LINE
  8
_0-0_0
  6
CONTINUOUS
 62
    7
 10
565.1307199592618
 20
533.55786340680652
 11
565.26171409003427
 21
533.39905997112282
  0
LINE
  8
_0-0_0
  6
CONTINUOUS
 62
    7
 10
565.26171409003427
 20
533.39905997112282
 11
565.38522162397237
 21
533.22969541771488
  0
LINE
  8
_0-0_0
  6
CONTINUOUS
 62
    7
 10
565.38522162397237
 20
533.22969541771488
 11
565.50049839090184
 21
533.04916322346833
  0
LINE
  8
_0-0_0
  6
CONTINUOUS
 62
    7
 10
565.50049839090184
 20
533.04916322346833
 11
565.60680022064821
 21
532.85685686526892
  0
LINE
  8
_0-0_0
  6
CONTINUOUS
 62
    7
 10
565.60680022064821
 20
532.85685686526892
 11
565.70338294303747
 21
532.65216982000243
  0
LINE
  8
_0-0_0
  6
CONTINUOUS
 62
    7
 10
565.70338294303747
 20
532.65216982000243
 11
565.7895023878956
 21
532.4344955645546
  0
LINE
  8
_0-0_0
  6
CONTINUOUS
 62
    7
 10
565.7895023878956
 20
532.4344955645546
 11
565.86441438504835
 21
532.2032275758113
  0
LINE
  8
_0-0_0
  6
CONTINUOUS
 62
    7
 10
565.86441438504835
 20
532.2032275758113
 11
565.92737476432137
 21
531.95775933065829
  0
LINE
  8
_0-0_0
  6
CONTINUOUS
 62
    7
 10
565.92737476432137
 20
531.95775933065829
 11
565.97763935554065
 21
531.69748430598133
  0
LINE
  8
_0-0_0
  6
CONTINUOUS
 62
    7
 10
565.97763935554065
 20
531.69748430598133
 11
566.01446398853182
 21
531.42179597866607
  0
LINE
  8
_0-0_0
  6
CONTINUOUS
 62
    7
 10
566.01446398853182
 20
531.42179597866607
 11
566.03710449312098
 21
531.13008782559848
  0
LINE
  8
_0-0_0
  6
CONTINUOUS
 62
    7
 10
566.03710449312098
 20
531.13008782559848
 11
566.044816699134
 21
530.82175332366376
  0
LINE
  8
_0-0_0
  6
CONTINUOUS
 62
    7
 10
566.044816699134
 20
530.82175332366376
 11
566.04481669913378
 21
528.09628663324258
  0
LINE
  8
_0-0_0
  6
CONTINUOUS
 62
    7
 10
566.04481669913378
 20
528.09628663324258
 11
566.044816699134
 21
525.59780509869222
  0
LINE
  8
_0-0_0
  6
CONTINUOUS
 62
    7
 10
566.044816699134
 20
525.59780509869222
 11
566.044816699134
 21
523.31643980019226
  0
LINE
  8
_0-0_0
  6
CONTINUOUS
 62
    7
 10
566.044816699134
 20
523.31643980019226
 11
566.044816699134
 21
521.2423218179224
  0
LINE
  8
_0-0_0
  6
CONTINUOUS
 62
    7
 10
566.044816699134
 20
521.2423218179224
 11
566.044816699134
 21
519.36558223206202
  0
LINE
  8
_0-0_0
  6
CONTINUOUS
 62
    7
 10
566.044816699134
 20
519.36558223206202
 11
566.044816699134
 21
517.6763521227906
  0
LINE
  8
_0-0_0
  6
CONTINUOUS
 62
    7
 10
566.044816699134
 20
517.6763521227906
 11
566.044816699134
 21
516.16476257028785
  0
LINE
  8
_0-0_0
  6
CONTINUOUS
 62
    7
 10
566.044816699134
 20
516.16476257028785
 11
566.04481669913412
 21
514.82094465473313
  0
LINE
  8
_0-0_0
  6
CONTINUOUS
 62
    7
 10
566.04481669913412
 20
514.82094465473313
 11
566.044816699134
 21
513.63502945630603
  0
LINE
  8
_0-0_0
  6
CONTINUOUS
 62
    7
 10
566.044816699134
 20
513.63502945630603
 11
566.044816699134
 21
512.59714805518604
  0
LINE
  8
_0-0_0
  6
CONTINUOUS
 62
    7
 10
566.044816699134
 20
512.59714805518604
 11
566.04481669913412
 21
511.69743153155281
  0
LINE
  8
_0-0_0
  6
CONTINUOUS
 62
    7
 10
566.04481669913412
 20
511.69743153155281
 11
566.044816699134
 21
510.92601096558548
  0
LINE
  8
_0-0_0
  6
CONTINUOUS
 62
    7
 10
566.044816699134
 20
510.92601096558548
 11
566.04481669913412
 21
510.2730174374642
  0
LINE
  8
_0-0_0
  6
CONTINUOUS
 62
    7
 10
566.04481669913412
 20
510.2730174374642
 11
566.044816699134
 21
509.72858202736802
  0
LINE
  8
_0-0_0
  6
CONTINUOUS
 62
    7
 10
566.044816699134
 20
509.72858202736802
 11
566.044816699134
 21
509.28283581547652
  0
LINE
  8
_0-0_0
  6
CONTINUOUS
 62
    7
 10
566.044816699134
 20
509.28283581547652
 11
566.04481669913412
 21
508.92590988196912
  0
LINE
  8
_0-0_0
  6
CONTINUOUS
 62
    7
 10
566.04481669913412
 20
508.92590988196912
 11
566.044816699134
 21
508.64793530702582
  0
LINE
  8
_0-0_0
  6
CONTINUOUS
 62
    7
 10
566.044816699134
 20
508.64793530702582
 11
566.044816699134
 21
508.43904317082593
  0
LINE
  8
_0-0_0
  6
CONTINUOUS
 62
    7
 10
566.044816699134
 20
508.43904317082593
 11
566.044816699134
 21
508.28936455354869
  0
LINE
  8
_0-0_0
  6
CONTINUOUS
 62
    7
 10
566.044816699134
 20
508.28936455354869
 11
566.044816699134
 21
508.18903053537377
  0
LINE
  8
_0-0_0
  6
CONTINUOUS
 62
    7
 10
566.044816699134
 20
508.18903053537377
 11
566.044816699134
 21
508.12817219648088
  0
LINE
  8
_0-0_0
  6
CONTINUOUS
 62
    7
 10
566.044816699134
 20
508.12817219648088
 11
566.044816699134
 21
508.09692061704948
  0
LINE
  8
_0-0_0
  6
CONTINUOUS
 62
    7
 10
566.044816699134
 20
508.09692061704948
 11
566.04481669913389
 21
508.08540687725883
  0
LINE
  8
_0-0_0
  6
CONTINUOUS
 62
    7
 10
566.04481669913389
 20
508.08540687725883
 11
566.044816699134
 21
508.08376205728882
  0
LINE
  8
_0-0_0
  6
CONTINUOUS
 62
    7
 10
566.044816699134
 20
508.08376205728882
 11
566.03918531264844
 21
507.82256138223875
  0
LINE
  8
_0-0_0
  6
CONTINUOUS
 62
    7
 10
566.03918531264844
 20
507.82256138223875
 11
566.02242538498399
 21
507.57018113077334
  0
LINE
  8
_0-0_0
  6
CONTINUOUS
 62
    7
 10
566.02242538498399
 20
507.57018113077334
 11
565.99473826382973
 21
507.3268252904877
  0
LINE
  8
_0-0_0
  6
CONTINUOUS
 62
    7
 10
565.99473826382973
 20
507.3268252904877
 11
565.9563252968743
 21
507.09269784897549
  0
LINE
  8
_0-0_0
  6
CONTINUOUS
 62
    7
 10
565.9563252968743
 20
507.09269784897549
 11
565.90738783180666
 21
506.86800279383192
  0
LINE
  8
_0-0_0
  6
CONTINUOUS
 62
    7
 10
565.90738783180666
 20
506.86800279383192
 11
565.84812721631533
 21
506.65294411265108
  0
LINE
  8
_0-0_0
  6
CONTINUOUS
 62
    7
 10
565.84812721631533
 20
506.65294411265108
 11
565.77874479808952
 21
506.44772579302742
  0
LINE
  8
_0-0_0
  6
CONTINUOUS
 62
    7
 10
565.77874479808952
 20
506.44772579302742
 11
565.69944192481773
 21
506.25255182255552
  0
LINE
  8
_0-0_0
  6
CONTINUOUS
 62
    7
 10
565.69944192481773
 20
506.25255182255552
 11
565.61041994418883
 21
506.06762618882965
  0
LINE
  8
_0-0_0
  6
CONTINUOUS
 62
    7
 10
565.61041994418883
 20
506.06762618882965
 11
565.51188020389168
 21
505.89315287944476
  0
LINE
  8
_0-0_0
  6
CONTINUOUS
 62
    7
 10
565.51188020389168
 20
505.89315287944476
 11
565.40402405161501
 21
505.72933588199481
  0
LINE
  8
_0-0_0
  6
CONTINUOUS
 62
    7
 10
565.40402405161501
 20
505.72933588199481
 11
565.2870528350478
 21
505.57637918407443
  0
LINE
  8
_0-0_0
  6
CONTINUOUS
 62
    7
 10
565.2870528350478
 20
505.57637918407443
 11
565.16116790187868
 21
505.43448677327808
  0
LINE
  8
_0-0_0
  6
CONTINUOUS
 62
    7
 10
565.16116790187868
 20
505.43448677327808
 11
565.02657059979651
 21
505.30386263720038
  0
LINE
  8
_0-0_0
  6
CONTINUOUS
 62
    7
 10
565.02657059979651
 20
505.30386263720038
 11
564.88346227649015
 21
505.18471076343576
  0
LINE
  8
_0-0_0
  6
CONTINUOUS
 62
    7
 10
564.88346227649015
 20
505.18471076343576
 11
564.73204427964845
 21
505.07723513957848
  0
LINE
  8
_0-0_0
  6
CONTINUOUS
 62
    7
 10
564.73204427964845
 20
505.07723513957848
 11
564.57251795696004
 21
504.98163975322319
  0
LINE
  8
_0-0_0
  6
CONTINUOUS
 62
    7
 10
564.57251795696004
 20
504.98163975322319
 11
564.40508465611379
 21
504.89812859196439
  0
LINE
  8
_0-0_0
  6
CONTINUOUS
 62
    7
 10
564.40508465611379
 20
504.89812859196439
 11
564.22994572479865
 21
504.82690564339646
  0
LINE
  8
_0-0_0
  6
CONTINUOUS
 62
    7
 10
564.22994572479865
 20
504.82690564339646
 11
564.04730251070328
 21
504.76817489511393
  0
LINE
  8
_0-0_0
  6
CONTINUOUS
 62
    7
 10
564.04730251070328
 20
504.76817489511393
 11
563.85735636151662
 21
504.72214033471113
  0
LINE
  8
_0-0_0
  6
CONTINUOUS
 62
    7
 10
563.85735636151662
 20
504.72214033471113
 11
563.66030862492721
 21
504.6890059497826
  0
LINE
  8
_0-0_0
  6
CONTINUOUS
 62
    7
 10
563.66030862492721
 20
504.6890059497826
 11
563.45636064862413
 21
504.66897572792288
  0
LINE
  8
_0-0_0
  6
CONTINUOUS
 62
    7
 10
563.45636064862413
 20
504.66897572792288
 11
563.24571378029611
 21
504.66225365672648
  0
LINE
  8
_0-0_0
  6
CONTINUOUS
 62
    7
 10
563.24571378029611
 20
504.66225365672648
 11
562.7050628116117
 21
504.63784200799057
  0
LINE
  8
_0-0_0
  6
CONTINUOUS
 62
    7
 10
562.7050628116117
 20
504.63784200799057
 11
562.20943890006595
 21
504.61546343561258
  0
LINE
  8
_0-0_0
  6
CONTINUOUS
 62
    7
 10
562.20943890006595
 20
504.61546343561258
 11
561.75688434752215
 21
504.59502954496878
  0
LINE
  8
_0-0_0
  6
CONTINUOUS
 62
    7
 10
561.75688434752215
 20
504.59502954496878
 11
561.34544145584368
 21
504.57645194143458
  0
LINE
  8
_0-0_0
  6
CONTINUOUS
 62
    7
 10
561.34544145584368
 20
504.57645194143458
 11
560.97315252689452
 21
504.55964223038569
  0
LINE
  8
_0-0_0
  6
CONTINUOUS
 62
    7
 10
560.97315252689452
 20
504.55964223038569
 11
560.63805986253806
 21
504.5445120171982
  0
LINE
  8
_0-0_0
  6
CONTINUOUS
 62
    7
 10
560.63805986253806
 20
504.5445120171982
 11
560.33820576463768
 21
504.53097290724742
  0
LINE
  8
_0-0_0
  6
CONTINUOUS
 62
    7
 10
560.33820576463768
 20
504.53097290724742
 11
560.07163253505701
 21
504.51893650590932
  0
LINE
  8
_0-0_0
  6
CONTINUOUS
 62
    7
 10
560.07163253505701
 20
504.51893650590932
 11
559.83638247565966
 21
504.50831441855939
  0
LINE
  8
_0-0_0
  6
CONTINUOUS
 62
    7
 10
559.83638247565966
 20
504.50831441855939
 11
559.63049788830915
 21
504.49901825057373
  0
LINE
  8
_0-0_0
  6
CONTINUOUS
 62
    7
 10
559.63049788830915
 20
504.49901825057373
 11
559.45202107486909
 21
504.49095960732768
  0
LINE
  8
_0-0_0
  6
CONTINUOUS
 62
    7
 10
559.45202107486909
 20
504.49095960732768
 11
559.29899433720277
 21
504.48405009419719
  0
LINE
  8
_0-0_0
  6
CONTINUOUS
 62
    7
 10
559.29899433720277
 20
504.48405009419719
 11
559.16945997717403
 21
504.47820131655789
  0
LINE
  8
_0-0_0
  6
CONTINUOUS
 62
    7
 10
559.16945997717403
 20
504.47820131655789
 11
559.06146029664626
 21
504.47332487978571
  0
LINE
  8
_0-0_0
  6
CONTINUOUS
 62
    7
 10
559.06146029664626
 20
504.47332487978571
 11
558.97303759748308
 21
504.46933238925612
  0
LINE
  8
_0-0_0
  6
CONTINUOUS
 62
    7
 10
558.97303759748308
 20
504.46933238925612
 11
558.9022341815479
 21
504.46613545034506
  0
LINE
  8
_0-0_0
  6
CONTINUOUS
 62
    7
 10
558.9022341815479
 20
504.46613545034506
 11
558.84709235070454
 21
504.46364566842811
  0
LINE
  8
_0-0_0
  6
CONTINUOUS
 62
    7
 10
558.84709235070454
 20
504.46364566842811
 11
558.80565440681607
 21
504.46177464888092
  0
LINE
  8
_0-0_0
  6
CONTINUOUS
 62
    7
 10
558.80565440681607
 20
504.46177464888092
 11
558.77596265174657
 21
504.46043399707958
  0
LINE
  8
_0-0_0
  6
CONTINUOUS
 62
    7
 10
558.77596265174657
 20
504.46043399707958
 11
558.7560593873593
 21
504.4595353183995
  0
LINE
  8
_0-0_0
  6
CONTINUOUS
 62
    7
 10
558.7560593873593
 20
504.4595353183995
 11
558.74398691551778
 21
504.45899021821651
  0
LINE
  8
_0-0_0
  6
CONTINUOUS
 62
    7
 10
558.74398691551778
 20
504.45899021821651
 11
558.73778753808574
 21
504.45871030190631
  0
LINE
  8
_0-0_0
  6
CONTINUOUS
 62
    7
 10
558.73778753808574
 20
504.45871030190631
 11
558.73550355692657
 21
504.45860717484459
  0
LINE
  8
_0-0_0
  6
CONTINUOUS
 62
    7
 10
558.73550355692657
 20
504.45860717484459
 11
558.73517727390379
 21
504.45859244240728
  0
LINE
  8
_0-0_0
  6
CONTINUOUS
 62
    7
 10
558.73517727390379
 20
504.45859244240728
 11
558.68558316141855
 21
504.45648003754008
  0
LINE
  8
_0-0_0
  6
CONTINUOUS
 62
    7
 10
558.68558316141855
 20
504.45648003754008
 11
558.64011939746854
 21
504.45024436342999
  0
LINE
  8
_0-0_0
  6
CONTINUOUS
 62
    7
 10
558.64011939746854
 20
504.45024436342999
 11
558.59860640168279
 21
504.44003773081431
  0
LINE
  8
_0-0_0
  6
CONTINUOUS
 62
    7
 10
558.59860640168279
 20
504.44003773081431
 11
558.56086459368998
 21
504.42601245043011
  0
LINE
  8
_0-0_0
  6
CONTINUOUS
 62
    7
 10
558.56086459368998
 20
504.42601245043011
 11
558.52671439311939
 21
504.40832083301461
  0
LINE
  8
_0-0_0
  6
CONTINUOUS
 62
    7
 10
558.52671439311939
 20
504.40832083301461
 11
558.49597621959947
 21
504.38711518930489
  0
LINE
  8
_0-0_0
  6
CONTINUOUS
 62
    7
 10
558.49597621959947
 20
504.38711518930489
 11
558.46847049275937
 21
504.36254783003841
  0
LINE
  8
_0-0_0
  6
CONTINUOUS
 62
    7
 10
558.46847049275937
 20
504.36254783003841
 11
558.444017632228
 21
504.33477106595228
  0
LINE
  8
_0-0_0
  6
CONTINUOUS
 62
    7
 10
558.444017632228
 20
504.33477106595228
 11
558.42243805763417
 21
504.30393720778352
  0
LINE
  8
_0-0_0
  6
CONTINUOUS
 62
    7
 10
558.42243805763417
 20
504.30393720778352
 11
558.40355218860691
 21
504.27019856626987
  0
LINE
  8
_0-0_0
  6
CONTINUOUS
 62
    7
 10
558.40355218860691
 20
504.27019856626987
 11
558.38718044477503
 21
504.23370745214788
  0
LINE
  8
_0-0_0
  6
CONTINUOUS
 62
    7
 10
558.38718044477503
 20
504.23370745214788
 11
558.37314324576732
 21
504.19461617615519
  0
LINE
  8
_0-0_0
  6
CONTINUOUS
 62
    7
 10
558.37314324576732
 20
504.19461617615519
 11
558.36126101121306
 21
504.15307704902881
  0
LINE
  8
_0-0_0
  6
CONTINUOUS
 62
    7
 10
558.36126101121306
 20
504.15307704902881
 11
558.3513541607407
 21
504.10924238150591
  0
LINE
  8
_0-0_0
  6
CONTINUOUS
 62
    7
 10
558.3513541607407
 20
504.10924238150591
 11
558.34324311397938
 21
504.06326448432378
  0
LINE
  8
_0-0_0
  6
CONTINUOUS
 62
    7
 10
558.34324311397938
 20
504.06326448432378
 11
558.33674829055792
 21
504.01529566821972
  0
LINE
  8
_0-0_0
  6
CONTINUOUS
 62
    7
 10
558.33674829055792
 20
504.01529566821972
 11
558.33169011010534
 21
503.96548824393079
  0
LINE
  8
_0-0_0
  6
CONTINUOUS
 62
    7
 10
558.33169011010534
 20
503.96548824393079
 11
558.32788899225034
 21
503.91399452219417
  0
LINE
  8
_0-0_0
  6
CONTINUOUS
 62
    7
 10
558.32788899225034
 20
503.91399452219417
 11
558.32516535662216
 21
503.86096681374732
  0
LINE
  8
_0-0_0
  6
CONTINUOUS
 62
    7
 10
558.32516535662216
 20
503.86096681374732
 11
558.32333962284918
 21
503.80655742932709
  0
LINE
  8
_0-0_0
  6
CONTINUOUS
 62
    7
 10
558.32333962284918
 20
503.80655742932709
 11
558.32223221056086
 21
503.75091867967103
  0
LINE
  8
_0-0_0
  6
CONTINUOUS
 62
    7
 10
558.32223221056086
 20
503.75091867967103
 11
558.32166353938555
 21
503.69420287551588
  0
LINE
  8
_0-0_0
  6
CONTINUOUS
 62
    7
 10
558.32166353938555
 20
503.69420287551588
 11
558.32145402895264
 21
503.63656232759934
  0
LINE
  8
_0-0_0
  6
CONTINUOUS
 62
    7
 10
558.32145402895264
 20
503.63656232759934
 11
558.32142409889082
 21
503.57814934665839
  0
LINE
  8
_0-0_0
  6
CONTINUOUS
 62
    7
 10
558.32142409889082
 20
503.57814934665839
 11
558.32142409889082
 21
501.78370538264721
  0
LINE
  8
_0-0_0
  6
CONTINUOUS
 62
    7
 10
558.32142409889082
 20
501.78370538264721
 11
558.32142409889082
 21
500.1387081700135
  0
LINE
  8
_0-0_0
  6
CONTINUOUS
 62
    7
 10
558.32142409889082
 20
500.1387081700135
 11
558.32142409889082
 21
498.63666002391551
  0
LINE
  8
_0-0_0
  6
CONTINUOUS
 62
    7
 10
558.32142409889082
 20
498.63666002391551
 11
558.32142409889082
 21
497.27106325951058
  0
LINE
  8
_0-0_0
  6
CONTINUOUS
 62
    7
 10
558.32142409889082
 20
497.27106325951058
 11
558.3214240988907
 21
496.03542019195629
  0
LINE
  8
_0-0_0
  6
CONTINUOUS
 62
    7
 10
558.3214240988907
 20
496.03542019195629
 11
558.32142409889082
 21
494.92323313641009
  0
LINE
  8
_0-0_0
  6
CONTINUOUS
 62
    7
 10
558.32142409889082
 20
494.92323313641009
 11
558.32142409889082
 21
493.92800440802938
  0
LINE
  8
_0-0_0
  6
CONTINUOUS
 62
    7
 10
558.32142409889082
 20
493.92800440802938
 11
558.32142409889082
 21
493.04323632197162
  0
LINE
  8
_0-0_0
  6
CONTINUOUS
 62
    7
 10
558.32142409889082
 20
493.04323632197162
 11
558.32142409889082
 21
492.26243119339426
  0
LINE
  8
_0-0_0
  6
CONTINUOUS
 62
    7
 10
558.32142409889082
 20
492.26243119339426
 11
558.3214240988907
 21
491.57909133745488
  0
LINE
  8
_0-0_0
  6
CONTINUOUS
 62
    7
 10
558.3214240988907
 20
491.57909133745488
 11
558.32142409889082
 21
490.98671906931099
  0
LINE
  8
_0-0_0
  6
CONTINUOUS
 62
    7
 10
558.32142409889082
 20
490.98671906931099
 11
558.32142409889082
 21
490.47881670411988
  0
LINE
  8
_0-0_0
  6
CONTINUOUS
 62
    7
 10
558.32142409889082
 20
490.47881670411988
 11
558.32142409889082
 21
490.04888655703922
  0
LINE
  8
_0-0_0
  6
CONTINUOUS
 62
    7
 10
558.32142409889082
 20
490.04888655703922
 11
558.32142409889082
 21
489.69043094322626
  0
LINE
  8
_0-0_0
  6
CONTINUOUS
 62
    7
 10
558.32142409889082
 20
489.69043094322626
 11
558.32142409889082
 21
489.39695217783873
  0
LINE
  8
_0-0_0
  6
CONTINUOUS
 62
    7
 10
558.32142409889082
 20
489.39695217783873
 11
558.32142409889082
 21
489.16195257603391
  0
LINE
  8
_0-0_0
  6
CONTINUOUS
 62
    7
 10
558.32142409889082
 20
489.16195257603391
 11
558.32142409889082
 21
488.97893445296927
  0
LINE
  8
_0-0_0
  6
CONTINUOUS
 62
    7
 10
558.32142409889082
 20
488.97893445296927
 11
558.32142409889082
 21
488.84140012380237
  0
LINE
  8
_0-0_0
  6
CONTINUOUS
 62
    7
 10
558.32142409889082
 20
488.84140012380237
 11
558.3214240988907
 21
488.74285190369062
  0
LINE
  8
_0-0_0
  6
CONTINUOUS
 62
    7
 10
558.3214240988907
 20
488.74285190369062
 11
558.32142409889082
 21
488.67679210779158
  0
LINE
  8
_0-0_0
  6
CONTINUOUS
 62
    7
 10
558.32142409889082
 20
488.67679210779158
 11
558.32142409889082
 21
488.63672305126272
  0
LINE
  8
_0-0_0
  6
CONTINUOUS
 62
    7
 10
558.32142409889082
 20
488.63672305126272
 11
558.32142409889082
 21
488.61614704926131
  0
LINE
  8
_0-0_0
  6
CONTINUOUS
 62
    7
 10
558.32142409889082
 20
488.61614704926131
 11
558.3214240988907
 21
488.608566416945
  0
LINE
  8
_0-0_0
  6
CONTINUOUS
 62
    7
 10
558.3214240988907
 20
488.608566416945
 11
558.32142409889082
 21
488.60748346947128
  0
LINE
  8
_0-0_0
  6
CONTINUOUS
 62
    7
 10
558.32142409889082
 20
488.60748346947128
 11
558.31263463739424
 21
488.34662844006738
  0
LINE
  8
_0-0_0
  6
CONTINUOUS
 62
    7
 10
558.31263463739424
 20
488.34662844006738
 11
558.2867632733255
 21
488.09438304706748
  0
LINE
  8
_0-0_0
  6
CONTINUOUS
 62
    7
 10
558.2867632733255
 20
488.09438304706748
 11
558.24455553731605
 21
487.85077312890019
  0
LINE
  8
_0-0_0
  6
CONTINUOUS
 62
    7
 10
558.24455553731605
 20
487.85077312890019
 11
558.18675695999764
 21
487.61582452399409
  0
LINE
  8
_0-0_0
  6
CONTINUOUS
 62
    7
 10
558.18675695999764
 20
487.61582452399409
 11
558.11411307200171
 21
487.38956307077791
  0
LINE
  8
_0-0_0
  6
CONTINUOUS
 62
    7
 10
558.11411307200171
 20
487.38956307077791
 11
558.0273694039596
 21
487.17201460768001
  0
LINE
  8
_0-0_0
  6
CONTINUOUS
 62
    7
 10
558.0273694039596
 20
487.17201460768001
 11
557.92727148650306
 21
486.96320497312922
  0
LINE
  8
_0-0_0
  6
CONTINUOUS
 62
    7
 10
557.92727148650306
 20
486.96320497312922
 11
557.81456485026365
 21
486.76316000555431
  0
LINE
  8
_0-0_0
  6
CONTINUOUS
 62
    7
 10
557.81456485026365
 20
486.76316000555431
 11
557.6899950258728
 21
486.57190554338354
  0
LINE
  8
_0-0_0
  6
CONTINUOUS
 62
    7
 10
557.6899950258728
 20
486.57190554338354
 11
557.55430754396207
 21
486.38946742504601
  0
LINE
  8
_0-0_0
  6
CONTINUOUS
 62
    7
 10
557.55430754396207
 20
486.38946742504601
 11
557.40824793516276
 21
486.21587148896998
  0
LINE
  8
_0-0_0
  6
CONTINUOUS
 62
    7
 10
557.40824793516276
 20
486.21587148896998
 11
557.252561730107
 21
486.05114357358434
  0
LINE
  8
_0-0_0
  6
CONTINUOUS
 62
    7
 10
557.252561730107
 20
486.05114357358434
 11
557.08799445942577
 21
485.89530951731763
  0
LINE
  8
_0-0_0
  6
CONTINUOUS
 62
    7
 10
557.08799445942577
 20
485.89530951731763
 11
556.91529165375084
 21
485.74839515859833
  0
LINE
  8
_0-0_0
  6
CONTINUOUS
 62
    7
 10
556.91529165375084
 20
485.74839515859833
 11
556.73519884371376
 21
485.61042633585521
  0
LINE
  8
_0-0_0
  6
CONTINUOUS
 62
    7
 10
556.73519884371376
 20
485.61042633585521
 11
556.54846155994585
 21
485.48142888751681
  0
LINE
  8
_0-0_0
  6
CONTINUOUS
 62
    7
 10
556.54846155994585
 20
485.48142888751681
 11
556.35582533307888
 21
485.36142865201208
  0
LINE
  8
_0-0_0
  6
CONTINUOUS
 62
    7
 10
556.35582533307888
 20
485.36142865201208
 11
556.1580356937443
 21
485.25045146776932
  0
LINE
  8
_0-0_0
  6
CONTINUOUS
 62
    7
 10
556.1580356937443
 20
485.25045146776932
 11
555.95583817257375
 21
485.1485231732172
  0
LINE
  8
_0-0_0
  6
CONTINUOUS
 62
    7
 10
555.95583817257375
 20
485.1485231732172
 11
555.74997830019834
 21
485.05566960678442
  0
LINE
  8
_0-0_0
  6
CONTINUOUS
 62
    7
 10
555.74997830019834
 20
485.05566960678442
 11
555.54120160725051
 21
484.9719166068997
  0
LINE
  8
_0-0_0
  6
CONTINUOUS
 62
    7
 10
555.54120160725051
 20
484.9719166068997
 11
555.33025362436081
 21
484.89729001199152
  0
LINE
  8
_0-0_0
  6
CONTINUOUS
 62
    7
 10
555.33025362436081
 20
484.89729001199152
 11
555.11787988216122
 21
484.83181566048859
  0
LINE
  8
_0-0_0
  6
CONTINUOUS
 62
    7
 10
555.11787988216122
 20
484.83181566048859
 11
554.90482591128307
 21
484.77551939081962
  0
LINE
  8
_0-0_0
  6
CONTINUOUS
 62
    7
 10
554.90482591128307
 20
484.77551939081962
 11
554.51934440060222
 21
484.77551939081962
  0
LINE
  8
_0-0_0
  6
CONTINUOUS
 62
    7
 10
554.51934440060222
 20
484.77551939081962
 11
554.16596696262718
 21
484.77551939081962
  0
LINE
  8
_0-0_0
  6
CONTINUOUS
 62
    7
 10
554.16596696262718
 20
484.77551939081962
 11
553.84329776811023
 21
484.77551939081962
  0
LINE
  8
_0-0_0
  6
CONTINUOUS
 62
    7
 10
553.84329776811023
 20
484.77551939081962
 11
553.54994098780321
 21
484.77551939081962
  0
LINE
  8
_0-0_0
  6
CONTINUOUS
 62
    7
 10
553.54994098780321
 20
484.77551939081962
 11
553.28450079245806
 21
484.77551939081962
  0
LINE
  8
_0-0_0
  6
CONTINUOUS
 62
    7
 10
553.28450079245806
 20
484.77551939081962
 11
553.0455813528265
 21
484.77551939081945
  0
LINE
  8
_0-0_0
  6
CONTINUOUS
 62
    7
 10
553.0455813528265
 20
484.77551939081945
 11
552.83178683966048
 21
484.77551939081962
  0
LINE
  8
_0-0_0
  6
CONTINUOUS
 62
    7
 10
552.83178683966048
 20
484.77551939081962
 11
552.64172142371217
 21
484.77551939081962
  0
LINE
  8
_0-0_0
  6
CONTINUOUS
 62
    7
 10
552.64172142371217
 20
484.77551939081962
 11
552.4739892757334
 21
484.77551939081962
  0
LINE
  8
_0-0_0
  6
CONTINUOUS
 62
    7
 10
552.4739892757334
 20
484.77551939081962
 11
552.3271945664759
 21
484.77551939081962
  0
LINE
  8
_0-0_0
  6
CONTINUOUS
 62
    7
 10
552.3271945664759
 20
484.77551939081962
 11
552.1999414666916
 21
484.77551939081962
  0
LINE
  8
_0-0_0
  6
CONTINUOUS
 62
    7
 10
552.1999414666916
 20
484.77551939081962
 11
552.09083414713245
 21
484.77551939081962
  0
LINE
  8
_0-0_0
  6
CONTINUOUS
 62
    7
 10
552.09083414713245
 20
484.77551939081962
 11
551.99847677855041
 21
484.77551939081962
  0
LINE
  8
_0-0_0
  6
CONTINUOUS
 62
    7
 10
551.99847677855041
 20
484.77551939081962
 11
551.92147353169753
 21
484.77551939081962
  0
LINE
  8
_0-0_0
  6
CONTINUOUS
 62
    7
 10
551.92147353169753
 20
484.77551939081962
 11
551.85842857732541
 21
484.77551939081962
  0
LINE
  8
_0-0_0
  6
CONTINUOUS
 62
    7
 10
551.85842857732541
 20
484.77551939081962
 11
551.80794608618612
 21
484.77551939081962
  0
LINE
  8
_0-0_0
  6
CONTINUOUS
 62
    7
 10
551.80794608618612
 20
484.77551939081962
 11
551.7686302290316
 21
484.77551939081962
  0
LINE
  8
_0-0_0
  6
CONTINUOUS
 62
    7
 10
551.7686302290316
 20
484.77551939081962
 11
551.73908517661368
 21
484.77551939081962
  0
LINE
  8
_0-0_0
  6
CONTINUOUS
 62
    7
 10
551.73908517661368
 20
484.77551939081962
 11
551.71791509968432
 21
484.77551939081962
  0
LINE
  8
_0-0_0
  6
CONTINUOUS
 62
    7
 10
551.71791509968432
 20
484.77551939081962
 11
551.70372416899534
 21
484.77551939081945
  0
LINE
  8
_0-0_0
  6
CONTINUOUS
 62
    7
 10
551.70372416899534
 20
484.77551939081945
 11
551.69511655529868
 21
484.77551939081962
  0
LINE
  8
_0-0_0
  6
CONTINUOUS
 62
    7
 10
551.69511655529868
 20
484.77551939081962
 11
551.69069642934653
 21
484.77551939081962
  0
LINE
  8
_0-0_0
  6
CONTINUOUS
 62
    7
 10
551.69069642934653
 20
484.77551939081962
 11
551.68906796189037
 21
484.77551939081962
  0
LINE
  8
_0-0_0
  6
CONTINUOUS
 62
    7
 10
551.68906796189037
 20
484.77551939081962
 11
551.68883532368238
 21
484.77551939081962
  0
LINE
  8
_0-0_0
  6
CONTINUOUS
 62
    7
 10
566.66544646165357
 20
545.79241920085155
 11
547.38830989854648
 21
561.84718938810602
  0
LINE
  8
_0-0_0
  6
CONTINUOUS
 62
    7
 10
551.48509322992584
 20
545.79241920085155
 11
551.48509322992584
 21
546.66972904714953
  0
LINE
  8
_0-0_0
  6
CONTINUOUS
 62
    7
 10
551.48509322992584
 20
546.66972904714953
 11
551.48509322992584
 21
547.7068346154515
  0
LINE
  8
_0-0_0
  6
CONTINUOUS
 62
    7
 10
550.19681629863464
 20
544.49525392811051
 11
550.19681629863464
 21
548.79720542442237
  0
LINE
  8
_0-0_0
  6
CONTINUOUS
 62
    7
 10
551.48509322992584
 20
545.79241920085155
 11
551.48509322992584
 21
546.66972904714953
  0
LINE
  8
_0-0_0
  6
CONTINUOUS
 62
    7
 10
551.48509322992584
 20
546.66972904714953
 11
551.48509322992584
 21
547.7068346154515
  0
LINE
  8
_0-0_0
  6
CONTINUOUS
 62
    7
 10
550.19681629863464
 20
544.49525392811051
 11
550.19681629863464
 21
548.79720542442237
  0
LINE
  8
_0-0_0
  6
CONTINUOUS
 62
    7
 10
547.38830989854648
 20
437.8488423622249
 11
547.38830989854648
 21
438.25929804031517
  0
LINE
  8
_0-0_0
  6
CONTINUOUS
 62
    7
 10
547.38830989854648
 20
438.25929804031517
 11
547.38830989854648
 21
438.46922575353551
  0
LINE
  8
_0-0_0
  6
CONTINUOUS
 62
    7
 10
547.38830989854648
 20
438.46922575353551
 11
547.38830989854648
 21
438.67915346675761
  0
LINE
  8
_0-0_0
  6
CONTINUOUS
 62
    7
 10
547.38830989854648
 20
438.67915346675761
 11
547.38830989854648
 21
438.88281468107692
  0
LINE
  8
_0-0_0
  6
CONTINUOUS
 62
    7
 10
547.38830989854648
 20
438.88281468107692
 11
547.38830989854648
 21
439.14287438551514
  0
LINE
  8
_0-0_0
  6
CONTINUOUS
 62
    7
 10
547.38830989854648
 20
439.14287438551514
 11
547.38830989854648
 21
439.34966884928531
  0
LINE
  8
_0-0_0
  6
CONTINUOUS
 62
    7
 10
547.38830989854648
 20
439.34966884928531
 11
547.38830989854648
 21
439.76325777682581
  0
LINE
  8
_0-0_0
  6
CONTINUOUS
 62
    7
 10
547.38830989854648
 20
435.05085060242521
 11
547.38830989854648
 21
435.46757277941663
  0
LINE
  8
_0-0_0
  6
CONTINUOUS
 62
    7
 10
547.38830989854648
 20
435.46757277941663
 11
547.38830989854648
 21
435.67123399373588
  0
LINE
  8
_0-0_0
  6
CONTINUOUS
 62
    7
 10
547.38830989854648
 20
435.67123399373588
 11
547.38830989854648
 21
435.93129369817399
  0
LINE
  8
_0-0_0
  6
CONTINUOUS
 62
    7
 10
547.38830989854648
 20
435.93129369817399
 11
547.38830989854648
 21
436.13808816194421
  0
LINE
  8
_0-0_0
  6
CONTINUOUS
 62
    7
 10
547.38830989854648
 20
436.13808816194421
 11
547.38830989854648
 21
436.3480158751654
  0
LINE
  8
_0-0_0
  6
CONTINUOUS
 62
    7
 10
547.38830989854648
 20
436.3480158751654
 11
547.38830989854648
 21
436.96839926647601
  0
LINE
  8
_0-0_0
  6
CONTINUOUS
 62
    7
 10
547.38830989854648
 20
436.96839926647601
 11
547.38830989854648
 21
437.17206048079532
  0
LINE
  8
_0-0_0
  6
CONTINUOUS
 62
    7
 10
547.38830989854648
 20
437.17206048079532
 11
547.38830989854648
 21
437.43525343468445
  0
LINE
  8
_0-0_0
  6
CONTINUOUS
 62
    7
 10
547.38830989854648
 20
437.43525343468445
 11
547.38830989854648
 21
437.64204789845462
  0
LINE
  8
_0-0_0
  6
CONTINUOUS
 62
    7
 10
547.38830989854648
 20
437.64204789845462
 11
547.38830989854648
 21
437.8488423622249
  0
LINE
  8
_0-0_0
  6
CONTINUOUS
 62
    7
 10
550.19681629863464
 20
543.66807607302962
 11
550.19681629863464
 21
544.49525392811051
  0
LINE
  8
_0-0_0
  6
CONTINUOUS
 62
    7
 10
550.19681629863464
 20
548.79720542442237
 11
550.19681629863464
 21
549.46458755749813
  0
LINE
  8
_0-0_0
  6
CONTINUOUS
 62
    7
 10
550.39742389864205
 20
545.17203580954015
 11
550.39742389864205
 21
548.17368878366005
  0
LINE
  8
_0-0_0
  6
CONTINUOUS
 62
    7
 10
550.39742389864205
 20
545.17203580954015
 11
550.39742389864205
 21
548.17368878366005
  0
LINE
  8
_0-0_0
  6
CONTINUOUS
 62
    7
 10
539.87806287331045
 20
452.40278606242072
 11
539.87806287331045
 21
550.71162083902232
  0
LINE
  8
_0-0_0
  6
CONTINUOUS
 62
    7
 10
539.87806287331045
 20
551.38526947100104
 11
539.87806287331045
 21
452.19599159865049
  0
LINE
  8
_0-0_0
  6
CONTINUOUS
 62
    7
 10
539.87806287331045
 20
452.19599159865049
 11
537.75287611074418
 21
452.19599159865049
  0
LINE
  8
_0-0_0
  6
CONTINUOUS
 62
    7
 10
547.38830989854648
 20
439.76325777682581
 11
547.38830989854648
 21
561.84718938810602
  0
LINE
  8
_0-0_0
  6
CONTINUOUS
 62
    7
 10
537.75287611074418
 20
551.38526947100104
 11
537.75287611074418
 21
552.51496546173951
  0
LINE
  8
_0-0_0
  6
CONTINUOUS
 62
    7
 10
537.75287611074418
 20
552.51496546173951
 11
537.75287611074418
 21
553.55057693423873
  0
LINE
  8
_0-0_0
  6
CONTINUOUS
 62
    7
 10
537.75287611074418
 20
553.55057693423873
 11
537.75287611074407
 21
554.49619451972683
  0
LINE
  8
_0-0_0
  6
CONTINUOUS
 62
    7
 10
537.75287611074407
 20
554.49619451972683
 11
537.75287611074418
 21
555.3559088494319
  0
LINE
  8
_0-0_0
  6
CONTINUOUS
 62
    7
 10
537.75287611074418
 20
555.3559088494319
 11
537.75287611074418
 21
556.13381055458115
  0
LINE
  8
_0-0_0
  6
CONTINUOUS
 62
    7
 10
537.75287611074418
 20
556.13381055458115
 11
537.75287611074418
 21
556.83399026640257
  0
LINE
  8
_0-0_0
  6
CONTINUOUS
 62
    7
 10
537.75287611074418
 20
556.83399026640257
 11
537.7528761107443
 21
557.46053861612415
  0
LINE
  8
_0-0_0
  6
CONTINUOUS
 62
    7
 10
537.7528761107443
 20
557.46053861612415
 11
537.75287611074418
 21
558.01754623497334
  0
LINE
  8
_0-0_0
  6
CONTINUOUS
 62
    7
 10
537.75287611074418
 20
558.01754623497334
 11
537.75287611074418
 21
558.50910375417811
  0
LINE
  8
_0-0_0
  6
CONTINUOUS
 62
    7
 10
537.75287611074418
 20
558.50910375417811
 11
537.75287611074418
 21
558.93930180496625
  0
LINE
  8
_0-0_0
  6
CONTINUOUS
 62
    7
 10
537.75287611074418
 20
558.93930180496625
 11
537.75287611074418
 21
559.3122310185654
  0
LINE
  8
_0-0_0
  6
CONTINUOUS
 62
    7
 10
537.75287611074418
 20
559.3122310185654
 11
537.75287611074418
 21
559.63198202620345
  0
LINE
  8
_0-0_0
  6
CONTINUOUS
 62
    7
 10
537.75287611074418
 20
559.63198202620345
 11
537.75287611074418
 21
559.90264545910816
  0
LINE
  8
_0-0_0
  6
CONTINUOUS
 62
    7
 10
537.75287611074418
 20
559.90264545910816
 11
537.75287611074418
 21
560.1283119485073
  0
LINE
  8
_0-0_0
  6
CONTINUOUS
 62
    7
 10
537.75287611074418
 20
560.1283119485073
 11
537.75287611074418
 21
560.31307212562865
  0
LINE
  8
_0-0_0
  6
CONTINUOUS
 62
    7
 10
537.75287611074418
 20
560.31307212562865
 11
537.75287611074418
 21
560.46101662169997
  0
LINE
  8
_0-0_0
  6
CONTINUOUS
 62
    7
 10
537.75287611074418
 20
560.46101662169997
 11
537.75287611074418
 21
560.57623606794914
  0
LINE
  8
_0-0_0
  6
CONTINUOUS
 62
    7
 10
537.75287611074418
 20
560.57623606794914
 11
537.75287611074418
 21
560.6628210956037
  0
LINE
  8
_0-0_0
  6
CONTINUOUS
 62
    7
 10
537.75287611074418
 20
560.6628210956037
 11
537.75287611074418
 21
560.72486233589166
  0
LINE
  8
_0-0_0
  6
CONTINUOUS
 62
    7
 10
537.75287611074418
 20
560.72486233589166
 11
537.75287611074418
 21
560.76645042004088
  0
LINE
  8
_0-0_0
  6
CONTINUOUS
 62
    7
 10
537.75287611074418
 20
560.76645042004088
 11
537.75287611074418
 21
560.79167597927881
  0
LINE
  8
_0-0_0
  6
CONTINUOUS
 62
    7
 10
537.75287611074418
 20
560.79167597927881
 11
537.75287611074418
 21
560.80462964483354
  0
LINE
  8
_0-0_0
  6
CONTINUOUS
 62
    7
 10
537.75287611074418
 20
560.80462964483354
 11
537.75287611074418
 21
560.80940204793251
  0
LINE
  8
_0-0_0
  6
CONTINUOUS
 62
    7
 10
537.75287611074418
 20
560.80940204793251
 11
537.75287611074418
 21
560.81008381980382
  0
LINE
  8
_0-0_0
  6
CONTINUOUS
 62
    7
 10
537.75287611074418
 20
560.81008381980382
 11
537.75397218588807
 21
560.88691529395533
  0
LINE
  8
_0-0_0
  6
CONTINUOUS
 62
    7
 10
537.75397218588807
 20
560.88691529395533
 11
537.75733478298821
 21
560.9614716264698
  0
LINE
  8
_0-0_0
  6
CONTINUOUS
 62
    7
 10
537.75733478298821
 20
560.9614716264698
 11
537.76307545954819
 21
561.03366442272306
  0
LINE
  8
_0-0_0
  6
CONTINUOUS
 62
    7
 10
537.76307545954819
 20
561.03366442272306
 11
537.77130577307116
 21
561.1034052880907
  0
LINE
  8
_0-0_0
  6
CONTINUOUS
 62
    7
 10
537.77130577307116
 20
561.1034052880907
 11
537.78213728106039
 21
561.17060582794852
  0
LINE
  8
_0-0_0
  6
CONTINUOUS
 62
    7
 10
537.78213728106039
 20
561.17060582794852
 11
537.79568154101889
 21
561.23517764767234
  0
LINE
  8
_0-0_0
  6
CONTINUOUS
 62
    7
 10
537.79568154101889
 20
561.23517764767234
 11
537.8120501104504
 21
561.29703235263787
  0
LINE
  8
_0-0_0
  6
CONTINUOUS
 62
    7
 10
537.8120501104504
 20
561.29703235263787
 11
537.83135454685771
 21
561.35608154822069
  0
LINE
  8
_0-0_0
  6
CONTINUOUS
 62
    7
 10
537.83135454685771
 20
561.35608154822069
 11
537.85370640774443
 21
561.41223683979661
  0
LINE
  8
_0-0_0
  6
CONTINUOUS
 62
    7
 10
537.85370640774443
 20
561.41223683979661
 11
537.87921725061346
 21
561.46540983274144
  0
LINE
  8
_0-0_0
  6
CONTINUOUS
 62
    7
 10
537.87921725061346
 20
561.46540983274144
 11
537.90799863296854
 21
561.51551213243079
  0
LINE
  8
_0-0_0
  6
CONTINUOUS
 62
    7
 10
537.90799863296854
 20
561.51551213243079
 11
537.94016211231246
 21
561.56245534424045
  0
LINE
  8
_0-0_0
  6
CONTINUOUS
 62
    7
 10
537.94016211231246
 20
561.56245534424045
 11
537.97581924614883
 21
561.60615107354624
  0
LINE
  8
_0-0_0
  6
CONTINUOUS
 62
    7
 10
537.97581924614883
 20
561.60615107354624
 11
538.01508159198079
 21
561.64651092572376
  0
LINE
  8
_0-0_0
  6
CONTINUOUS
 62
    7
 10
538.01508159198079
 20
561.64651092572376
 11
538.05806070731137
 21
561.6834465061487
  0
LINE
  8
_0-0_0
  6
CONTINUOUS
 62
    7
 10
538.05806070731137
 20
561.6834465061487
 11
538.10486814964406
 21
561.71686942019687
  0
LINE
  8
_0-0_0
  6
CONTINUOUS
 62
    7
 10
538.10486814964406
 20
561.71686942019687
 11
538.15561547648224
 21
561.7466912732441
  0
LINE
  8
_0-0_0
  6
CONTINUOUS
 62
    7
 10
538.15561547648224
 20
561.7466912732441
 11
538.21041424532893
 21
561.77282367066584
  0
LINE
  8
_0-0_0
  6
CONTINUOUS
 62
    7
 10
538.21041424532893
 20
561.77282367066584
 11
538.26937601368741
 21
561.79517821783816
  0
LINE
  8
_0-0_0
  6
CONTINUOUS
 62
    7
 10
538.26937601368741
 20
561.79517821783816
 11
538.33261233906092
 21
561.81366652013651
  0
LINE
  8
_0-0_0
  6
CONTINUOUS
 62
    7
 10
538.33261233906092
 20
561.81366652013651
 11
538.40023477895306
 21
561.82820018293683
  0
LINE
  8
_0-0_0
  6
CONTINUOUS
 62
    7
 10
538.40023477895306
 20
561.82820018293683
 11
538.47235489086654
 21
561.83869081161458
  0
LINE
  8
_0-0_0
  6
CONTINUOUS
 62
    7
 10
538.47235489086654
 20
561.83869081161458
 11
538.54908423230506
 21
561.84505001154571
  0
LINE
  8
_0-0_0
  6
CONTINUOUS
 62
    7
 10
538.54908423230506
 20
561.84505001154571
 11
538.63053436077178
 21
561.84718938810602
  0
LINE
  8
_0-0_0
  6
CONTINUOUS
 62
    7
 10
538.63053436077178
 20
561.84718938810602
 11
539.68027640837681
 21
561.84718938810602
  0
LINE
  8
_0-0_0
  6
CONTINUOUS
 62
    7
 10
539.68027640837681
 20
561.84718938810602
 11
540.64259274531832
 21
561.84718938810602
  0
LINE
  8
_0-0_0
  6
CONTINUOUS
 62
    7
 10
540.64259274531832
 20
561.84718938810602
 11
541.5212844894512
 21
561.8471893881059
  0
LINE
  8
_0-0_0
  6
CONTINUOUS
 62
    7
 10
541.5212844894512
 20
561.8471893881059
 11
542.32015275863046
 21
561.8471893881059
  0
LINE
  8
_0-0_0
  6
CONTINUOUS
 62
    7
 10
542.32015275863046
 20
561.8471893881059
 11
543.04299867071097
 21
561.8471893881059
  0
LINE
  8
_0-0_0
  6
CONTINUOUS
 62
    7
 10
543.04299867071097
 20
561.8471893881059
 11
543.69362334354776
 21
561.84718938810602
  0
LINE
  8
_0-0_0
  6
CONTINUOUS
 62
    7
 10
543.69362334354776
 20
561.84718938810602
 11
544.27582789499547
 21
561.84718938810602
  0
LINE
  8
_0-0_0
  6
CONTINUOUS
 62
    7
 10
544.27582789499547
 20
561.84718938810602
 11
544.79341344290947
 21
561.84718938810602
  0
LINE
  8
_0-0_0
  6
CONTINUOUS
 62
    7
 10
544.79341344290947
 20
561.84718938810602
 11
545.25018110514452
 21
561.84718938810602
  0
LINE
  8
_0-0_0
  6
CONTINUOUS
 62
    7
 10
545.25018110514452
 20
561.84718938810602
 11
545.64993199955529
 21
561.84718938810613
  0
LINE
  8
_0-0_0
  6
CONTINUOUS
 62
    7
 10
545.64993199955529
 20
561.84718938810613
 11
545.99646724399702
 21
561.84718938810602
  0
LINE
  8
_0-0_0
  6
CONTINUOUS
 62
    7
 10
545.99646724399702
 20
561.84718938810602
 11
546.29358795632459
 21
561.84718938810602
  0
LINE
  8
_0-0_0
  6
CONTINUOUS
 62
    7
 10
546.29358795632459
 20
561.84718938810602
 11
546.54509525439289
 21
561.84718938810602
  0
LINE
  8
_0-0_0
  6
CONTINUOUS
 62
    7
 10
546.54509525439289
 20
561.84718938810602
 11
546.75479025605694
 21
561.84718938810602
  0
LINE
  8
_0-0_0
  6
CONTINUOUS
 62
    7
 10
546.75479025605694
 20
561.84718938810602
 11
546.92647407917161
 21
561.84718938810602
  0
LINE
  8
_0-0_0
  6
CONTINUOUS
 62
    7
 10
546.92647407917161
 20
561.84718938810602
 11
547.06394784159193
 21
561.84718938810602
  0
LINE
  8
_0-0_0
  6
CONTINUOUS
 62
    7
 10
547.06394784159193
 20
561.84718938810602
 11
547.17101266117254
 21
561.84718938810602
  0
LINE
  8
_0-0_0
  6
CONTINUOUS
 62
    7
 10
547.17101266117254
 20
561.84718938810602
 11
547.25146965576869
 21
561.84718938810602
  0
LINE
  8
_0-0_0
  6
CONTINUOUS
 62
    7
 10
547.25146965576869
 20
561.84718938810602
 11
547.30911994323515
 21
561.84718938810602
  0
LINE
  8
_0-0_0
  6
CONTINUOUS
 62
    7
 10
547.30911994323515
 20
561.84718938810602
 11
547.34776464142715
 21
561.84718938810602
  0
LINE
  8
_0-0_0
  6
CONTINUOUS
 62
    7
 10
547.34776464142715
 20
561.84718938810602
 11
547.37120486819913
 21
561.84718938810602
  0
LINE
  8
_0-0_0
  6
CONTINUOUS
 62
    7
 10
547.37120486819913
 20
561.84718938810602
 11
547.38324174140655
 21
561.84718938810602
  0
LINE
  8
_0-0_0
  6
CONTINUOUS
 62
    7
 10
547.38324174140655
 20
561.84718938810602
 11
547.38767637890408
 21
561.84718938810602
  0
LINE
  8
_0-0_0
  6
CONTINUOUS
 62
    7
 10
547.38767637890408
 20
561.84718938810602
 11
547.38830989854648
 21
561.84718938810602
  0
LINE
  8
_0-0_0
  6
CONTINUOUS
 62
    7
 10
537.75287611074418
 20
551.38526947100104
 11
539.87806287331045
 21
551.38526947100104
  0
LINE
  8
_0-0_0
  6
CONTINUOUS
 62
    7
 10
547.38830989854648
 20
434.84718938810602
 11
546.23336821839689
 21
434.84718938810607
  0
LINE
  8
_0-0_0
  6
CONTINUOUS
 62
    7
 10
546.23336821839689
 20
434.84718938810607
 11
545.17461359428864
 21
434.84718938810602
  0
LINE
  8
_0-0_0
  6
CONTINUOUS
 62
    7
 10
545.17461359428864
 20
434.84718938810602
 11
544.20786398030702
 21
434.84718938810602
  0
LINE
  8
_0-0_0
  6
CONTINUOUS
 62
    7
 10
544.20786398030702
 20
434.84718938810602
 11
543.3289373305372
 21
434.84718938810602
  0
LINE
  8
_0-0_0
  6
CONTINUOUS
 62
    7
 10
543.3289373305372
 20
434.84718938810602
 11
542.53365159906423
 21
434.84718938810602
  0
LINE
  8
_0-0_0
  6
CONTINUOUS
 62
    7
 10
542.53365159906423
 20
434.84718938810602
 11
541.81782473997328
 21
434.84718938810602
  0
LINE
  8
_0-0_0
  6
CONTINUOUS
 62
    7
 10
541.81782473997328
 20
434.84718938810602
 11
541.17727470734962
 21
434.84718938810602
  0
LINE
  8
_0-0_0
  6
CONTINUOUS
 62
    7
 10
541.17727470734962
 20
434.84718938810602
 11
540.60781945527822
 21
434.84718938810602
  0
LINE
  8
_0-0_0
  6
CONTINUOUS
 62
    7
 10
540.60781945527822
 20
434.84718938810602
 11
540.10527693784434
 21
434.84718938810602
  0
LINE
  8
_0-0_0
  6
CONTINUOUS
 62
    7
 10
540.10527693784434
 20
434.84718938810602
 11
539.66546510913315
 21
434.84718938810602
  0
LINE
  8
_0-0_0
  6
CONTINUOUS
 62
    7
 10
539.66546510913315
 20
434.84718938810602
 11
539.28420192322983
 21
434.84718938810602
  0
LINE
  8
_0-0_0
  6
CONTINUOUS
 62
    7
 10
539.28420192322983
 20
434.84718938810602
 11
538.95730533421943
 21
434.84718938810602
  0
LINE
  8
_0-0_0
  6
CONTINUOUS
 62
    7
 10
538.95730533421943
 20
434.84718938810602
 11
538.68059329618723
 21
434.84718938810602
  0
LINE
  8
_0-0_0
  6
CONTINUOUS
 62
    7
 10
538.68059329618723
 20
434.84718938810602
 11
538.44988376321817
 21
434.84718938810602
  0
LINE
  8
_0-0_0
  6
CONTINUOUS
 62
    7
 10
538.44988376321817
 20
434.84718938810602
 11
538.26099468939788
 21
434.84718938810607
  0
LINE
  8
_0-0_0
  6
CONTINUOUS
 62
    7
 10
538.26099468939788
 20
434.84718938810607
 11
538.10974402881084
 21
434.84718938810602
  0
LINE
  8
_0-0_0
  6
CONTINUOUS
 62
    7
 10
538.10974402881084
 20
434.84718938810602
 11
537.9919497355429
 21
434.84718938810602
  0
LINE
  8
_0-0_0
  6
CONTINUOUS
 62
    7
 10
537.9919497355429
 20
434.84718938810602
 11
537.90342976367856
 21
434.84718938810602
  0
LINE
  8
_0-0_0
  6
CONTINUOUS
 62
    7
 10
537.90342976367856
 20
434.84718938810602
 11
537.84000206730343
 21
434.84718938810602
  0
LINE
  8
_0-0_0
  6
CONTINUOUS
 62
    7
 10
537.84000206730343
 20
434.84718938810602
 11
537.79748460050257
 21
434.84718938810602
  0
LINE
  8
_0-0_0
  6
CONTINUOUS
 62
    7
 10
537.79748460050257
 20
434.84718938810602
 11
537.77169531736104
 21
434.84718938810602
  0
LINE
  8
_0-0_0
  6
CONTINUOUS
 62
    7
 10
537.77169531736104
 20
434.84718938810602
 11
537.758452171964
 21
434.84718938810602
  0
LINE
  8
_0-0_0
  6
CONTINUOUS
 62
    7
 10
537.758452171964
 20
434.84718938810602
 11
537.75357311839662
 21
434.84718938810602
  0
LINE
  8
_0-0_0
  6
CONTINUOUS
 62
    7
 10
537.75357311839662
 20
434.84718938810602
 11
537.75287611074418
 21
434.84718938810602
  0
LINE
  8
_0-0_0
  6
CONTINUOUS
 62
    7
 10
537.75287611074418
 20
434.84718938810602
 11
537.39294308225237
 21
435.33091559690615
  0
LINE
  8
_0-0_0
  6
CONTINUOUS
 62
    7
 10
537.39294308225237
 20
435.33091559690615
 11
537.0629863711606
 21
435.77435561571565
  0
LINE
  8
_0-0_0
  6
CONTINUOUS
 62
    7
 10
537.0629863711606
 20
435.77435561571565
 11
536.76170265932114
 21
436.17926101801243
  0
LINE
  8
_0-0_0
  6
CONTINUOUS
 62
    7
 10
536.76170265932114
 20
436.17926101801243
 11
536.48778862858592
 21
436.54738337727429
  0
LINE
  8
_0-0_0
  6
CONTINUOUS
 62
    7
 10
536.48778862858592
 20
436.54738337727429
 11
536.2399409608073
 21
436.88047426697904
  0
LINE
  8
_0-0_0
  6
CONTINUOUS
 62
    7
 10
536.2399409608073
 20
436.88047426697904
 11
536.01685633783745
 21
437.18028526060482
  0
LINE
  8
_0-0_0
  6
CONTINUOUS
 62
    7
 10
536.01685633783745
 20
437.18028526060482
 11
535.81723144152852
 21
437.4485679316291
  0
LINE
  8
_0-0_0
  6
CONTINUOUS
 62
    7
 10
535.81723144152852
 20
437.4485679316291
 11
535.63976295373266
 21
437.68707385353002
  0
LINE
  8
_0-0_0
  6
CONTINUOUS
 62
    7
 10
535.63976295373266
 20
437.68707385353002
 11
535.48314755630201
 21
437.89755459978505
  0
LINE
  8
_0-0_0
  6
CONTINUOUS
 62
    7
 10
535.48314755630201
 20
437.89755459978505
 11
535.34608193108875
 21
438.08176174387262
  0
LINE
  8
_0-0_0
  6
CONTINUOUS
 62
    7
 10
535.34608193108875
 20
438.08176174387262
 11
535.22726275994523
 21
438.24144685927013
  0
LINE
  8
_0-0_0
  6
CONTINUOUS
 62
    7
 10
535.22726275994523
 20
438.24144685927013
 11
535.12538672472328
 21
438.37836151945561
  0
LINE
  8
_0-0_0
  6
CONTINUOUS
 62
    7
 10
535.12538672472328
 20
438.37836151945561
 11
535.03915050727528
 21
438.49425729790681
  0
LINE
  8
_0-0_0
  6
CONTINUOUS
 62
    7
 10
535.03915050727528
 20
438.49425729790681
 11
534.96725078945349
 21
438.59088576810154
  0
LINE
  8
_0-0_0
  6
CONTINUOUS
 62
    7
 10
534.96725078945349
 20
438.59088576810154
 11
534.90838425310983
 21
438.66999850351772
  0
LINE
  8
_0-0_0
  6
CONTINUOUS
 62
    7
 10
534.90838425310983
 20
438.66999850351772
 11
534.8612475800968
 21
438.73334707763348
  0
LINE
  8
_0-0_0
  6
CONTINUOUS
 62
    7
 10
534.8612475800968
 20
438.73334707763348
 11
534.82453745226633
 21
438.78268306392641
  0
LINE
  8
_0-0_0
  6
CONTINUOUS
 62
    7
 10
534.82453745226633
 20
438.78268306392641
 11
534.79695055147067
 21
438.8197580358742
  0
LINE
  8
_0-0_0
  6
CONTINUOUS
 62
    7
 10
534.79695055147067
 20
438.8197580358742
 11
534.77718355956199
 21
438.84632356695499
  0
LINE
  8
_0-0_0
  6
CONTINUOUS
 62
    7
 10
534.77718355956199
 20
438.84632356695499
 11
534.76393315839232
 21
438.86413123064642
  0
LINE
  8
_0-0_0
  6
CONTINUOUS
 62
    7
 10
534.76393315839232
 20
438.86413123064642
 11
534.75589602981415
 21
438.87493260042663
  0
LINE
  8
_0-0_0
  6
CONTINUOUS
 62
    7
 10
534.75589602981415
 20
438.87493260042663
 11
534.7517688556793
 21
438.88047924977309
  0
LINE
  8
_0-0_0
  6
CONTINUOUS
 62
    7
 10
534.7517688556793
 20
438.88047924977309
 11
534.75024831784003
 21
438.88252275216382
  0
LINE
  8
_0-0_0
  6
CONTINUOUS
 62
    7
 10
534.75024831784003
 20
438.88252275216382
 11
534.75003109814884
 21
438.88281468107692
  0
LINE
  8
_0-0_0
  6
CONTINUOUS
 62
    7
 10
534.75003109814884
 20
438.88281468107692
 11
535.0387156144069
 21
439.54437047514978
  0
LINE
  8
_0-0_0
  6
CONTINUOUS
 62
    7
 10
535.0387156144069
 20
439.54437047514978
 11
535.30954548831437
 21
440.18304430079229
  0
LINE
  8
_0-0_0
  6
CONTINUOUS
 62
    7
 10
535.30954548831437
 20
440.18304430079229
 11
535.5630159263485
 21
440.80079171907687
  0
LINE
  8
_0-0_0
  6
CONTINUOUS
 62
    7
 10
535.5630159263485
 20
440.80079171907687
 11
535.79962213498789
 21
441.39956829107552
  0
LINE
  8
_0-0_0
  6
CONTINUOUS
 62
    7
 10
535.79962213498789
 20
441.39956829107552
 11
536.01985932070988
 21
441.98132957786078
  0
LINE
  8
_0-0_0
  6
CONTINUOUS
 62
    7
 10
536.01985932070988
 20
441.98132957786078
 11
536.22422268999253
 21
442.54803114050497
  0
LINE
  8
_0-0_0
  6
CONTINUOUS
 62
    7
 10
536.22422268999253
 20
442.54803114050497
 11
536.41320744931386
 21
443.10162854008058
  0
LINE
  8
_0-0_0
  6
CONTINUOUS
 62
    7
 10
536.41320744931386
 20
443.10162854008058
 11
536.58730880515179
 21
443.64407733765938
  0
LINE
  8
_0-0_0
  6
CONTINUOUS
 62
    7
 10
536.58730880515179
 20
443.64407733765938
 11
536.7470219639838
 21
444.17733309431418
  0
LINE
  8
_0-0_0
  6
CONTINUOUS
 62
    7
 10
536.7470219639838
 20
444.17733309431418
 11
536.89284213228814
 21
444.70335137111738
  0
LINE
  8
_0-0_0
  6
CONTINUOUS
 62
    7
 10
536.89284213228814
 20
444.70335137111738
 11
537.02526451654262
 21
445.22408772914082
  0
LINE
  8
_0-0_0
  6
CONTINUOUS
 62
    7
 10
537.02526451654262
 20
445.22408772914082
 11
537.14478432322505
 21
445.74149772945731
  0
LINE
  8
_0-0_0
  6
CONTINUOUS
 62
    7
 10
537.14478432322505
 20
445.74149772945731
 11
537.25189675881325
 21
446.25753693313879
  0
LINE
  8
_0-0_0
  6
CONTINUOUS
 62
    7
 10
537.25189675881325
 20
446.25753693313879
 11
537.34709702978523
 21
446.7741609012578
  0
LINE
  8
_0-0_0
  6
CONTINUOUS
 62
    7
 10
537.34709702978523
 20
446.7741609012578
 11
537.43088034261882
 21
447.29332519488662
  0
LINE
  8
_0-0_0
  6
CONTINUOUS
 62
    7
 10
537.43088034261882
 20
447.29332519488662
 11
537.50374190379193
 21
447.8169853750976
  0
LINE
  8
_0-0_0
  6
CONTINUOUS
 62
    7
 10
537.50374190379193
 20
447.8169853750976
 11
537.56617691978227
 21
448.34709700296298
  0
LINE
  8
_0-0_0
  6
CONTINUOUS
 62
    7
 10
537.56617691978227
 20
448.34709700296298
 11
537.61868059706808
 21
448.88561563955523
  0
LINE
  8
_0-0_0
  6
CONTINUOUS
 62
    7
 10
537.61868059706808
 20
448.88561563955523
 11
537.66174814212695
 21
449.43449684594657
  0
LINE
  8
_0-0_0
  6
CONTINUOUS
 62
    7
 10
537.66174814212695
 20
449.43449684594657
 11
537.69587476143681
 21
449.99569618320919
  0
LINE
  8
_0-0_0
  6
CONTINUOUS
 62
    7
 10
537.69587476143681
 20
449.99569618320919
 11
537.72155566147569
 21
450.57116921241561
  0
LINE
  8
_0-0_0
  6
CONTINUOUS
 62
    7
 10
537.72155566147569
 20
450.57116921241561
 11
537.73928604872117
 21
451.16287149463813
  0
LINE
  8
_0-0_0
  6
CONTINUOUS
 62
    7
 10
537.73928604872117
 20
451.16287149463813
 11
537.7495611296514
 21
451.77275859094902
  0
LINE
  8
_0-0_0
  6
CONTINUOUS
 62
    7
 10
537.7495611296514
 20
451.77275859094902
 11
537.75287611074418
 21
452.40278606242055
  0
LINE
  8
_0-0_0
  6
CONTINUOUS
 62
    7
 10
537.75287611074418
 20
452.40278606242055
 11
537.75287611074418
 21
464.26722291195802
  0
LINE
  8
_0-0_0
  6
CONTINUOUS
 62
    7
 10
537.75287611074418
 20
464.26722291195802
 11
537.75287611074407
 21
475.14355337330301
  0
LINE
  8
_0-0_0
  6
CONTINUOUS
 62
    7
 10
537.75287611074407
 20
475.14355337330301
 11
537.75287611074418
 21
485.07473859376762
  0
LINE
  8
_0-0_0
  6
CONTINUOUS
 62
    7
 10
537.75287611074418
 20
485.07473859376762
 11
537.75287611074418
 21
494.10373972066418
  0
LINE
  8
_0-0_0
  6
CONTINUOUS
 62
    7
 10
537.75287611074418
 20
494.10373972066418
 11
537.7528761107443
 21
502.27351790130598
  0
LINE
  8
_0-0_0
  6
CONTINUOUS
 62
    7
 10
537.7528761107443
 20
502.27351790130598
 11
537.75287611074418
 21
509.62703428300551
  0
LINE
  8
_0-0_0
  6
CONTINUOUS
 62
    7
 10
537.75287611074418
 20
509.62703428300551
 11
537.75287611074407
 21
516.20725001307528
  0
LINE
  8
_0-0_0
  6
CONTINUOUS
 62
    7
 10
537.75287611074407
 20
516.20725001307528
 11
537.75287611074418
 21
522.05712623882846
  0
LINE
  8
_0-0_0
  6
CONTINUOUS
 62
    7
 10
537.75287611074418
 20
522.05712623882846
 11
537.7528761107443
 21
527.21962410757749
  0
LINE
  8
_0-0_0
  6
CONTINUOUS
 62
    7
 10
537.7528761107443
 20
527.21962410757749
 11
537.75287611074418
 21
531.73770476663526
  0
LINE
  8
_0-0_0
  6
CONTINUOUS
 62
    7
 10
537.75287611074418
 20
531.73770476663526
 11
537.75287611074418
 21
535.65432936331456
  0
LINE
  8
_0-0_0
  6
CONTINUOUS
 62
    7
 10
537.75287611074418
 20
535.65432936331456
 11
537.75287611074418
 21
539.01245904492805
  0
LINE
  8
_0-0_0
  6
CONTINUOUS
 62
    7
 10
537.75287611074418
 20
539.01245904492805
 11
537.75287611074418
 21
541.85505495878851
  0
LINE
  8
_0-0_0
  6
CONTINUOUS
 62
    7
 10
537.75287611074418
 20
541.85505495878851
 11
537.75287611074418
 21
544.22507825220873
  0
LINE
  8
_0-0_0
  6
CONTINUOUS
 62
    7
 10
537.75287611074418
 20
544.22507825220873
 11
537.75287611074418
 21
546.16549007250137
  0
LINE
  8
_0-0_0
  6
CONTINUOUS
 62
    7
 10
537.75287611074418
 20
546.16549007250137
 11
537.75287611074418
 21
547.71925156697944
  0
LINE
  8
_0-0_0
  6
CONTINUOUS
 62
    7
 10
537.75287611074418
 20
547.71925156697944
 11
537.75287611074418
 21
548.92932388295526
  0
LINE
  8
_0-0_0
  6
CONTINUOUS
 62
    7
 10
537.75287611074418
 20
548.92932388295526
 11
537.75287611074418
 21
549.83866816774184
  0
LINE
  8
_0-0_0
  6
CONTINUOUS
 62
    7
 10
537.75287611074418
 20
549.83866816774184
 11
537.75287611074418
 21
550.49024556865197
  0
LINE
  8
_0-0_0
  6
CONTINUOUS
 62
    7
 10
537.75287611074418
 20
550.49024556865197
 11
537.75287611074418
 21
550.9270172329982
  0
LINE
  8
_0-0_0
  6
CONTINUOUS
 62
    7
 10
537.75287611074418
 20
550.9270172329982
 11
537.75287611074418
 21
551.19194430809353
  0
LINE
  8
_0-0_0
  6
CONTINUOUS
 62
    7
 10
537.75287611074418
 20
551.19194430809353
 11
537.75287611074418
 21
551.32798794125074
  0
LINE
  8
_0-0_0
  6
CONTINUOUS
 62
    7
 10
537.75287611074418
 20
551.32798794125074
 11
537.75287611074418
 21
551.37810927978228
  0
LINE
  8
_0-0_0
  6
CONTINUOUS
 62
    7
 10
537.75287611074418
 20
551.37810927978228
 11
537.75287611074418
 21
551.38526947100104
  0
LINE
  8
_0-0_0
  6
CONTINUOUS
 62
    7
 10
547.38830989854648
 20
438.46922575353551
 11
547.38830989854648
 21
438.67915346675761
  0
LINE
  8
_0-0_0
  6
CONTINUOUS
 62
    7
 10
547.38830989854648
 20
438.67915346675761
 11
547.38830989854648
 21
438.88281468107692
  0
LINE
  8
_0-0_0
  6
CONTINUOUS
 62
    7
 10
547.38830989854648
 20
438.88281468107692
 11
547.38830989854648
 21
439.14287438551514
  0
LINE
  8
_0-0_0
  6
CONTINUOUS
 62
    7
 10
547.38830989854648
 20
439.14287438551514
 11
547.38830989854648
 21
439.34966884928531
  0
LINE
  8
_0-0_0
  6
CONTINUOUS
 62
    7
 10
547.38830989854648
 20
439.34966884928531
 11
547.38830989854648
 21
439.76325777682581
  0
LINE
  8
_0-0_0
  6
CONTINUOUS
 62
    7
 10
547.38830989854648
 20
435.05085060242521
 11
547.38830989854648
 21
435.46757277941663
  0
LINE
  8
_0-0_0
  6
CONTINUOUS
 62
    7
 10
547.38830989854648
 20
435.46757277941663
 11
547.38830989854648
 21
435.67123399373588
  0
LINE
  8
_0-0_0
  6
CONTINUOUS
 62
    7
 10
547.38830989854648
 20
435.67123399373588
 11
547.38830989854648
 21
435.93129369817399
  0
LINE
  8
_0-0_0
  6
CONTINUOUS
 62
    7
 10
547.38830989854648
 20
435.93129369817399
 11
547.38830989854648
 21
436.13808816194421
  0
LINE
  8
_0-0_0
  6
CONTINUOUS
 62
    7
 10
547.38830989854648
 20
436.13808816194421
 11
547.38830989854648
 21
436.3480158751654
  0
LINE
  8
_0-0_0
  6
CONTINUOUS
 62
    7
 10
547.38830989854648
 20
436.3480158751654
 11
547.38830989854648
 21
436.96839926647601
  0
LINE
  8
_0-0_0
  6
CONTINUOUS
 62
    7
 10
547.38830989854648
 20
436.96839926647601
 11
547.38830989854648
 21
437.17206048079532
  0
LINE
  8
_0-0_0
  6
CONTINUOUS
 62
    7
 10
547.38830989854648
 20
437.17206048079532
 11
547.38830989854648
 21
437.43525343468445
  0
LINE
  8
_0-0_0
  6
CONTINUOUS
 62
    7
 10
547.38830989854648
 20
437.43525343468445
 11
547.38830989854648
 21
437.64204789845462
  0
LINE
  8
_0-0_0
  6
CONTINUOUS
 62
    7
 10
547.38830989854648
 20
437.64204789845462
 11
547.38830989854648
 21
437.8488423622249
  0
LINE
  8
_0-0_0
  6
CONTINUOUS
 62
    7
 10
547.38830989854648
 20
437.8488423622249
 11
547.38830989854648
 21
438.25929804031517
  0
LINE
  8
_0-0_0
  6
CONTINUOUS
 62
    7
 10
547.38830989854648
 20
438.25929804031517
 11
547.38830989854648
 21
438.46922575353551
  0
LINE
  8
_0-0_0
  6
CONTINUOUS
 62
    7
 10
538.63053436077166
 20
434.84718938810602
 11
547.38830989854648
 21
434.84718938810602
  0
LINE
  8
_0-0_0
  6
CONTINUOUS
 62
    7
 10
547.38830989854648
 20
439.76325777682581
 11
547.38830989854648
 21
556.51126557294288
  0
LINE
  8
_0-0_0
  6
CONTINUOUS
 62
    7
 10
547.38830989854648
 20
561.84718938810602
 11
539.25743311079111
 21
561.84718938810602
  0
LINE
  8
_0-0_0
  6
CONTINUOUS
 62
    7
 10
551.2750821486693
 20
548.17368878366005
 11
550.39742389864205
 21
548.17368878366005
  0
LINE
  8
_0-0_0
  6
CONTINUOUS
 62
    7
 10
551.2750821486693
 20
547.96376107043875
 11
551.2750821486693
 21
548.17368878366005
  0
LINE
  8
_0-0_0
  6
CONTINUOUS
 62
    7
 10
551.48509322992584
 20
547.7068346154515
 11
551.2750821486693
 21
547.96376107043875
  0
LINE
  8
_0-0_0
  6
CONTINUOUS
 62
    7
 10
551.2750821486693
 20
545.17203580954015
 11
551.48509322992584
 21
545.79241920085155
  0
LINE
  8
_0-0_0
  6
CONTINUOUS
 62
    7
 10
550.39742389864205
 20
545.17203580954015
 11
551.2750821486693
 21
545.17203580954015
  0
LINE
  8
_0-0_0
  6
CONTINUOUS
 62
    7
 10
550.39742389864205
 20
548.17368878366005
 11
550.19681629863464
 21
548.58727771120039
  0
LINE
  8
_0-0_0
  6
CONTINUOUS
 62
    7
 10
550.19681629863464
 20
544.96210809631884
 11
550.39742389864205
 21
545.17203580954015
  0
LINE
  8
_0-0_0
  6
CONTINUOUS
 62
    7
 10
551.2750821486693
 20
548.17368878366005
 11
550.39742389864205
 21
548.17368878366005
  0
LINE
  8
_0-0_0
  6
CONTINUOUS
 62
    7
 10
551.2750821486693
 20
547.96376107043875
 11
551.2750821486693
 21
548.17368878366005
  0
LINE
  8
_0-0_0
  6
CONTINUOUS
 62
    7
 10
551.48509322992584
 20
547.7068346154515
 11
551.2750821486693
 21
547.96376107043875
  0
LINE
  8
_0-0_0
  6
CONTINUOUS
 62
    7
 10
551.2750821486693
 20
545.17203580954015
 11
551.48509322992584
 21
545.79241920085155
  0
LINE
  8
_0-0_0
  6
CONTINUOUS
 62
    7
 10
550.39742389864205
 20
545.17203580954015
 11
551.2750821486693
 21
545.17203580954015
  0
LINE
  8
_0-0_0
  6
CONTINUOUS
 62
    7
 10
550.39742389864205
 20
548.17368878366005
 11
550.19681629863464
 21
548.58727771120039
  0
LINE
  8
_0-0_0
  6
CONTINUOUS
 62
    7
 10
550.19681629863464
 20
544.96210809631884
 11
550.39742389864205
 21
545.17203580954015
  0
LINE
  8
_0-0_0
  6
CONTINUOUS
 62
    7
 10
552.77963914871714
 20
492.90943496578325
 11
552.77963914871725
 21
492.85347595560381
  0
LINE
  8
_0-0_0
  6
CONTINUOUS
 62
    7
 10
552.77963914871725
 20
492.85347595560381
 11
552.77963914871714
 21
492.80217738199929
  0
LINE
  8
_0-0_0
  6
CONTINUOUS
 62
    7
 10
552.77963914871714
 20
492.80217738199929
 11
552.77963914871714
 21
492.75533661729253
  0
LINE
  8
_0-0_0
  6
CONTINUOUS
 62
    7
 10
552.77963914871714
 20
492.75533661729253
 11
552.77963914871714
 21
492.71275103380663
  0
LINE
  8
_0-0_0
  6
CONTINUOUS
 62
    7
 10
552.77963914871714
 20
492.71275103380663
 11
552.77963914871714
 21
492.6742180038641
  0
LINE
  8
_0-0_0
  6
CONTINUOUS
 62
    7
 10
552.77963914871714
 20
492.6742180038641
 11
552.77963914871702
 21
492.63953489978769
  0
LINE
  8
_0-0_0
  6
CONTINUOUS
 62
    7
 10
552.77963914871702
 20
492.63953489978769
 11
552.77963914871725
 21
492.6084990939006
  0
LINE
  8
_0-0_0
  6
CONTINUOUS
 62
    7
 10
552.77963914871725
 20
492.6084990939006
 11
552.77963914871714
 21
492.58090795852547
  0
LINE
  8
_0-0_0
  6
CONTINUOUS
 62
    7
 10
552.77963914871714
 20
492.58090795852547
 11
552.77963914871725
 21
492.55655886598498
  0
LINE
  8
_0-0_0
  6
CONTINUOUS
 62
    7
 10
552.77963914871725
 20
492.55655886598498
 11
552.77963914871714
 21
492.53524918860228
  0
LINE
  8
_0-0_0
  6
CONTINUOUS
 62
    7
 10
552.77963914871714
 20
492.53524918860228
 11
552.77963914871714
 21
492.51677629869988
  0
LINE
  8
_0-0_0
  6
CONTINUOUS
 62
    7
 10
552.77963914871714
 20
492.51677629869988
 11
552.77963914871714
 21
492.50093756860088
  0
LINE
  8
_0-0_0
  6
CONTINUOUS
 62
    7
 10
552.77963914871714
 20
492.50093756860088
 11
552.77963914871714
 21
492.48753037062789
  0
LINE
  8
_0-0_0
  6
CONTINUOUS
 62
    7
 10
552.77963914871714
 20
492.48753037062789
 11
552.77963914871714
 21
492.4763520771038
  0
LINE
  8
_0-0_0
  6
CONTINUOUS
 62
    7
 10
552.77963914871714
 20
492.4763520771038
 11
552.77963914871714
 21
492.46720006035139
  0
LINE
  8
_0-0_0
  6
CONTINUOUS
 62
    7
 10
552.77963914871714
 20
492.46720006035139
 11
552.77963914871714
 21
492.45987169269358
  0
LINE
  8
_0-0_0
  6
CONTINUOUS
 62
    7
 10
552.77963914871714
 20
492.45987169269358
 11
552.77963914871725
 21
492.4541643464533
  0
LINE
  8
_0-0_0
  6
CONTINUOUS
 62
    7
 10
552.77963914871725
 20
492.4541643464533
 11
552.77963914871714
 21
492.44987539395311
  0
LINE
  8
_0-0_0
  6
CONTINUOUS
 62
    7
 10
552.77963914871714
 20
492.44987539395311
 11
552.77963914871702
 21
492.44680220751593
  0
LINE
  8
_0-0_0
  6
CONTINUOUS
 62
    7
 10
552.77963914871702
 20
492.44680220751593
 11
552.77963914871714
 21
492.44474215946468
  0
LINE
  8
_0-0_0
  6
CONTINUOUS
 62
    7
 10
552.77963914871714
 20
492.44474215946468
 11
552.77963914871714
 21
492.44349262212211
  0
LINE
  8
_0-0_0
  6
CONTINUOUS
 62
    7
 10
552.77963914871714
 20
492.44349262212211
 11
552.77963914871714
 21
492.44285096781113
  0
LINE
  8
_0-0_0
  6
CONTINUOUS
 62
    7
 10
552.77963914871714
 20
492.44285096781113
 11
552.77963914871714
 21
492.44261456885431
  0
LINE
  8
_0-0_0
  6
CONTINUOUS
 62
    7
 10
552.77963914871714
 20
492.44261456885431
 11
552.77963914871714
 21
492.44258079757481
  0
LINE
  8
_0-0_0
  6
CONTINUOUS
 62
    7
 10
552.77963914871714
 20
492.44258079757481
 11
552.77963914871725
 21
492.49853980775441
  0
LINE
  8
_0-0_0
  6
CONTINUOUS
 62
    7
 10
552.77963914871725
 20
492.49853980775441
 11
552.77963914871702
 21
492.54983838135888
  0
LINE
  8
_0-0_0
  6
CONTINUOUS
 62
    7
 10
552.77963914871702
 20
492.54983838135888
 11
552.77963914871725
 21
492.59667914606553
  0
LINE
  8
_0-0_0
  6
CONTINUOUS
 62
    7
 10
552.77963914871725
 20
492.59667914606553
 11
552.77963914871725
 21
492.63926472955148
  0
LINE
  8
_0-0_0
  6
CONTINUOUS
 62
    7
 10
552.77963914871725
 20
492.63926472955148
 11
552.77963914871714
 21
492.67779775949401
  0
LINE
  8
_0-0_0
  6
CONTINUOUS
 62
    7
 10
552.77963914871714
 20
492.67779775949401
 11
552.77963914871714
 21
492.71248086357036
  0
LINE
  8
_0-0_0
  6
CONTINUOUS
 62
    7
 10
552.77963914871714
 20
492.71248086357036
 11
552.77963914871725
 21
492.74351666945739
  0
LINE
  8
_0-0_0
  6
CONTINUOUS
 62
    7
 10
552.77963914871725
 20
492.74351666945739
 11
552.77963914871702
 21
492.77110780483258
  0
LINE
  8
_0-0_0
  6
CONTINUOUS
 62
    7
 10
552.77963914871702
 20
492.77110780483258
 11
552.77963914871714
 21
492.79545689737301
  0
LINE
  8
_0-0_0
  6
CONTINUOUS
 62
    7
 10
552.77963914871714
 20
492.79545689737301
 11
552.77963914871714
 21
492.81676657475572
  0
LINE
  8
_0-0_0
  6
CONTINUOUS
 62
    7
 10
552.77963914871714
 20
492.81676657475572
 11
552.77963914871714
 21
492.83523946465812
  0
LINE
  8
_0-0_0
  6
CONTINUOUS
 62
    7
 10
552.77963914871714
 20
492.83523946465812
 11
552.77963914871714
 21
492.85107819475718
  0
LINE
  8
_0-0_0
  6
CONTINUOUS
 62
    7
 10
552.77963914871714
 20
492.85107819475718
 11
552.77963914871714
 21
492.86448539273022
  0
LINE
  8
_0-0_0
  6
CONTINUOUS
 62
    7
 10
552.77963914871714
 20
492.86448539273022
 11
552.77963914871714
 21
492.87566368625437
  0
LINE
  8
_0-0_0
  6
CONTINUOUS
 62
    7
 10
552.77963914871714
 20
492.87566368625437
 11
552.77963914871714
 21
492.88481570300661
  0
LINE
  8
_0-0_0
  6
CONTINUOUS
 62
    7
 10
552.77963914871714
 20
492.88481570300661
 11
552.77963914871714
 21
492.89214407066436
  0
LINE
  8
_0-0_0
  6
CONTINUOUS
 62
    7
 10
552.77963914871714
 20
492.89214407066436
 11
552.77963914871714
 21
492.89785141690481
  0
LINE
  8
_0-0_0
  6
CONTINUOUS
 62
    7
 10
552.77963914871714
 20
492.89785141690481
 11
552.77963914871714
 21
492.90214036940495
  0
LINE
  8
_0-0_0
  6
CONTINUOUS
 62
    7
 10
552.77963914871714
 20
492.90214036940495
 11
552.77963914871725
 21
492.90521355584212
  0
LINE
  8
_0-0_0
  6
CONTINUOUS
 62
    7
 10
552.77963914871725
 20
492.90521355584212
 11
552.77963914871702
 21
492.90727360389332
  0
LINE
  8
_0-0_0
  6
CONTINUOUS
 62
    7
 10
552.77963914871702
 20
492.90727360389332
 11
552.77963914871725
 21
492.90852314123612
  0
LINE
  8
_0-0_0
  6
CONTINUOUS
 62
    7
 10
552.77963914871725
 20
492.90852314123612
 11
552.77963914871714
 21
492.90916479554699
  0
LINE
  8
_0-0_0
  6
CONTINUOUS
 62
    7
 10
552.77963914871714
 20
492.90916479554699
 11
552.77963914871702
 21
492.90940119450369
  0
LINE
  8
_0-0_0
  6
CONTINUOUS
 62
    7
 10
552.77963914871702
 20
492.90940119450369
 11
552.77963914871714
 21
492.90943496578325
  0
LINE
  8
_0-0_0
  6
CONTINUOUS
 62
    7
 10
553.40026891123659
 20
490.31823766975288
 11
551.89884640493881
 21
490.31823766975288
  0
LINE
  8
_0-0_0
  6
CONTINUOUS
 62
    7
 10
551.89884640493881
 20
490.31823766975288
 11
551.89884640493881
 21
495.03064484415432
  0
LINE
  8
_0-0_0
  6
CONTINUOUS
 62
    7
 10
551.89884640493881
 20
495.03064484415432
 11
553.40026891123659
 21
495.03064484415432
  0
LINE
  8
_0-0_0
  6
CONTINUOUS
 62
    7
 10
553.40026891123659
 20
495.03064484415432
 11
553.40026891123659
 21
490.31823766975288
  0
LINE
  8
_0-0_0
  6
CONTINUOUS
 62
    7
 10
551.2750821486693
 20
495.6541614849159
 11
552.5163416737081
 21
495.6541614849159
  0
LINE
  8
_0-0_0
  6
CONTINUOUS
 62
    7
 10
552.5163416737081
 20
495.6541614849159
 11
552.5163416737081
 21
496.32781011689451
  0
LINE
  8
_0-0_0
  6
CONTINUOUS
 62
    7
 10
552.5163416737081
 20
496.32781011689451
 11
553.81402208624957
 21
496.32781011689451
  0
LINE
  8
_0-0_0
  6
CONTINUOUS
 62
    7
 10
553.81402208624957
 20
496.32781011689451
 11
554.28419614876418
 21
495.91108793990321
  0
LINE
  8
_0-0_0
  6
CONTINUOUS
 62
    7
 10
554.28419614876418
 20
495.91108793990321
 11
554.28419614876418
 21
489.48792656522011
  0
LINE
  8
_0-0_0
  6
CONTINUOUS
 62
    7
 10
554.28419614876418
 20
489.48792656522011
 11
551.89884640493881
 21
489.48792656522011
  0
LINE
  8
_0-0_0
  6
CONTINUOUS
 62
    7
 10
551.89884640493881
 20
489.48792656522011
 11
551.89884640493881
 21
490.31823766975288
  0
LINE
  8
_0-0_0
  6
CONTINUOUS
 62
    7
 10
551.89884640493881
 20
490.31823766975288
 11
551.2750821486693
 21
490.31823766975288
  0
LINE
  8
_0-0_0
  6
CONTINUOUS
 62
    7
 10
551.2750821486693
 20
490.31823766975288
 11
551.2750821486693
 21
495.6541614849159
  0
LINE
  8
_0-0_0
  6
CONTINUOUS
 62
    7
 10
550.39742389864205
 20
495.91108793990321
 11
550.39742389864205
 21
490.1114432059826
  0
LINE
  8
_0-0_0
  6
CONTINUOUS
 62
    7
 10
550.39742389864205
 20
490.1114432059826
 11
551.89884640493881
 21
489.02420564646258
  0
LINE
  8
_0-0_0
  6
CONTINUOUS
 62
    7
 10
551.89884640493881
 20
489.02420564646258
 11
554.28419614876418
 21
489.02420564646258
  0
LINE
  8
_0-0_0
  6
CONTINUOUS
 62
    7
 10
554.28419614876418
 20
489.02420564646258
 11
554.69794932377692
 21
489.23100011023371
  0
LINE
  8
_0-0_0
  6
CONTINUOUS
 62
    7
 10
554.69794932377692
 20
489.23100011023371
 11
554.69794932377692
 21
496.32781011689451
  0
LINE
  8
_0-0_0
  6
CONTINUOUS
 62
    7
 10
554.69794932377692
 20
496.32781011689451
 11
554.28419614876418
 21
497.1549879719754
  0
LINE
  8
_0-0_0
  6
CONTINUOUS
 62
    7
 10
554.28419614876418
 20
497.1549879719754
 11
552.10258849869524
 21
497.1549879719754
  0
LINE
  8
_0-0_0
  6
CONTINUOUS
 62
    7
 10
552.10258849869524
 20
497.1549879719754
 11
550.39742389864205
 21
495.91108793990321
  0
LINE
  8
_0-2_用紙枠
  6
CONTINUOUS
 62
    7
 10
0
 20
0
 11
1485
 21
0
  0
LINE
  8
_0-2_用紙枠
  6
CONTINUOUS
 62
    7
 10
1485
 20
0
 11
1485
 21
1050
  0
LINE
  8
_0-2_用紙枠
  6
CONTINUOUS
 62
    7
 10
1485
 20
1050
 11
0
 21
1050
  0
LINE
  8
_0-2_用紙枠
  6
CONTINUOUS
 62
    7
 10
0
 20
1050
 11
0
 21
0
  0
LINE
  8
_0-0_0
  6
CONTINUOUS
 62
    7
 10
299.75001870081229
 20
557.84311832108449
 11
299.75001870081229
 21
611.93718938810593
  0
LINE
  8
_0-0_0
  6
CONTINUOUS
 62
    7
 10
459.75003109822057
 20
557.84311832108449
 11
459.75003109822057
 21
611.93718938810593
  0
LINE
  8
_0-0_0
  6
CONTINUOUS
 62
    7
 10
317.25001870081229
 20
611.8471893881059
 11
442.25003109822057
 21
611.8471893881059
  0
LINE
  8
_0-0_0
  6
CONTINUOUS
 62
    7
 10
534.75003109814884
 20
438.91406468107687
 11
534.75003109814884
 21
611.93718938820246
  0
LINE
  8
_0-0_0
  6
CONTINUOUS
 62
    7
 10
567.7499812991158
 20
543.48940063134569
 11
567.7499812991158
 21
611.93718938820246
  0
LINE
  8
_0-0_0
  6
CONTINUOUS
 62
    7
 10
517.25003109814884
 20
611.84718938820242
 11
499.75003109814878
 21
611.84718938820242
  0
LINE
  8
_0-0_0
  6
CONTINUOUS
 62
    7
 10
585.2499812991158
 20
611.84718938820242
 11
602.7499812991158
 21
611.84718938820242
  0
LINE
  8
_0-0_0
  6
CONTINUOUS
 62
    7
 10
534.75003109814884
 20
611.84718938820242
 11
567.7499812991158
 21
611.84718938820242
  0
LINE
  8
_0-0_0
  6
CONTINUOUS
 62
    7
 10
459.78128109822052
 20
434.84718938810602
 11
484.84003109822049
 21
434.84718938810602
  0
LINE
  8
_0-0_0
  6
CONTINUOUS
 62
    7
 10
459.78128109822052
 20
561.84718938810511
 11
484.84003109822049
 21
561.84718938810511
  0
LINE
  8
_0-0_0
  6
CONTINUOUS
 62
    7
 10
484.75003109822057
 20
452.34718938810602
 11
484.75003109822057
 21
544.34718938810511
  0
LINE
  8
_0-0_0
  6
CONTINUOUS
 62
    7
 10
913.86952009392826
 20
675.84718938810556
 11
1288.8695200939283
 21
675.84718938810556
  0
LINE
  8
_0-0_0
  6
CONTINUOUS
 62
    7
 10
913.86952009392826
 20
650.84718938810556
 11
1288.8695200939283
 21
650.84718938810556
  0
LINE
  8
_0-0_0
  6
CONTINUOUS
 62
    7
 10
913.86952009392826
 20
625.84718938810556
 11
1288.8695200939283
 21
625.84718938810556
  0
LINE
  8
_0-0_0
  6
CONTINUOUS
 62
    7
 10
913.86952009392826
 20
600.84718938810556
 11
1288.8695200939283
 21
600.84718938810556
  0
LINE
  8
_0-0_0
  6
CONTINUOUS
 62
    7
 10
913.86952009392826
 20
495.84718938810562
 11
1288.8695200939283
 21
495.84718938810562
  0
LINE
  8
_0-0_0
  6
CONTINUOUS
 62
    7
 10
913.86952009392826
 20
470.84718938810562
 11
1288.8695200939283
 21
470.84718938810562
  0
LINE
  8
_0-0_0
  6
CONTINUOUS
 62
    7
 10
913.86952009392826
 20
445.84718938810562
 11
1288.8695200939283
 21
445.84718938810562
  0
LINE
  8
_0-0_0
  6
CONTINUOUS
 62
    7
 10
913.86952009392826
 20
420.84718938810562
 11
1288.8695200939283
 21
420.84718938810562
  0
LINE
  8
_0-0_0
  6
CONTINUOUS
 62
    7
 10
913.86952009392826
 20
395.84718938810562
 11
1288.8695200939283
 21
395.84718938810562
  0
LINE
  8
_0-0_0
  6
CONTINUOUS
 62
    7
 10
913.86952009392826
 20
370.84718938810562
 11
1288.8695200939283
 21
370.84718938810562
  0
LINE
  8
_0-0_0
  6
CONTINUOUS
 62
    7
 10
913.86952009392826
 20
345.84718938810562
 11
1288.8695200939283
 21
345.84718938810562
  0
LINE
  8
_0-0_0
  6
CONTINUOUS
 62
    7
 10
913.86952009392826
 20
320.84718938810562
 11
1288.8695200939283
 21
320.84718938810562
  0
LINE
  8
_0-0_0
  6
CONTINUOUS
 62
    7
 10
913.86952009392826
 20
675.84718938810556
 11
913.86952009392826
 21
320.84718938810562
  0
LINE
  8
_0-0_0
  6
CONTINUOUS
 62
    7
 10
1088.8695200939283
 20
650.84718938810556
 11
1088.8695200939283
 21
320.84718938810562
  0
LINE
  8
_0-0_0
  6
CONTINUOUS
 62
    7
 10
1288.8695200939283
 20
675.84718938810556
 11
1288.8695200939283
 21
320.84718938810562
  0
TEXT
  8
_0-0_0
 62
    7
 10
359.76422944497102
 20
616.8471893881059
 40
17.5
 41
1
 50
0
  1
160
  0
LINE
  8
_0-0_0
  6
CONTINUOUS
 62
    7
 10
442.25003109822057
 20
614.76385605477253
 11
459.75003109822057
 21
611.8471893881059
  0
LINE
  8
_0-0_0
  6
CONTINUOUS
 62
    7
 10
442.25003109822057
 20
608.93052272143927
 11
459.75003109822057
 21
611.8471893881059
  0
LINE
  8
_0-0_0
  6
CONTINUOUS
 62
    7
 10
459.75003109822057
 20
611.8471893881059
 11
442.25003109822057
 21
611.8471893881059
  0
LINE
  8
_0-0_0
  6
CONTINUOUS
 62
    7
 10
317.25001870081229
 20
608.93052272143927
 11
299.75001870081229
 21
611.8471893881059
  0
LINE
  8
_0-0_0
  6
CONTINUOUS
 62
    7
 10
317.25001870081229
 20
614.76385605477253
 11
299.75001870081229
 21
611.8471893881059
  0
LINE
  8
_0-0_0
  6
CONTINUOUS
 62
    7
 10
299.75001870081229
 20
611.8471893881059
 11
317.25001870081229
 21
611.8471893881059
  0
TEXT
  8
_0-0_0
 62
    7
 10
538.52273347135952
 20
616.84718938820242
 40
17.5
 41
1.000000000000002
 50
0
  1
33
  0
LINE
  8
_0-0_0
  6
CONTINUOUS
 62
    7
 10
585.2499812991158
 20
608.93052272153579
 11
567.7499812991158
 21
611.84718938820242
  0
LINE
  8
_0-0_0
  6
CONTINUOUS
 62
    7
 10
585.2499812991158
 20
614.76385605486905
 11
567.7499812991158
 21
611.84718938820242
  0
LINE
  8
_0-0_0
  6
CONTINUOUS
 62
    7
 10
567.7499812991158
 20
611.84718938820242
 11
585.2499812991158
 21
611.84718938820242
  0
LINE
  8
_0-0_0
  6
CONTINUOUS
 62
    7
 10
517.25003109814884
 20
614.76385605486905
 11
534.75003109814884
 21
611.84718938820242
  0
LINE
  8
_0-0_0
  6
CONTINUOUS
 62
    7
 10
517.25003109814884
 20
608.93052272153579
 11
534.75003109814884
 21
611.84718938820242
  0
LINE
  8
_0-0_0
  6
CONTINUOUS
 62
    7
 10
534.75003109814884
 20
611.84718938820242
 11
517.25003109814884
 21
611.84718938820242
  0
TEXT
  8
_0-0_0
 62
    7
 10
479.75003109822057
 20
478.70940529719661
 40
17.5
 41
1
 50
90
  1
127
  0
LINE
  8
_0-0_0
  6
CONTINUOUS
 62
    7
 10
481.83336443155383
 20
544.34718938810511
 11
484.75003109822057
 21
561.84718938810511
  0
LINE
  8
_0-0_0
  6
CONTINUOUS
 62
    7
 10
487.66669776488726
 20
544.34718938810511
 11
484.75003109822057
 21
561.84718938810511
  0
LINE
  8
_0-0_0
  6
CONTINUOUS
 62
    7
 10
484.75003109822057
 20
561.84718938810511
 11
484.75003109822057
 21
544.34718938810511
  0
LINE
  8
_0-0_0
  6
CONTINUOUS
 62
    7
 10
487.66669776488726
 20
452.34718938810602
 11
484.75003109822057
 21
434.84718938810602
  0
LINE
  8
_0-0_0
  6
CONTINUOUS
 62
    7
 10
481.83336443155383
 20
452.34718938810602
 11
484.75003109822057
 21
434.84718938810602
  0
LINE
  8
_0-0_0
  6
CONTINUOUS
 62
    7
 10
484.75003109822057
 20
434.84718938810602
 11
484.75003109822057
 21
452.34718938810602
  0
TEXT
  8
_0-0_0
 62
    7
 10
914.61952009392826
 20
328.26196211537831
 40
10
 41
1
 50
0
  1
  質量
  0
TEXT
  8
_0-0_0
 62
    7
 10
914.61952009392826
 20
353.26196211537831
 40
10
 41
1
 50
0
  1
  外形寸法（WxHxD）
  0
TEXT
  8
_0-0_0
 62
    7
 10
914.61952009392826
 20
378.09150756992369
 40
10
 41
1
 50
0
  1
  使用湿度範囲
  0
TEXT
  8
_0-0_0
 62
    7
 10
914.61952009392826
 20
403.09150756992369
 40
10
 41
1
 50
0
  1
  使用温度範囲
  0
TEXT
  8
_0-0_0
 62
    7
 10
914.61952009392826
 20
428.14832575174188
 40
10
 41
1
 50
0
  1
  最大消費電力
  0
TEXT
  8
_0-0_0
 62
    7
 10
914.61952009392826
 20
453.11991666083281
 40
10
 41
1
 50
0
  1
  定格入力電圧
  0
TEXT
  8
_0-0_0
 62
    7
 10
914.61952009392826
 20
478.17673484265117
 40
9.9999999999999964
 41
1.0000000000000004
 50
0
  1
  設置方法
  0
TEXT
  8
_0-0_0
 62
    7
 10
914.61952009392826
 20
543.31878029719644
 40
10
 41
1
 50
0
  1
  表現内容
  0
TEXT
  8
_0-0_0
 62
    7
 10
914.61952009392826
 20
608.40400756992369
 40
10
 41
1
 50
0
  1
  画面
  0
TEXT
  8
_0-0_0
 62
    7
 10
914.61952009392826
 20
632.97787120628732
 40
10
 41
1
 50
0
  1
  型式
  0
LINE
  8
_0-3_図面枠
  6
CONTINUOUS
 62
    7
 10
1435
 20
50
 11
1435
 21
1000
  0
LINE
  8
_0-3_図面枠
  6
CONTINUOUS
 62
    7
 10
1435
 20
1000
 11
100
 21
1000
  0
LINE
  8
_0-3_図面枠
  6
CONTINUOUS
 62
    7
 10
100
 20
1000
 11
100
 21
50
  0
LINE
  8
_0-3_図面枠
  6
CONTINUOUS
 62
    7
 10
100
 20
50
 11
1435
 21
50
  0
TEXT
  8
_0-0_0
 62
    7
 10
1056.3695200939283
 20
658.34718938810556
 40
10
 41
1
 50
0
  1
カラー表示ユニット
  0
TEXT
  8
_0-0_0
 62
    7
 10
1156.3695200939283
 20
633.34718938810556
 40
10
 41
1
 50
0
  1
TPV-CM002D-CM
  0
TEXT
  8
_0-0_0
 62
    7
 10
1141.3695200939283
 20
608.26196211537831
 40
10
 41
1
 50
0
  1
カラーTFT 5.7インチ
  0
TEXT
  8
_0-0_0
 62
    7
 10
1128.8695200939283
 20
581.25438635780256
 40
10
 41
1
 50
0
  1
発電、消費、買電、売電、
  0
TEXT
  8
_0-0_0
 62
    7
 10
1143.8695200939283
 20
543.91537120628743
 40
10
 41
1
 50
0
  1
省エネガイド機能、
  0
TEXT
  8
_0-0_0
 62
    7
 10
1138.8695200939283
 20
525.23165908507531
 40
10
 41
1
 50
0
  1
時間帯別電力量表示、
  0
TEXT
  8
_0-0_0
 62
    7
 10
1153.8695200939283
 20
506.77521969113582
 40
10.000000000000002
 41
0.9999999999999997
 50
0
  1
前年実績比など
  0
TEXT
  8
_0-0_0
 62
    7
 10
1161.3695200939283
 20
478.06309847901457
 40
10
 41
1
 50
0
  1
卓上/壁掛け
  0
TEXT
  8
_0-0_0
 62
    7
 10
1138.8695200939283
 20
452.80741666083293
 40
10
 41
1
 50
0
  1
DC6V(専用ACアダプタ)
  0
TEXT
  8
_0-0_0
 62
    7
 10
1173.8695200939283
 20
428.54605302446919
 40
10
 41
1
 50
0
  1
6W以下
  0
TEXT
  8
_0-0_0
 62
    7
 10
1128.8695200939283
 20
403.06309847901468
 40
10
 41
1
 50
0
  1
-10～+40℃(氷結なきこと)
  0
TEXT
  8
_0-0_0
 62
    7
 10
1131.3695200939283
 20
378.26196211537831
 40
10
 41
1
 50
0
  1
25～85%RH(結露なきこと)
  0
TEXT
  8
_0-0_0
 62
    7
 10
1153.8695200939283
 20
353.34718938810562
 40
10
 41
1
 50
0
  1
160x127x33ｍｍ
  0
TEXT
  8
_0-0_0
 62
    7
 10
1173.8695200939283
 20
328.40400756992369
 40
10
 41
1
 50
0
  1
約320g
  0
TEXT
  8
_0-0_0
 62
    7
 10
1138.5825882757463
 20
562.68431060022692
 40
10
 41
1
 50
0
  1
環境換算（CO
  0
TEXT
  8
_0-0_0
 62
    7
 10
1203.395088275746
 20
562.68431060022692
 40
10
 41
1
 50
0
  1
/石油)、
  0
TEXT
  8
_0-0_0
 62
    7
 10
1198.463270093928
 20
559.63696211537831
 40
7.0000000000000018
 41
0.9999999999999834
 50
0
  1
2
  0
ENDSEC
  0
EOF
