  0
SECTION
  2
HEADER
  9
$ACADVER
  1
AC1009
  9
$DWGCODEPAGE
  3
ansi_932
  9
$INSBASE
 10
0.0
 20
0.0
 30
0.0
  9
$EXTMIN
 10
0.0
 20
0.0
 30
0.0
  9
$EXTMAX
 10
2970.0
 20
2100.0
 30
0.0
  9
$LIMMIN
 10
109.6511881510417
 20
82.19722222222221
  9
$LIMMAX
 10
147.8903700086805
 20
96.5028089735243
  9
$ORTHOMODE
 70
     1
  9
$REGENMODE
 70
     1
  9
$FILLMODE
 70
     1
  9
$QTEXTMODE
 70
     0
  9
$MIRRTEXT
 70
     1
  9
$DRAGMODE
 70
     2
  9
$LTSCALE
 40
1.0
  9
$OSMODE
 70
   511
  9
$ATTMODE
 70
     1
  9
$TEXTSIZE
 40
0.2
  9
$TRACEWID
 40
0.05
  9
$TEXTSTYLE
  7
STANDARD
  9
$CLAYER
  8
0
  9
$CELTYPE
  6
BYLAYER
  9
$CECOLOR
 62
   256
  9
$DIMSCALE
 40
1.0
  9
$DIMASZ
 40
35.0
  9
$DIMEXO
 40
0.0625
  9
$DIMDLI
 40
10.0
  9
$DIMRND
 40
0.0
  9
$DIMDLE
 40
0.0
  9
$DIMEXE
 40
0.18
  9
$DIMTP
 40
0.0
  9
$DIMTM
 40
0.0
  9
$DIMTXT
 40
35.0
  9
$DIMCEN
 40
0.09
  9
$DIMTSZ
 40
0.0
  9
$DIMTOL
 70
     0
  9
$DIMLIM
 70
     0
  9
$DIMTIH
 70
     0
  9
$DIMTOH
 70
     0
  9
$DIMSE1
 70
     0
  9
$DIMSE2
 70
     0
  9
$DIMTAD
 70
     3
  9
$DIMZIN
 70
     0
  9
$DIMBLK
  1
OPEN
  9
$DIMASO
 70
     1
  9
$DIMSHO
 70
     1
  9
$DIMPOST
  1

  9
$DIMAPOST
  1

  9
$DIMALT
 70
     0
  9
$DIMALTD
 70
     2
  9
$DIMALTF
 40
25.4
  9
$DIMLFAC
 40
1.0
  9
$DIMTOFL
 70
     1
  9
$DIMTVP
 40
0.0
  9
$DIMTIX
 70
     0
  9
$DIMSOXD
 70
     0
  9
$DIMSAH
 70
     0
  9
$DIMBLK1
  1

  9
$DIMBLK2
  1

  9
$DIMSTYLE
  2
STANDARD
  9
$DIMCLRD
 70
     0
  9
$DIMCLRE
 70
     0
  9
$DIMCLRT
 70
     0
  9
$DIMTFAC
 40
1.0
  9
$DIMGAP
 40
10.0
  9
$LUNITS
 70
     2
  9
$LUPREC
 70
     4
  9
$SKETCHINC
 40
0.1
  9
$FILLETRAD
 40
100.0
  9
$AUNITS
 70
     0
  9
$AUPREC
 70
     0
  9
$MENU
  1
acad
  9
$ELEVATION
 40
0.0
  9
$PELEVATION
 40
0.0
  9
$THICKNESS
 40
0.0
  9
$LIMCHECK
 70
     0
  9
$CHAMFERA
 40
0.0
  9
$CHAMFERB
 40
0.0
  9
$SKPOLY
 70
     0
  9
$TDCREATE
 40
2456743.597399803
  9
$TDUPDATE
 40
2456794.688261308
  9
$TDINDWG
 40
0.7077537384
  9
$TDUSRTIMER
 40
2456794.311619282
  9
$USRTIMER
 70
     1
  9
$ANGBASE
 50
0.0
  9
$ANGDIR
 70
     0
  9
$PDMODE
 70
     1
  9
$PDSIZE
 40
0.0
  9
$PLINEWID
 40
0.0
  9
$COORDS
 70
     1
  9
$SPLFRAME
 70
     0
  9
$SPLINETYPE
 70
     6
  9
$SPLINESEGS
 70
     8
  9
$ATTDIA
 70
     0
  9
$ATTREQ
 70
     1
  9
$HANDLING
 70
     1
  9
$HANDSEED
  5
939E
  9
$SURFTAB1
 70
     6
  9
$SURFTAB2
 70
     6
  9
$SURFTYPE
 70
     6
  9
$SURFU
 70
     6
  9
$SURFV
 70
     6
  9
$UCSNAME
  2

  9
$UCSORG
 10
0.0
 20
0.0
 30
0.0
  9
$UCSXDIR
 10
1.0
 20
0.0
 30
0.0
  9
$UCSYDIR
 10
0.0
 20
1.0
 30
0.0
  9
$PUCSNAME
  2

  9
$PUCSORG
 10
0.0
 20
0.0
 30
0.0
  9
$PUCSXDIR
 10
1.0
 20
0.0
 30
0.0
  9
$PUCSYDIR
 10
0.0
 20
1.0
 30
0.0
  9
$USERI1
 70
     0
  9
$USERI2
 70
     0
  9
$USERI3
 70
     0
  9
$USERI4
 70
     0
  9
$USERI5
 70
     0
  9
$USERR1
 40
0.0
  9
$USERR2
 40
0.0
  9
$USERR3
 40
0.0
  9
$USERR4
 40
0.0
  9
$USERR5
 40
0.0
  9
$WORLDVIEW
 70
     1
  9
$SHADEDGE
 70
     3
  9
$SHADEDIF
 70
    70
  9
$TILEMODE
 70
     1
  9
$MAXACTVP
 70
    16
  9
$PLIMCHECK
 70
     0
  9
$PEXTMIN
 10
29.06606628894805
 20
20.36656677722931
 30
0.0
  9
$PEXTMAX
 10
261.5945966005326
 20
183.2991009950638
 30
0.0
  9
$PLIMMIN
 10
-0.0000000000000231
 20
0.0000000000000053
  9
$PLIMMAX
 10
420.0
 20
297.0
  9
$UNITMODE
 70
     0
  9
$VISRETAIN
 70
     0
  9
$PLINEGEN
 70
     1
  9
$PSLTSCALE
 70
     0
  0
ENDSEC
  0
SECTION
  2
TABLES
  0
TABLE
  2
VPORT
 70
     1
  0
VPORT
  2
*ACTIVE
 70
     0
 10
0.0
 20
0.0
 11
1.0
 21
1.0
 12
2117.167321397274
 22
1235.40526080369
 13
0.0
 23
0.0
 14
1.0
 24
1.0
 15
0.0
 25
0.0
 16
0.0
 26
0.0
 36
1.0
 17
0.0
 27
0.0
 37
0.0
 40
3065.355580746443
 41
1.907801418439716
 42
50.0
 43
0.0
 44
0.0
 50
0.0
 51
0.0
 71
    16
 72
   100
 73
     1
 74
     1
 75
     0
 76
     0
 77
     0
 78
     0
  0
ENDTAB
  0
TABLE
  2
LTYPE
 70
     1
  0
LTYPE
  2
CONTINUOUS
 70
     0
  3
Solid line
 72
    65
 73
     0
 40
0.0
  0
ENDTAB
  0
TABLE
  2
LAYER
 70
     4
  0
LAYER
  2
0
 70
     0
 62
     7
  6
CONTINUOUS
  0
LAYER
  2
DEFPOINTS
 70
     0
 62
     7
  6
CONTINUOUS
  0
LAYER
  2
用紙枠
 70
     4
 62
     7
  6
CONTINUOUS
  0
LAYER
  2
図面枠
 70
     0
 62
     7
  6
CONTINUOUS
  0
ENDTAB
  0
TABLE
  2
STYLE
 70
     1
  0
STYLE
  2
STANDARD
 70
     0
 40
0.0
 41
1.0
 50
0.0
 71
     0
 42
0.2
  3

  4

  0
ENDTAB
  0
TABLE
  2
VIEW
 70
     0
  0
ENDTAB
  0
TABLE
  2
UCS
 70
     0
  0
ENDTAB
  0
TABLE
  2
APPID
 70
    19
  0
APPID
  2
ACAD
 70
     0
  0
APPID
  2
ACAD_EXEMPT_FROM_CAD_STAND
 70
     0
  0
APPID
  2
ACAD_DSTYLE_DIMJAG
 70
     0
  0
APPID
  2
ACAD_DSTYLE_DIMTALN
 70
     0
  0
APPID
  2
ACAD_NAV_VCDISPLAY
 70
     0
  0
APPID
  2
ACAD_PSEXT
 70
     0
  0
APPID
  2
ACADANNOTATIVE
 70
     0
  0
APPID
  2
ACAECLAYERSTANDARD
 70
     0
  0
APPID
  2
ACCMTRANSPARENCY
 70
     0
  0
APPID
  2
ACADANNOAV
 70
     0
  0
APPID
  2
ACADANNOPO
 70
     0
  0
APPID
  2
ACAD_MLEADERVER
 70
     0
  0
APPID
  2
ACADSTRINGINFO
 70
     0
  0
APPID
  2
ACAD_DSTYLE_DIMBREAK
 70
     0
  0
APPID
  2
PLOTTRANSPARENCY
 70
     0
  0
APPID
  2
ACDBDYNAMICBLOCKGUID
 70
     0
  0
APPID
  2
ACAUTHENVIRON
 70
     0
  0
APPID
  2
ACLAYERTOOLS
 70
     0
  0
APPID
  2
ACDBDYNAMICBLOCKTRUENAME
 70
     0
  0
ENDTAB
  0
TABLE
  2
DIMSTYLE
 70
     1
  0
DIMSTYLE
  2
STANDARD
 70
     0
  3

  4

  5
OPEN
  6

  7

 40
1.0
 41
35.0
 42
0.0625
 43
10.0
 44
0.18
 45
0.0
 46
0.0
 47
0.0
 48
0.0
140
35.0
141
0.09
142
0.0
143
25.4
144
1.0
145
0.0
146
1.0
147
10.0
 71
     0
 72
     0
 73
     0
 74
     0
 75
     0
 76
     0
 77
     3
 78
     0
170
     0
171
     2
172
     1
173
     0
174
     0
175
     0
176
     0
177
     0
178
     0
  0
ENDTAB
  0
ENDSEC
  0
SECTION
  2
BLOCKS
  0
BLOCK
  8
0
  2
$MODEL_SPACE
 70
     0
 10
0.0
 20
0.0
 30
0.0
  3
$MODEL_SPACE
  1

  0
ENDBLK
  5
E
  8
0
  0
BLOCK
 67
     1
  8
0
  2
$PAPER_SPACE
 70
     0
 10
0.0
 20
0.0
 30
0.0
  3
$PAPER_SPACE
  1

  0
ENDBLK
  5
10
 67
     1
  8
0
  0
BLOCK
  8
0
  2
_OPEN
 70
     0
 10
0.0
 20
0.0
 30
0.0
  3
_OPEN
  1

  0
LINE
  5
AB0
  8
0
  6
BYBLOCK
 62
     0
 10
-1.0
 20
0.1666666666666667
 30
0.0
 11
0.0
 21
0.0
 31
0.0
  0
LINE
  5
AB1
  8
0
  6
BYBLOCK
 62
     0
 10
-1.0
 20
-0.1666666666666667
 30
0.0
 11
0.0
 21
0.0
 31
0.0
  0
LINE
  5
AB2
  8
0
  6
BYBLOCK
 62
     0
 10
0.0
 20
0.0
 30
0.0
 11
-1.0
 21
0.0
 31
0.0
  0
ENDBLK
  5
AB4
  8
0
  0
BLOCK
  8
0
  2
_CLOSED
 70
     0
 10
0.0
 20
0.0
 30
0.0
  3
_CLOSED
  1

  0
LINE
  5
AB6
  8
0
  6
BYBLOCK
 62
     0
 10
-1.0
 20
0.1666666666666667
 30
0.0
 11
0.0
 21
0.0
 31
0.0
  0
LINE
  5
AB7
  8
0
  6
BYBLOCK
 62
     0
 10
0.0
 20
0.0
 30
0.0
 11
-1.0
 21
-0.1666666666666667
 31
0.0
  0
LINE
  5
AB8
  8
0
  6
BYBLOCK
 62
     0
 10
-1.0
 20
0.1666666666666667
 30
0.0
 11
-1.0
 21
-0.1666666666666667
 31
0.0
  0
LINE
  5
AB9
  8
0
  6
BYBLOCK
 62
     0
 10
0.0
 20
0.0
 30
0.0
 11
-1.0
 21
0.0
 31
0.0
  0
ENDBLK
  5
ABB
  8
0
  0
ENDSEC
  0
SECTION
  2
ENTITIES
  0
LINE
  5
FCA
  8
図面枠
 10
2870.0
 20
1893.388757552422
 30
0.0
 11
200.0
 21
1893.388757552422
 31
0.0
  0
TEXT
  5
1230
  8
図面枠
 10
250.0
 20
1918.388757552422
 30
0.0
 40
50.0
  1
接続箱　TOS-CBS4C-R
 11
250.0
 21
1943.388757552422
 31
0.0
 73
     2
  0
POLYLINE
  5
8CAB
  8
0
 66
     1
 10
0.0
 20
0.0
 30
0.0
  0
VERTEX
  5
9098
  8
0
 10
627.9119821398791
 20
851.6943787762111
 30
0.0
  0
VERTEX
  5
9099
  8
0
 10
627.6109174717398
 20
851.696673923759
 30
0.0
  0
VERTEX
  5
909A
  8
0
 10
627.3307595439774
 20
851.7040370144371
 30
0.0
  0
VERTEX
  5
909B
  8
0
 10
627.070788645127
 20
851.7171845202982
 30
0.0
  0
VERTEX
  5
909C
  8
0
 10
626.8302850637227
 20
851.736832913395
 30
0.0
  0
VERTEX
  5
909D
  8
0
 10
626.6085290882991
 20
851.7636986657793
 30
0.0
  0
VERTEX
  5
909E
  8
0
 10
626.4048010073905
 20
851.7984982495043
 30
0.0
  0
VERTEX
  5
909F
  8
0
 10
626.2183811095316
 20
851.8419481366221
 30
0.0
  0
VERTEX
  5
90A0
  8
0
 10
626.0485496832566
 20
851.8947647991852
 30
0.0
  0
VERTEX
  5
90A1
  8
0
 10
625.8945870171001
 20
851.9576647092463
 30
0.0
  0
VERTEX
  5
90A2
  8
0
 10
625.7557733995964
 20
852.0313643388577
 30
0.0
  0
VERTEX
  5
90A3
  8
0
 10
625.6313891192802
 20
852.1165801600719
 30
0.0
  0
VERTEX
  5
90A4
  8
0
 10
625.5207144646856
 20
852.2140286449414
 30
0.0
  0
VERTEX
  5
90A5
  8
0
 10
625.4230297243474
 20
852.3244262655189
 30
0.0
  0
VERTEX
  5
90A6
  8
0
 10
625.3376151867999
 20
852.4484894938565
 30
0.0
  0
VERTEX
  5
90A7
  8
0
 10
625.2637511405776
 20
852.5869348020069
 30
0.0
  0
VERTEX
  5
90A8
  8
0
 10
625.2007178742147
 20
852.7404786620226
 30
0.0
  0
VERTEX
  5
90A9
  8
0
 10
625.147795676246
 20
852.9098375459562
 30
0.0
  0
VERTEX
  5
90AA
  8
0
 10
625.1042648352059
 20
853.0957279258598
 30
0.0
  0
VERTEX
  5
90AB
  8
0
 10
625.0694056396285
 20
853.2988662737862
 30
0.0
  0
VERTEX
  5
90AC
  8
0
 10
625.0424983780485
 20
853.5199690617878
 30
0.0
  0
VERTEX
  5
90AD
  8
0
 10
625.0228233390006
 20
853.7597527619172
 30
0.0
  0
VERTEX
  5
90AE
  8
0
 10
625.009660811019
 20
854.0189338462267
 30
0.0
  0
VERTEX
  5
90AF
  8
0
 10
625.002291082638
 20
854.2982287867688
 30
0.0
  0
VERTEX
  5
90B0
  8
0
 10
624.9999944423922
 20
854.5983540555962
 30
0.0
  0
SEQEND
  5
9383
  8
0
  0
POLYLINE
  5
8CAC
  8
0
 10
0.0
 20
0.0
 30
0.0
 66
     1
 70
     8
  0
VERTEX
  5
90B1
  8
0
 10
624.9999944423922
 20
854.5983540555962
 30
0.0
 70
    32
  0
VERTEX
  5
90B2
  8
0
 10
624.9999944423923
 20
856.0373711141589
 30
0.0
 70
    32
  0
VERTEX
  5
90B3
  8
0
 10
624.9999944423921
 20
860.1899631974396
 30
0.0
 70
    32
  0
VERTEX
  5
90B4
  8
0
 10
624.9999944423922
 20
866.8094416668274
 30
0.0
 70
    32
  0
VERTEX
  5
90B5
  8
0
 10
624.9999944423922
 20
875.6491178837119
 30
0.0
 70
    32
  0
VERTEX
  5
90B6
  8
0
 10
624.9999944423922
 20
886.4623032094823
 30
0.0
 70
    32
  0
VERTEX
  5
90B7
  8
0
 10
624.9999944423922
 20
899.0023090055279
 30
0.0
 70
    32
  0
VERTEX
  5
90B8
  8
0
 10
624.9999944423922
 20
913.0224466332376
 30
0.0
 70
    32
  0
VERTEX
  5
90B9
  8
0
 10
624.9999944423923
 20
928.2760274540013
 30
0.0
 70
    32
  0
VERTEX
  5
90BA
  8
0
 10
624.9999944423922
 20
944.5163628292075
 30
0.0
 70
    32
  0
VERTEX
  5
90BB
  8
0
 10
624.9999944423922
 20
961.4967641202462
 30
0.0
 70
    32
  0
VERTEX
  5
90BC
  8
0
 10
624.9999944423922
 20
978.9705426885063
 30
0.0
 70
    32
  0
VERTEX
  5
90BD
  8
0
 10
624.9999944423922
 20
996.6910098953772
 30
0.0
 70
    32
  0
VERTEX
  5
90BE
  8
0
 10
624.9999944423923
 20
1014.411477102248
 30
0.0
 70
    32
  0
VERTEX
  5
90BF
  8
0
 10
624.9999944423922
 20
1031.885255670508
 30
0.0
 70
    32
  0
VERTEX
  5
90C0
  8
0
 10
624.9999944423922
 20
1048.865656961546
 30
0.0
 70
    32
  0
VERTEX
  5
90C1
  8
0
 10
624.9999944423923
 20
1065.105992336753
 30
0.0
 70
    32
  0
VERTEX
  5
90C2
  8
0
 10
624.9999944423922
 20
1080.359573157516
 30
0.0
 70
    32
  0
VERTEX
  5
90C3
  8
0
 10
624.9999944423922
 20
1094.379710785226
 30
0.0
 70
    32
  0
VERTEX
  5
90C4
  8
0
 10
624.9999944423923
 20
1106.919716581272
 30
0.0
 70
    32
  0
VERTEX
  5
90C5
  8
0
 10
624.9999944423921
 20
1117.732901907042
 30
0.0
 70
    32
  0
VERTEX
  5
90C6
  8
0
 10
624.9999944423923
 20
1126.572578123926
 30
0.0
 70
    32
  0
VERTEX
  5
90C7
  8
0
 10
624.9999944423922
 20
1133.192056593314
 30
0.0
 70
    32
  0
VERTEX
  5
90C8
  8
0
 10
624.9999944423921
 20
1137.344648676595
 30
0.0
 70
    32
  0
VERTEX
  5
90C9
  8
0
 10
624.9999944423922
 20
1138.783665735157
 30
0.0
 70
    32
  0
SEQEND
  5
9384
  8
0
  0
POLYLINE
  5
8CAD
  8
0
 66
     1
 10
0.0
 20
0.0
 30
0.0
  0
VERTEX
  5
90CA
  8
0
 10
624.9999944423922
 20
1138.783665735157
 30
0.0
  0
VERTEX
  5
90CB
  8
0
 10
625.002291082638
 20
1139.083051624322
 30
0.0
  0
VERTEX
  5
90CC
  8
0
 10
625.009660811019
 20
1139.361803118376
 30
0.0
  0
VERTEX
  5
90CD
  8
0
 10
625.0228233390006
 20
1139.620622067491
 30
0.0
  0
VERTEX
  5
90CE
  8
0
 10
625.0424983780487
 20
1139.860210321843
 30
0.0
  0
VERTEX
  5
90CF
  8
0
 10
625.0694056396285
 20
1140.081269731605
 30
0.0
  0
VERTEX
  5
90D0
  8
0
 10
625.1042648352058
 20
1140.28450214695
 30
0.0
  0
VERTEX
  5
90D1
  8
0
 10
625.147795676246
 20
1140.470609418054
 30
0.0
  0
VERTEX
  5
90D2
  8
0
 10
625.2007178742148
 20
1140.640293395089
 30
0.0
  0
VERTEX
  5
90D3
  8
0
 10
625.2637511405775
 20
1140.794255928229
 30
0.0
  0
VERTEX
  5
90D4
  8
0
 10
625.3376151867999
 20
1140.933198867648
 30
0.0
  0
VERTEX
  5
90D5
  8
0
 10
625.4230297243473
 20
1141.057824063521
 30
0.0
  0
VERTEX
  5
90D6
  8
0
 10
625.5207144646856
 20
1141.168833366021
 30
0.0
  0
VERTEX
  5
90D7
  8
0
 10
625.6313891192801
 20
1141.266928625321
 30
0.0
  0
VERTEX
  5
90D8
  8
0
 10
625.7557733995964
 20
1141.352811691597
 30
0.0
  0
VERTEX
  5
90D9
  8
0
 10
625.8945870171001
 20
1141.427184415021
 30
0.0
  0
VERTEX
  5
90DA
  8
0
 10
626.0485496832566
 20
1141.490748645767
 30
0.0
  0
VERTEX
  5
90DB
  8
0
 10
626.2183811095315
 20
1141.54420623401
 30
0.0
  0
VERTEX
  5
90DC
  8
0
 10
626.4048010073905
 20
1141.588259029922
 30
0.0
  0
VERTEX
  5
90DD
  8
0
 10
626.6085290882991
 20
1141.623608883679
 30
0.0
  0
VERTEX
  5
90DE
  8
0
 10
626.8302850637226
 20
1141.650957645455
 30
0.0
  0
VERTEX
  5
90DF
  8
0
 10
627.0707886451269
 20
1141.671007165422
 30
0.0
  0
VERTEX
  5
90E0
  8
0
 10
627.3307595439774
 20
1141.684459293754
 30
0.0
  0
VERTEX
  5
90E1
  8
0
 10
627.6109174717395
 20
1141.692015880626
 30
0.0
  0
VERTEX
  5
90E2
  8
0
 10
627.9119821398791
 20
1141.694378776211
 30
0.0
  0
SEQEND
  5
9385
  8
0
  0
POLYLINE
  5
8CAE
  8
0
 10
0.0
 20
0.0
 30
0.0
 66
     1
 70
     8
  0
VERTEX
  5
90E3
  8
0
 10
627.9119821398791
 20
1141.694378776211
 30
0.0
 70
    32
  0
VERTEX
  5
90E4
  8
0
 10
628.9965644008196
 20
1141.694378776211
 30
0.0
 70
    32
  0
VERTEX
  5
90E5
  8
0
 10
632.1263589252482
 20
1141.694378776211
 30
0.0
 70
    32
  0
VERTEX
  5
90E6
  8
0
 10
637.1154373255746
 20
1141.694378776211
 30
0.0
 70
    32
  0
VERTEX
  5
90E7
  8
0
 10
643.7778712142094
 20
1141.694378776211
 30
0.0
 70
    32
  0
VERTEX
  5
90E8
  8
0
 10
651.9277322035626
 20
1141.694378776211
 30
0.0
 70
    32
  0
VERTEX
  5
90E9
  8
0
 10
661.3790919060444
 20
1141.694378776211
 30
0.0
 70
    32
  0
VERTEX
  5
90EA
  8
0
 10
671.9460219340651
 20
1141.694378776211
 30
0.0
 70
    32
  0
VERTEX
  5
90EB
  8
0
 10
683.442593900035
 20
1141.694378776211
 30
0.0
 70
    32
  0
VERTEX
  5
90EC
  8
0
 10
695.682879416364
 20
1141.694378776211
 30
0.0
 70
    32
  0
VERTEX
  5
90ED
  8
0
 10
708.4809500954625
 20
1141.694378776211
 30
0.0
 70
    32
  0
VERTEX
  5
90EE
  8
0
 10
721.6508775497406
 20
1141.694378776211
 30
0.0
 70
    32
  0
VERTEX
  5
90EF
  8
0
 10
735.0067333916083
 20
1141.694378776211
 30
0.0
 70
    32
  0
VERTEX
  5
90F0
  8
0
 10
748.3625892334763
 20
1141.694378776211
 30
0.0
 70
    32
  0
VERTEX
  5
90F1
  8
0
 10
761.5325166877544
 20
1141.694378776211
 30
0.0
 70
    32
  0
VERTEX
  5
90F2
  8
0
 10
774.3305873668529
 20
1141.694378776211
 30
0.0
 70
    32
  0
VERTEX
  5
90F3
  8
0
 10
786.5708728831819
 20
1141.694378776211
 30
0.0
 70
    32
  0
VERTEX
  5
90F4
  8
0
 10
798.0674448491518
 20
1141.694378776211
 30
0.0
 70
    32
  0
VERTEX
  5
90F5
  8
0
 10
808.6343748771726
 20
1141.694378776211
 30
0.0
 70
    32
  0
VERTEX
  5
90F6
  8
0
 10
818.0857345796546
 20
1141.694378776211
 30
0.0
 70
    32
  0
VERTEX
  5
90F7
  8
0
 10
826.235595569008
 20
1141.694378776211
 30
0.0
 70
    32
  0
VERTEX
  5
90F8
  8
0
 10
832.8980294576429
 20
1141.694378776211
 30
0.0
 70
    32
  0
VERTEX
  5
90F9
  8
0
 10
837.8871078579696
 20
1141.694378776211
 30
0.0
 70
    32
  0
VERTEX
  5
90FA
  8
0
 10
841.0169023823981
 20
1141.694378776211
 30
0.0
 70
    32
  0
VERTEX
  5
90FB
  8
0
 10
842.1014846433388
 20
1141.694378776211
 30
0.0
 70
    32
  0
SEQEND
  5
9386
  8
0
  0
POLYLINE
  5
8CAF
  8
0
 66
     1
 10
0.0
 20
0.0
 30
0.0
  0
VERTEX
  5
90FC
  8
0
 10
842.1014846433388
 20
1141.694378776211
 30
0.0
  0
VERTEX
  5
90FD
  8
0
 10
842.4009333739465
 20
1141.692015880626
 30
0.0
  0
VERTEX
  5
90FE
  8
0
 10
842.6796099443695
 20
1141.684459293754
 30
0.0
  0
VERTEX
  5
90FF
  8
0
 10
842.9382282147611
 20
1141.671007165421
 30
0.0
  0
VERTEX
  5
9100
  8
0
 10
843.1775020452735
 20
1141.650957645454
 30
0.0
  0
VERTEX
  5
9101
  8
0
 10
843.3981452960601
 20
1141.62360888368
 30
0.0
  0
VERTEX
  5
9102
  8
0
 10
843.6008718272733
 20
1141.588259029923
 30
0.0
  0
VERTEX
  5
9103
  8
0
 10
843.786395499066
 20
1141.54420623401
 30
0.0
  0
VERTEX
  5
9104
  8
0
 10
843.9554301715913
 20
1141.490748645767
 30
0.0
  0
VERTEX
  5
9105
  8
0
 10
844.1086897050018
 20
1141.42718441502
 30
0.0
  0
VERTEX
  5
9106
  8
0
 10
844.2468879594503
 20
1141.352811691597
 30
0.0
  0
VERTEX
  5
9107
  8
0
 10
844.3707387950897
 20
1141.266928625321
 30
0.0
  0
VERTEX
  5
9108
  8
0
 10
844.4809560720724
 20
1141.168833366021
 30
0.0
  0
VERTEX
  5
9109
  8
0
 10
844.5782536505519
 20
1141.057824063521
 30
0.0
  0
VERTEX
  5
910A
  8
0
 10
844.6633453906807
 20
1140.933198867648
 30
0.0
  0
VERTEX
  5
910B
  8
0
 10
844.7369451526117
 20
1140.794255928229
 30
0.0
  0
VERTEX
  5
910C
  8
0
 10
844.7997667964976
 20
1140.640293395089
 30
0.0
  0
VERTEX
  5
910D
  8
0
 10
844.8525241824912
 20
1140.470609418054
 30
0.0
  0
VERTEX
  5
910E
  8
0
 10
844.8959311707454
 20
1140.28450214695
 30
0.0
  0
VERTEX
  5
910F
  8
0
 10
844.930701621413
 20
1140.081269731605
 30
0.0
  0
VERTEX
  5
9110
  8
0
 10
844.957549394647
 20
1139.860210321843
 30
0.0
  0
VERTEX
  5
9111
  8
0
 10
844.9771883505998
 20
1139.620622067491
 30
0.0
  0
VERTEX
  5
9112
  8
0
 10
844.9903323494245
 20
1139.361803118376
 30
0.0
  0
VERTEX
  5
9113
  8
0
 10
844.9976952512741
 20
1139.083051624322
 30
0.0
  0
VERTEX
  5
9114
  8
0
 10
844.999990916301
 20
1138.783665735157
 30
0.0
  0
SEQEND
  5
9387
  8
0
  0
POLYLINE
  5
8CB0
  8
0
 10
0.0
 20
0.0
 30
0.0
 66
     1
 70
     8
  0
VERTEX
  5
9115
  8
0
 10
844.999990916301
 20
1138.783665735157
 30
0.0
 70
    32
  0
VERTEX
  5
9116
  8
0
 10
844.9999909163009
 20
1137.344648676595
 30
0.0
 70
    32
  0
VERTEX
  5
9117
  8
0
 10
844.999990916301
 20
1133.192056593314
 30
0.0
 70
    32
  0
VERTEX
  5
9118
  8
0
 10
844.9999909163012
 20
1126.572578123926
 30
0.0
 70
    32
  0
VERTEX
  5
9119
  8
0
 10
844.9999909163009
 20
1117.732901907041
 30
0.0
 70
    32
  0
VERTEX
  5
911A
  8
0
 10
844.9999909163009
 20
1106.919716581271
 30
0.0
 70
    32
  0
VERTEX
  5
911B
  8
0
 10
844.999990916301
 20
1094.379710785225
 30
0.0
 70
    32
  0
VERTEX
  5
911C
  8
0
 10
844.9999909163009
 20
1080.359573157515
 30
0.0
 70
    32
  0
VERTEX
  5
911D
  8
0
 10
844.999990916301
 20
1065.105992336752
 30
0.0
 70
    32
  0
VERTEX
  5
911E
  8
0
 10
844.999990916301
 20
1048.865656961545
 30
0.0
 70
    32
  0
VERTEX
  5
911F
  8
0
 10
844.9999909163012
 20
1031.885255670506
 30
0.0
 70
    32
  0
VERTEX
  5
9120
  8
0
 10
844.9999909163012
 20
1014.411477102246
 30
0.0
 70
    32
  0
VERTEX
  5
9121
  8
0
 10
844.999990916301
 20
996.6910098953753
 30
0.0
 70
    32
  0
VERTEX
  5
9122
  8
0
 10
844.9999909163009
 20
978.9705426885042
 30
0.0
 70
    32
  0
VERTEX
  5
9123
  8
0
 10
844.9999909163009
 20
961.4967641202442
 30
0.0
 70
    32
  0
VERTEX
  5
9124
  8
0
 10
844.999990916301
 20
944.5163628292056
 30
0.0
 70
    32
  0
VERTEX
  5
9125
  8
0
 10
844.999990916301
 20
928.2760274539992
 30
0.0
 70
    32
  0
VERTEX
  5
9126
  8
0
 10
844.999990916301
 20
913.0224466332356
 30
0.0
 70
    32
  0
VERTEX
  5
9127
  8
0
 10
844.9999909163009
 20
899.002309005526
 30
0.0
 70
    32
  0
VERTEX
  5
9128
  8
0
 10
844.999990916301
 20
886.4623032094808
 30
0.0
 70
    32
  0
VERTEX
  5
9129
  8
0
 10
844.999990916301
 20
875.6491178837105
 30
0.0
 70
    32
  0
VERTEX
  5
912A
  8
0
 10
844.9999909163012
 20
866.8094416668262
 30
0.0
 70
    32
  0
VERTEX
  5
912B
  8
0
 10
844.9999909163009
 20
860.1899631974386
 30
0.0
 70
    32
  0
VERTEX
  5
912C
  8
0
 10
844.999990916301
 20
856.0373711141583
 30
0.0
 70
    32
  0
VERTEX
  5
912D
  8
0
 10
844.999990916301
 20
854.5983540555962
 30
0.0
 70
    32
  0
SEQEND
  5
9388
  8
0
  0
POLYLINE
  5
8CB1
  8
0
 66
     1
 10
0.0
 20
0.0
 30
0.0
  0
VERTEX
  5
912E
  8
0
 10
844.999990916301
 20
854.5983540555962
 30
0.0
  0
VERTEX
  5
912F
  8
0
 10
844.997695251274
 20
854.2982287867688
 30
0.0
  0
VERTEX
  5
9130
  8
0
 10
844.9903323494245
 20
854.0189338462267
 30
0.0
  0
VERTEX
  5
9131
  8
0
 10
844.9771883505999
 20
853.7597527619173
 30
0.0
  0
VERTEX
  5
9132
  8
0
 10
844.9575493946468
 20
853.5199690617877
 30
0.0
  0
VERTEX
  5
9133
  8
0
 10
844.9307016214128
 20
853.2988662737861
 30
0.0
  0
VERTEX
  5
9134
  8
0
 10
844.8959311707454
 20
853.0957279258597
 30
0.0
  0
VERTEX
  5
9135
  8
0
 10
844.8525241824912
 20
852.9098375459561
 30
0.0
  0
VERTEX
  5
9136
  8
0
 10
844.7997667964976
 20
852.7404786620226
 30
0.0
  0
VERTEX
  5
9137
  8
0
 10
844.7369451526117
 20
852.5869348020069
 30
0.0
  0
VERTEX
  5
9138
  8
0
 10
844.6633453906807
 20
852.4484894938564
 30
0.0
  0
VERTEX
  5
9139
  8
0
 10
844.5782536505519
 20
852.3244262655189
 30
0.0
  0
VERTEX
  5
913A
  8
0
 10
844.4809560720726
 20
852.2140286449414
 30
0.0
  0
VERTEX
  5
913B
  8
0
 10
844.3707387950893
 20
852.1165801600719
 30
0.0
  0
VERTEX
  5
913C
  8
0
 10
844.2468879594501
 20
852.0313643388575
 30
0.0
  0
VERTEX
  5
913D
  8
0
 10
844.1086897050018
 20
851.9576647092462
 30
0.0
  0
VERTEX
  5
913E
  8
0
 10
843.9554301715914
 20
851.8947647991852
 30
0.0
  0
VERTEX
  5
913F
  8
0
 10
843.7863954990661
 20
851.841948136622
 30
0.0
  0
VERTEX
  5
9140
  8
0
 10
843.6008718272733
 20
851.7984982495042
 30
0.0
  0
VERTEX
  5
9141
  8
0
 10
843.3981452960601
 20
851.7636986657793
 30
0.0
  0
VERTEX
  5
9142
  8
0
 10
843.1775020452735
 20
851.7368329133948
 30
0.0
  0
VERTEX
  5
9143
  8
0
 10
842.938228214761
 20
851.7171845202982
 30
0.0
  0
VERTEX
  5
9144
  8
0
 10
842.6796099443695
 20
851.7040370144371
 30
0.0
  0
VERTEX
  5
9145
  8
0
 10
842.4009333739464
 20
851.6966739237588
 30
0.0
  0
VERTEX
  5
9146
  8
0
 10
842.1014846433388
 20
851.6943787762111
 30
0.0
  0
SEQEND
  5
9389
  8
0
  0
POLYLINE
  5
8CB2
  8
0
 10
0.0
 20
0.0
 30
0.0
 66
     1
 70
     8
  0
VERTEX
  5
9147
  8
0
 10
842.1014846433388
 20
851.6943787762111
 30
0.0
 70
    32
  0
VERTEX
  5
9148
  8
0
 10
841.0169023823984
 20
851.6943787762111
 30
0.0
 70
    32
  0
VERTEX
  5
9149
  8
0
 10
837.8871078579697
 20
851.6943787762111
 30
0.0
 70
    32
  0
VERTEX
  5
914A
  8
0
 10
832.8980294576431
 20
851.6943787762112
 30
0.0
 70
    32
  0
VERTEX
  5
914B
  8
0
 10
826.2355955690082
 20
851.694378776211
 30
0.0
 70
    32
  0
VERTEX
  5
914C
  8
0
 10
818.0857345796549
 20
851.694378776211
 30
0.0
 70
    32
  0
VERTEX
  5
914D
  8
0
 10
808.6343748771728
 20
851.6943787762111
 30
0.0
 70
    32
  0
VERTEX
  5
914E
  8
0
 10
798.067444849152
 20
851.6943787762111
 30
0.0
 70
    32
  0
VERTEX
  5
914F
  8
0
 10
786.5708728831819
 20
851.6943787762111
 30
0.0
 70
    32
  0
VERTEX
  5
9150
  8
0
 10
774.3305873668526
 20
851.6943787762111
 30
0.0
 70
    32
  0
VERTEX
  5
9151
  8
0
 10
761.532516687754
 20
851.6943787762111
 30
0.0
 70
    32
  0
VERTEX
  5
9152
  8
0
 10
748.3625892334759
 20
851.6943787762111
 30
0.0
 70
    32
  0
VERTEX
  5
9153
  8
0
 10
735.0067333916079
 20
851.6943787762111
 30
0.0
 70
    32
  0
VERTEX
  5
9154
  8
0
 10
721.6508775497398
 20
851.6943787762111
 30
0.0
 70
    32
  0
VERTEX
  5
9155
  8
0
 10
708.4809500954616
 20
851.694378776211
 30
0.0
 70
    32
  0
VERTEX
  5
9156
  8
0
 10
695.682879416363
 20
851.6943787762111
 30
0.0
 70
    32
  0
VERTEX
  5
9157
  8
0
 10
683.442593900034
 20
851.6943787762111
 30
0.0
 70
    32
  0
VERTEX
  5
9158
  8
0
 10
671.9460219340641
 20
851.6943787762111
 30
0.0
 70
    32
  0
VERTEX
  5
9159
  8
0
 10
661.3790919060434
 20
851.6943787762111
 30
0.0
 70
    32
  0
VERTEX
  5
915A
  8
0
 10
651.9277322035616
 20
851.6943787762111
 30
0.0
 70
    32
  0
VERTEX
  5
915B
  8
0
 10
643.7778712142085
 20
851.6943787762111
 30
0.0
 70
    32
  0
VERTEX
  5
915C
  8
0
 10
637.1154373255738
 20
851.6943787762111
 30
0.0
 70
    32
  0
VERTEX
  5
915D
  8
0
 10
632.1263589252475
 20
851.6943787762111
 30
0.0
 70
    32
  0
VERTEX
  5
915E
  8
0
 10
628.9965644008194
 20
851.6943787762111
 30
0.0
 70
    32
  0
VERTEX
  5
915F
  8
0
 10
627.9119821398791
 20
851.6943787762111
 30
0.0
 70
    32
  0
SEQEND
  5
938A
  8
0
  0
POLYLINE
  5
8E13
  8
0
 66
     1
 10
0.0
 20
0.0
 30
0.0
  0
VERTEX
  5
9160
  8
0
 10
1015.723854144586
 20
852.603976601541
 30
0.0
  0
VERTEX
  5
9161
  8
0
 10
1015.765562900579
 20
852.5034570347649
 30
0.0
  0
VERTEX
  5
9162
  8
0
 10
1015.810093419293
 20
852.4105700886294
 30
0.0
  0
VERTEX
  5
9163
  8
0
 10
1015.857195523828
 20
852.3250174768108
 30
0.0
  0
VERTEX
  5
9164
  8
0
 10
1015.906619037282
 20
852.2465009129855
 30
0.0
  0
VERTEX
  5
9165
  8
0
 10
1015.958113782754
 20
852.1747221108292
 30
0.0
  0
VERTEX
  5
9166
  8
0
 10
1016.011429583344
 20
852.109382784018
 30
0.0
  0
VERTEX
  5
9167
  8
0
 10
1016.06631626215
 20
852.050184646228
 30
0.0
  0
VERTEX
  5
9168
  8
0
 10
1016.12252364227
 20
851.9968294111356
 30
0.0
  0
VERTEX
  5
9169
  8
0
 10
1016.179801546805
 20
851.9490187924167
 30
0.0
  0
VERTEX
  5
916A
  8
0
 10
1016.237899798852
 20
851.9064545037476
 30
0.0
  0
VERTEX
  5
916B
  8
0
 10
1016.296568221512
 20
851.8688382588041
 30
0.0
  0
VERTEX
  5
916C
  8
0
 10
1016.355556637881
 20
851.8358717712624
 30
0.0
  0
VERTEX
  5
916D
  8
0
 10
1016.414614871061
 20
851.8072567547987
 30
0.0
  0
VERTEX
  5
916E
  8
0
 10
1016.473492744149
 20
851.7826949230893
 30
0.0
  0
VERTEX
  5
916F
  8
0
 10
1016.531940080244
 20
851.7618879898099
 30
0.0
  0
VERTEX
  5
9170
  8
0
 10
1016.589706702446
 20
851.7445376686367
 30
0.0
  0
VERTEX
  5
9171
  8
0
 10
1016.646542433853
 20
851.7303456732461
 30
0.0
  0
VERTEX
  5
9172
  8
0
 10
1016.702197097565
 20
851.7190137173138
 30
0.0
  0
VERTEX
  5
9173
  8
0
 10
1016.756420516679
 20
851.7102435145162
 30
0.0
  0
VERTEX
  5
9174
  8
0
 10
1016.808962514295
 20
851.7037367785293
 30
0.0
  0
VERTEX
  5
9175
  8
0
 10
1016.859572913513
 20
851.6991952230294
 30
0.0
  0
VERTEX
  5
9176
  8
0
 10
1016.90800153743
 20
851.6963205616922
 30
0.0
  0
VERTEX
  5
9177
  8
0
 10
1016.953998209146
 20
851.694814508194
 30
0.0
  0
VERTEX
  5
9178
  8
0
 10
1016.99731275176
 20
851.6943787762111
 30
0.0
  0
SEQEND
  5
938B
  8
0
  0
POLYLINE
  5
8E14
  8
0
 10
0.0
 20
0.0
 30
0.0
 66
     1
 70
     8
  0
VERTEX
  5
9179
  8
0
 10
1016.99731275176
 20
851.6943787762111
 30
0.0
 70
    32
  0
VERTEX
  5
917A
  8
0
 10
1017.006544085474
 20
851.6943787762112
 30
0.0
 70
    32
  0
VERTEX
  5
917B
  8
0
 10
1017.033183077049
 20
851.6943787762111
 30
0.0
 70
    32
  0
VERTEX
  5
917C
  8
0
 10
1017.075647212135
 20
851.6943787762114
 30
0.0
 70
    32
  0
VERTEX
  5
917D
  8
0
 10
1017.13235397638
 20
851.6943787762111
 30
0.0
 70
    32
  0
VERTEX
  5
917E
  8
0
 10
1017.201720855432
 20
851.694378776211
 30
0.0
 70
    32
  0
VERTEX
  5
917F
  8
0
 10
1017.282165334942
 20
851.6943787762111
 30
0.0
 70
    32
  0
VERTEX
  5
9180
  8
0
 10
1017.372104900558
 20
851.6943787762112
 30
0.0
 70
    32
  0
VERTEX
  5
9181
  8
0
 10
1017.46995703793
 20
851.6943787762111
 30
0.0
 70
    32
  0
VERTEX
  5
9182
  8
0
 10
1017.574139232705
 20
851.694378776211
 30
0.0
 70
    32
  0
VERTEX
  5
9183
  8
0
 10
1017.683068970533
 20
851.694378776211
 30
0.0
 70
    32
  0
VERTEX
  5
9184
  8
0
 10
1017.795163737063
 20
851.6943787762111
 30
0.0
 70
    32
  0
VERTEX
  5
9185
  8
0
 10
1017.908841017945
 20
851.6943787762111
 30
0.0
 70
    32
  0
VERTEX
  5
9186
  8
0
 10
1018.022518298826
 20
851.6943787762112
 30
0.0
 70
    32
  0
VERTEX
  5
9187
  8
0
 10
1018.134613065356
 20
851.6943787762111
 30
0.0
 70
    32
  0
VERTEX
  5
9188
  8
0
 10
1018.243542803185
 20
851.6943787762111
 30
0.0
 70
    32
  0
VERTEX
  5
9189
  8
0
 10
1018.34772499796
 20
851.6943787762111
 30
0.0
 70
    32
  0
VERTEX
  5
918A
  8
0
 10
1018.445577135331
 20
851.6943787762111
 30
0.0
 70
    32
  0
VERTEX
  5
918B
  8
0
 10
1018.535516700947
 20
851.6943787762111
 30
0.0
 70
    32
  0
VERTEX
  5
918C
  8
0
 10
1018.615961180457
 20
851.6943787762111
 30
0.0
 70
    32
  0
VERTEX
  5
918D
  8
0
 10
1018.68532805951
 20
851.694378776211
 30
0.0
 70
    32
  0
VERTEX
  5
918E
  8
0
 10
1018.742034823755
 20
851.6943787762112
 30
0.0
 70
    32
  0
VERTEX
  5
918F
  8
0
 10
1018.78449895884
 20
851.6943787762111
 30
0.0
 70
    32
  0
VERTEX
  5
9190
  8
0
 10
1018.811137950416
 20
851.694378776211
 30
0.0
 70
    32
  0
VERTEX
  5
9191
  8
0
 10
1018.82036928413
 20
851.6943787762111
 30
0.0
 70
    32
  0
SEQEND
  5
938C
  8
0
  0
POLYLINE
  5
8E15
  8
0
 66
     1
 10
0.0
 20
0.0
 30
0.0
  0
VERTEX
  5
9192
  8
0
 10
1018.82036928413
 20
851.6943787762111
 30
0.0
  0
VERTEX
  5
9193
  8
0
 10
1018.534404480383
 20
852.4122637895696
 30
0.0
  0
VERTEX
  5
9194
  8
0
 10
1018.249585835926
 20
853.137503607875
 30
0.0
  0
VERTEX
  5
9195
  8
0
 10
1017.965942441098
 20
853.8700836092486
 30
0.0
  0
VERTEX
  5
9196
  8
0
 10
1017.683503386236
 20
854.6099891718122
 30
0.0
  0
VERTEX
  5
9197
  8
0
 10
1017.402297761677
 20
855.3572056736866
 30
0.0
  0
VERTEX
  5
9198
  8
0
 10
1017.122354657758
 20
856.1117184929934
 30
0.0
  0
VERTEX
  5
9199
  8
0
 10
1016.843703164817
 20
856.8735130078542
 30
0.0
  0
VERTEX
  5
919A
  8
0
 10
1016.56637237319
 20
857.6425745963901
 30
0.0
  0
VERTEX
  5
919B
  8
0
 10
1016.290391373216
 20
858.4188886367226
 30
0.0
  0
VERTEX
  5
919C
  8
0
 10
1016.015789255232
 20
859.2024405069731
 30
0.0
  0
VERTEX
  5
919D
  8
0
 10
1015.742595109575
 20
859.993215585263
 30
0.0
  0
VERTEX
  5
919E
  8
0
 10
1015.470838026582
 20
860.7911992497136
 30
0.0
  0
VERTEX
  5
919F
  8
0
 10
1015.200547096591
 20
861.5963768784462
 30
0.0
  0
VERTEX
  5
91A0
  8
0
 10
1014.931751409939
 20
862.4087338495825
 30
0.0
  0
VERTEX
  5
91A1
  8
0
 10
1014.664480056963
 20
863.2282555412435
 30
0.0
  0
VERTEX
  5
91A2
  8
0
 10
1014.398762128001
 20
864.054927331551
 30
0.0
  0
VERTEX
  5
91A3
  8
0
 10
1014.13462671339
 20
864.8887345986259
 30
0.0
  0
VERTEX
  5
91A4
  8
0
 10
1013.872102903467
 20
865.7296627205899
 30
0.0
  0
VERTEX
  5
91A5
  8
0
 10
1013.61121978857
 20
866.5776970755642
 30
0.0
  0
VERTEX
  5
91A6
  8
0
 10
1013.352006459036
 20
867.4328230416704
 30
0.0
  0
VERTEX
  5
91A7
  8
0
 10
1013.094492005202
 20
868.2950259970297
 30
0.0
  0
VERTEX
  5
91A8
  8
0
 10
1012.838705517407
 20
869.1642913197636
 30
0.0
  0
VERTEX
  5
91A9
  8
0
 10
1012.584676085986
 20
870.0406043879934
 30
0.0
  0
VERTEX
  5
91AA
  8
0
 10
1012.332432801277
 20
870.9239505798405
 30
0.0
  0
SEQEND
  5
938D
  8
0
  0
POLYLINE
  5
8E16
  8
0
 66
     1
 10
0.0
 20
0.0
 30
0.0
  0
VERTEX
  5
91AB
  8
0
 10
1012.332432801277
 20
870.9239505798405
 30
0.0
  0
VERTEX
  5
91AC
  8
0
 10
1011.161882232106
 20
875.160952818823
 30
0.0
  0
VERTEX
  5
91AD
  8
0
 10
1010.036561319423
 20
879.5097071517395
 30
0.0
  0
VERTEX
  5
91AE
  8
0
 10
1008.956877327951
 20
883.966651688957
 30
0.0
  0
VERTEX
  5
91AF
  8
0
 10
1007.923237522412
 20
888.5282245408437
 30
0.0
  0
VERTEX
  5
91B0
  8
0
 10
1006.93604916753
 20
893.1908638177669
 30
0.0
  0
VERTEX
  5
91B1
  8
0
 10
1005.995719528027
 20
897.9510076300944
 30
0.0
  0
VERTEX
  5
91B2
  8
0
 10
1005.102655868625
 20
902.8050940881938
 30
0.0
  0
VERTEX
  5
91B3
  8
0
 10
1004.257265454048
 20
907.7495613024325
 30
0.0
  0
VERTEX
  5
91B4
  8
0
 10
1003.459955549018
 20
912.7808473831785
 30
0.0
  0
VERTEX
  5
91B5
  8
0
 10
1002.711133418258
 20
917.8953904407991
 30
0.0
  0
VERTEX
  5
91B6
  8
0
 10
1002.01120632649
 20
923.0896285856624
 30
0.0
  0
VERTEX
  5
91B7
  8
0
 10
1001.360581538437
 20
928.3599999281355
 30
0.0
  0
VERTEX
  5
91B8
  8
0
 10
1000.759666318822
 20
933.7029425785863
 30
0.0
  0
VERTEX
  5
91B9
  8
0
 10
1000.208867932368
 20
939.1148946473826
 30
0.0
  0
VERTEX
  5
91BA
  8
0
 10
999.7085936437973
 20
944.5922942448915
 30
0.0
  0
VERTEX
  5
91BB
  8
0
 10
999.259250717832
 20
950.1315794814813
 30
0.0
  0
VERTEX
  5
91BC
  8
0
 10
998.8612464191951
 20
955.7291884675191
 30
0.0
  0
VERTEX
  5
91BD
  8
0
 10
998.5149880126098
 20
961.3815593133729
 30
0.0
  0
VERTEX
  5
91BE
  8
0
 10
998.2208827627984
 20
967.08513012941
 30
0.0
  0
VERTEX
  5
91BF
  8
0
 10
997.9793379344837
 20
972.8363390259983
 30
0.0
  0
VERTEX
  5
91C0
  8
0
 10
997.7907607923884
 20
978.6316241135055
 30
0.0
  0
VERTEX
  5
91C1
  8
0
 10
997.6555586012349
 20
984.4674235022989
 30
0.0
  0
VERTEX
  5
91C2
  8
0
 10
997.5741386257463
 20
990.3401753027463
 30
0.0
  0
VERTEX
  5
91C3
  8
0
 10
997.546908130645
 20
996.2463176252154
 30
0.0
  0
VERTEX
  5
91C4
  8
0
 10
997.5741386257462
 20
1002.152426317363
 30
0.0
  0
VERTEX
  5
91C5
  8
0
 10
997.655558601235
 20
1008.0250830756
 30
0.0
  0
VERTEX
  5
91C6
  8
0
 10
997.7907607923883
 20
1013.860734783419
 30
0.0
  0
VERTEX
  5
91C7
  8
0
 10
997.9793379344836
 20
1019.655828324316
 30
0.0
  0
VERTEX
  5
91C8
  8
0
 10
998.2208827627984
 20
1025.406810581786
 30
0.0
  0
VERTEX
  5
91C9
  8
0
 10
998.5149880126098
 20
1031.110128439323
 30
0.0
  0
VERTEX
  5
91CA
  8
0
 10
998.8612464191953
 20
1036.762228780422
 30
0.0
  0
VERTEX
  5
91CB
  8
0
 10
999.2592507178317
 20
1042.359558488578
 30
0.0
  0
VERTEX
  5
91CC
  8
0
 10
999.708593643797
 20
1047.898564447286
 30
0.0
  0
VERTEX
  5
91CD
  8
0
 10
1000.208867932368
 20
1053.37569354004
 30
0.0
  0
VERTEX
  5
91CE
  8
0
 10
1000.759666318823
 20
1058.787392650336
 30
0.0
  0
VERTEX
  5
91CF
  8
0
 10
1001.360581538437
 20
1064.130108661669
 30
0.0
  0
VERTEX
  5
91D0
  8
0
 10
1002.01120632649
 20
1069.400288457532
 30
0.0
  0
VERTEX
  5
91D1
  8
0
 10
1002.711133418258
 20
1074.594378921421
 30
0.0
  0
VERTEX
  5
91D2
  8
0
 10
1003.459955549018
 20
1079.708826936831
 30
0.0
  0
VERTEX
  5
91D3
  8
0
 10
1004.257265454048
 20
1084.740079387256
 30
0.0
  0
VERTEX
  5
91D4
  8
0
 10
1005.102655868625
 20
1089.684583156191
 30
0.0
  0
VERTEX
  5
91D5
  8
0
 10
1005.995719528027
 20
1094.538785127132
 30
0.0
  0
VERTEX
  5
91D6
  8
0
 10
1006.93604916753
 20
1099.299132183572
 30
0.0
  0
VERTEX
  5
91D7
  8
0
 10
1007.923237522412
 20
1103.962071209007
 30
0.0
  0
VERTEX
  5
91D8
  8
0
 10
1008.956877327951
 20
1108.524049086931
 30
0.0
  0
VERTEX
  5
91D9
  8
0
 10
1010.036561319423
 20
1112.98151270084
 30
0.0
  0
VERTEX
  5
91DA
  8
0
 10
1011.161882232106
 20
1117.330908934228
 30
0.0
  0
VERTEX
  5
91DB
  8
0
 10
1012.332432801277
 20
1121.568684670589
 30
0.0
  0
SEQEND
  5
938E
  8
0
  0
POLYLINE
  5
8E17
  8
0
 66
     1
 10
0.0
 20
0.0
 30
0.0
  0
VERTEX
  5
91DC
  8
0
 10
1012.332432801277
 20
1121.568684670589
 30
0.0
  0
VERTEX
  5
91DD
  8
0
 10
1012.59815073024
 20
1122.498774571412
 30
0.0
  0
VERTEX
  5
91DE
  8
0
 10
1012.865794439533
 20
1123.420992052784
 30
0.0
  0
VERTEX
  5
91DF
  8
0
 10
1013.135334838821
 20
1124.335325417203
 30
0.0
  0
VERTEX
  5
91E0
  8
0
 10
1013.406742837766
 20
1125.241762967167
 30
0.0
  0
VERTEX
  5
91E1
  8
0
 10
1013.67998934603
 20
1126.140293005171
 30
0.0
  0
VERTEX
  5
91E2
  8
0
 10
1013.955045273277
 20
1127.030903833713
 30
0.0
  0
VERTEX
  5
91E3
  8
0
 10
1014.231881529169
 20
1127.913583755292
 30
0.0
  0
VERTEX
  5
91E4
  8
0
 10
1014.510469023368
 20
1128.788321072402
 30
0.0
  0
VERTEX
  5
91E5
  8
0
 10
1014.790778665537
 20
1129.655104087542
 30
0.0
  0
VERTEX
  5
91E6
  8
0
 10
1015.072781365339
 20
1130.513921103209
 30
0.0
  0
VERTEX
  5
91E7
  8
0
 10
1015.356448032437
 20
1131.364760421899
 30
0.0
  0
VERTEX
  5
91E8
  8
0
 10
1015.641749576493
 20
1132.20761034611
 30
0.0
  0
VERTEX
  5
91E9
  8
0
 10
1015.92865690717
 20
1133.042459178339
 30
0.0
  0
VERTEX
  5
91EA
  8
0
 10
1016.21714093413
 20
1133.869295221083
 30
0.0
  0
VERTEX
  5
91EB
  8
0
 10
1016.507172567037
 20
1134.688106776839
 30
0.0
  0
VERTEX
  5
91EC
  8
0
 10
1016.798722715552
 20
1135.498882148104
 30
0.0
  0
VERTEX
  5
91ED
  8
0
 10
1017.091762289339
 20
1136.301609637376
 30
0.0
  0
VERTEX
  5
91EE
  8
0
 10
1017.38626219806
 20
1137.096277547151
 30
0.0
  0
VERTEX
  5
91EF
  8
0
 10
1017.682193351378
 20
1137.882874179927
 30
0.0
  0
VERTEX
  5
91F0
  8
0
 10
1017.979526658956
 20
1138.6613878382
 30
0.0
  0
VERTEX
  5
91F1
  8
0
 10
1018.278233030455
 20
1139.431806824468
 30
0.0
  0
VERTEX
  5
91F2
  8
0
 10
1018.57828337554
 20
1140.194119441228
 30
0.0
  0
VERTEX
  5
91F3
  8
0
 10
1018.879648603872
 20
1140.948313990976
 30
0.0
  0
VERTEX
  5
91F4
  8
0
 10
1019.182299625114
 20
1141.694378776211
 30
0.0
  0
SEQEND
  5
938F
  8
0
  0
POLYLINE
  5
8E18
  8
0
 10
0.0
 20
0.0
 30
0.0
 66
     1
 70
     8
  0
VERTEX
  5
91F5
  8
0
 10
1019.182299625114
 20
1141.694378776211
 30
0.0
 70
    32
  0
VERTEX
  5
91F6
  8
0
 10
1019.1730682914
 20
1141.694378776211
 30
0.0
 70
    32
  0
VERTEX
  5
91F7
  8
0
 10
1019.146429299824
 20
1141.694378776211
 30
0.0
 70
    32
  0
VERTEX
  5
91F8
  8
0
 10
1019.103965164739
 20
1141.694378776211
 30
0.0
 70
    32
  0
VERTEX
  5
91F9
  8
0
 10
1019.047258400494
 20
1141.694378776211
 30
0.0
 70
    32
  0
VERTEX
  5
91FA
  8
0
 10
1018.977891521441
 20
1141.694378776211
 30
0.0
 70
    32
  0
VERTEX
  5
91FB
  8
0
 10
1018.897447041931
 20
1141.694378776211
 30
0.0
 70
    32
  0
VERTEX
  5
91FC
  8
0
 10
1018.807507476315
 20
1141.694378776211
 30
0.0
 70
    32
  0
VERTEX
  5
91FD
  8
0
 10
1018.709655338944
 20
1141.694378776211
 30
0.0
 70
    32
  0
VERTEX
  5
91FE
  8
0
 10
1018.605473144169
 20
1141.694378776211
 30
0.0
 70
    32
  0
VERTEX
  5
91FF
  8
0
 10
1018.49654340634
 20
1141.694378776211
 30
0.0
 70
    32
  0
VERTEX
  5
9200
  8
0
 10
1018.38444863981
 20
1141.694378776211
 30
0.0
 70
    32
  0
VERTEX
  5
9201
  8
0
 10
1018.270771358929
 20
1141.694378776211
 30
0.0
 70
    32
  0
VERTEX
  5
9202
  8
0
 10
1018.157094078047
 20
1141.694378776211
 30
0.0
 70
    32
  0
VERTEX
  5
9203
  8
0
 10
1018.044999311517
 20
1141.694378776211
 30
0.0
 70
    32
  0
VERTEX
  5
9204
  8
0
 10
1017.936069573689
 20
1141.694378776211
 30
0.0
 70
    32
  0
VERTEX
  5
9205
  8
0
 10
1017.831887378914
 20
1141.694378776211
 30
0.0
 70
    32
  0
VERTEX
  5
9206
  8
0
 10
1017.734035241543
 20
1141.694378776211
 30
0.0
 70
    32
  0
VERTEX
  5
9207
  8
0
 10
1017.644095675927
 20
1141.694378776211
 30
0.0
 70
    32
  0
VERTEX
  5
9208
  8
0
 10
1017.563651196416
 20
1141.694378776211
 30
0.0
 70
    32
  0
VERTEX
  5
9209
  8
0
 10
1017.494284317364
 20
1141.694378776211
 30
0.0
 70
    32
  0
VERTEX
  5
920A
  8
0
 10
1017.437577553119
 20
1141.694378776211
 30
0.0
 70
    32
  0
VERTEX
  5
920B
  8
0
 10
1017.395113418033
 20
1141.694378776211
 30
0.0
 70
    32
  0
VERTEX
  5
920C
  8
0
 10
1017.368474426458
 20
1141.694378776211
 30
0.0
 70
    32
  0
VERTEX
  5
920D
  8
0
 10
1017.359243092744
 20
1141.694378776211
 30
0.0
 70
    32
  0
SEQEND
  5
9390
  8
0
  0
POLYLINE
  5
8E19
  8
0
 66
     1
 10
0.0
 20
0.0
 30
0.0
  0
VERTEX
  5
920E
  8
0
 10
1017.359243092744
 20
1141.694378776211
 30
0.0
  0
VERTEX
  5
920F
  8
0
 10
1017.314389671285
 20
1141.693943044228
 30
0.0
  0
VERTEX
  5
9210
  8
0
 10
1017.26711593376
 20
1141.69243699073
 30
0.0
  0
VERTEX
  5
9211
  8
0
 10
1017.217654602867
 20
1141.689562329393
 30
0.0
  0
VERTEX
  5
9212
  8
0
 10
1017.166238401305
 20
1141.685020773893
 30
0.0
  0
VERTEX
  5
9213
  8
0
 10
1017.113100051773
 20
1141.678514037906
 30
0.0
  0
VERTEX
  5
9214
  8
0
 10
1017.05847227697
 20
1141.669743835109
 30
0.0
  0
VERTEX
  5
9215
  8
0
 10
1017.002587799594
 20
1141.658411879176
 30
0.0
  0
VERTEX
  5
9216
  8
0
 10
1016.945679342344
 20
1141.644219883786
 30
0.0
  0
VERTEX
  5
9217
  8
0
 10
1016.887979627918
 20
1141.626869562612
 30
0.0
  0
VERTEX
  5
9218
  8
0
 10
1016.829721379015
 20
1141.606062629333
 30
0.0
  0
VERTEX
  5
9219
  8
0
 10
1016.771137318334
 20
1141.581500797623
 30
0.0
  0
VERTEX
  5
921A
  8
0
 10
1016.712460168574
 20
1141.55288578116
 30
0.0
  0
VERTEX
  5
921B
  8
0
 10
1016.653922652433
 20
1141.519919293618
 30
0.0
  0
VERTEX
  5
921C
  8
0
 10
1016.595757492609
 20
1141.482303048675
 30
0.0
  0
VERTEX
  5
921D
  8
0
 10
1016.538197411803
 20
1141.439738760005
 30
0.0
  0
VERTEX
  5
921E
  8
0
 10
1016.481475132712
 20
1141.391928141287
 30
0.0
  0
VERTEX
  5
921F
  8
0
 10
1016.425823378034
 20
1141.338572906194
 30
0.0
  0
VERTEX
  5
9220
  8
0
 10
1016.371474870469
 20
1141.279374768405
 30
0.0
  0
VERTEX
  5
9221
  8
0
 10
1016.318662332716
 20
1141.214035441593
 30
0.0
  0
VERTEX
  5
9222
  8
0
 10
1016.267618487472
 20
1141.142256639437
 30
0.0
  0
VERTEX
  5
9223
  8
0
 10
1016.218576057438
 20
1141.063740075611
 30
0.0
  0
VERTEX
  5
9224
  8
0
 10
1016.17176776531
 20
1140.978187463793
 30
0.0
  0
VERTEX
  5
9225
  8
0
 10
1016.127426333788
 20
1140.885300517657
 30
0.0
  0
VERTEX
  5
9226
  8
0
 10
1016.085784485572
 20
1140.784780950881
 30
0.0
  0
SEQEND
  5
9391
  8
0
  0
POLYLINE
  5
8E1A
  8
0
 66
     1
 10
0.0
 20
0.0
 30
0.0
  0
VERTEX
  5
9227
  8
0
 10
1016.085784485572
 20
1140.784780950881
 30
0.0
  0
VERTEX
  5
9228
  8
0
 10
1014.521694984545
 20
1136.630060896866
 30
0.0
  0
VERTEX
  5
9229
  8
0
 10
1013.004202385861
 20
1132.270254373295
 30
0.0
  0
VERTEX
  5
922A
  8
0
 10
1011.535081200097
 20
1127.711180887861
 30
0.0
  0
VERTEX
  5
922B
  8
0
 10
1010.116105937832
 20
1122.958659948255
 30
0.0
  0
VERTEX
  5
922C
  8
0
 10
1008.749051109641
 20
1118.01851106217
 30
0.0
  0
VERTEX
  5
922D
  8
0
 10
1007.435691226103
 20
1112.896553737296
 30
0.0
  0
VERTEX
  5
922E
  8
0
 10
1006.177800797795
 20
1107.598607481325
 30
0.0
  0
VERTEX
  5
922F
  8
0
 10
1004.977154335295
 20
1102.130491801949
 30
0.0
  0
VERTEX
  5
9230
  8
0
 10
1003.83552634918
 20
1096.49802620686
 30
0.0
  0
VERTEX
  5
9231
  8
0
 10
1002.754691350027
 20
1090.707030203749
 30
0.0
  0
VERTEX
  5
9232
  8
0
 10
1001.736423848414
 20
1084.763323300308
 30
0.0
  0
VERTEX
  5
9233
  8
0
 10
1000.782498354919
 20
1078.672725004228
 30
0.0
  0
VERTEX
  5
9234
  8
0
 10
999.8946893801177
 20
1072.441054823201
 30
0.0
  0
VERTEX
  5
9235
  8
0
 10
999.0747714345889
 20
1066.074132264919
 30
0.0
  0
VERTEX
  5
9236
  8
0
 10
998.3245190289094
 20
1059.577776837074
 30
0.0
  0
VERTEX
  5
9237
  8
0
 10
997.6457066736571
 20
1052.957808047356
 30
0.0
  0
VERTEX
  5
9238
  8
0
 10
997.0401088794092
 20
1046.220045403458
 30
0.0
  0
VERTEX
  5
9239
  8
0
 10
996.5095001567431
 20
1039.370308413071
 30
0.0
  0
VERTEX
  5
923A
  8
0
 10
996.0556550162362
 20
1032.414416583887
 30
0.0
  0
VERTEX
  5
923B
  8
0
 10
995.6803479684659
 20
1025.358189423598
 30
0.0
  0
VERTEX
  5
923C
  8
0
 10
995.38535352401
 20
1018.207446439895
 30
0.0
  0
VERTEX
  5
923D
  8
0
 10
995.1724461934456
 20
1010.968007140469
 30
0.0
  0
VERTEX
  5
923E
  8
0
 10
995.0434004873501
 20
1003.645691033013
 30
0.0
  0
VERTEX
  5
923F
  8
0
 10
994.999990916301
 20
996.2463176252184
 30
0.0
  0
VERTEX
  5
9240
  8
0
 10
995.0425132320613
 20
988.8910433159518
 30
0.0
  0
VERTEX
  5
9241
  8
0
 10
995.168978625235
 20
981.6117004223703
 30
0.0
  0
VERTEX
  5
9242
  8
0
 10
995.3777347646618
 20
974.4140353427726
 30
0.0
  0
VERTEX
  5
9243
  8
0
 10
995.6671293191807
 20
967.303794475457
 30
0.0
  0
VERTEX
  5
9244
  8
0
 10
996.0355099576311
 20
960.2867242187218
 30
0.0
  0
VERTEX
  5
9245
  8
0
 10
996.4812243488528
 20
953.3685709708658
 30
0.0
  0
VERTEX
  5
9246
  8
0
 10
997.002620161685
 20
946.5550811301875
 30
0.0
  0
VERTEX
  5
9247
  8
0
 10
997.5980450649668
 20
939.8520010949856
 30
0.0
  0
VERTEX
  5
9248
  8
0
 10
998.2658467275377
 20
933.265077263558
 30
0.0
  0
VERTEX
  5
9249
  8
0
 10
999.0043728182371
 20
926.8000560342036
 30
0.0
  0
VERTEX
  5
924A
  8
0
 10
999.8119710059048
 20
920.4626838052212
 30
0.0
  0
VERTEX
  5
924B
  8
0
 10
1000.68698895938
 20
914.2587069749089
 30
0.0
  0
VERTEX
  5
924C
  8
0
 10
1001.627774347501
 20
908.1938719415655
 30
0.0
  0
VERTEX
  5
924D
  8
0
 10
1002.632674839109
 20
902.2739251034893
 30
0.0
  0
VERTEX
  5
924E
  8
0
 10
1003.700038103041
 20
896.504612858979
 30
0.0
  0
VERTEX
  5
924F
  8
0
 10
1004.828211808139
 20
890.891681606333
 30
0.0
  0
VERTEX
  5
9250
  8
0
 10
1006.015543623241
 20
885.4408777438499
 30
0.0
  0
VERTEX
  5
9251
  8
0
 10
1007.260381217187
 20
880.157947669828
 30
0.0
  0
VERTEX
  5
9252
  8
0
 10
1008.561072258815
 20
875.0486377825661
 30
0.0
  0
VERTEX
  5
9253
  8
0
 10
1009.915964416967
 20
870.1186944803626
 30
0.0
  0
VERTEX
  5
9254
  8
0
 10
1011.323405360479
 20
865.3738641615162
 30
0.0
  0
VERTEX
  5
9255
  8
0
 10
1012.781742758193
 20
860.8198932243249
 30
0.0
  0
VERTEX
  5
9256
  8
0
 10
1014.289324278947
 20
856.4625280670878
 30
0.0
  0
VERTEX
  5
9257
  8
0
 10
1015.844497591582
 20
852.3075150881004
 30
0.0
  0
SEQEND
  5
9392
  8
0
  0
POLYLINE
  5
8E1B
  8
0
 10
0.0
 20
0.0
 30
0.0
 66
     1
 70
     8
  0
VERTEX
  5
9258
  8
0
 10
1015.844497591582
 20
852.3075150881004
 30
0.0
 70
    32
  0
VERTEX
  5
9259
  8
0
 10
1015.843886694498
 20
852.309016267639
 30
0.0
 70
    32
  0
VERTEX
  5
925A
  8
0
 10
1015.842123820056
 20
852.3133482428786
 30
0.0
 70
    32
  0
VERTEX
  5
925B
  8
0
 10
1015.839313693469
 20
852.3202536687561
 30
0.0
 70
    32
  0
VERTEX
  5
925C
  8
0
 10
1015.835561039953
 20
852.3294752002071
 30
0.0
 70
    32
  0
VERTEX
  5
925D
  8
0
 10
1015.830970584722
 20
852.3407554921683
 30
0.0
 70
    32
  0
VERTEX
  5
925E
  8
0
 10
1015.825647052989
 20
852.3538371995754
 30
0.0
 70
    32
  0
VERTEX
  5
925F
  8
0
 10
1015.81969516997
 20
852.3684629773653
 30
0.0
 70
    32
  0
VERTEX
  5
9260
  8
0
 10
1015.81321966088
 20
852.384375480474
 30
0.0
 70
    32
  0
VERTEX
  5
9261
  8
0
 10
1015.806325250931
 20
852.4013173638374
 30
0.0
 70
    32
  0
VERTEX
  5
9262
  8
0
 10
1015.799116665339
 20
852.4190312823923
 30
0.0
 70
    32
  0
VERTEX
  5
9263
  8
0
 10
1015.791698629319
 20
852.4372598910746
 30
0.0
 70
    32
  0
VERTEX
  5
9264
  8
0
 10
1015.784175868084
 20
852.4557458448207
 30
0.0
 70
    32
  0
VERTEX
  5
9265
  8
0
 10
1015.776653106849
 20
852.474231798567
 30
0.0
 70
    32
  0
VERTEX
  5
9266
  8
0
 10
1015.769235070829
 20
852.4924604072492
 30
0.0
 70
    32
  0
VERTEX
  5
9267
  8
0
 10
1015.762026485237
 20
852.510174325804
 30
0.0
 70
    32
  0
VERTEX
  5
9268
  8
0
 10
1015.755132075289
 20
852.5271162091676
 30
0.0
 70
    32
  0
VERTEX
  5
9269
  8
0
 10
1015.748656566198
 20
852.543028712276
 30
0.0
 70
    32
  0
VERTEX
  5
926A
  8
0
 10
1015.742704683179
 20
852.5576544900659
 30
0.0
 70
    32
  0
VERTEX
  5
926B
  8
0
 10
1015.737381151447
 20
852.5707361974733
 30
0.0
 70
    32
  0
VERTEX
  5
926C
  8
0
 10
1015.732790696215
 20
852.5820164894342
 30
0.0
 70
    32
  0
VERTEX
  5
926D
  8
0
 10
1015.729038042699
 20
852.5912380208854
 30
0.0
 70
    32
  0
VERTEX
  5
926E
  8
0
 10
1015.726227916112
 20
852.5981434467627
 30
0.0
 70
    32
  0
VERTEX
  5
926F
  8
0
 10
1015.72446504167
 20
852.6024754220025
 30
0.0
 70
    32
  0
VERTEX
  5
9270
  8
0
 10
1015.723854144586
 20
852.603976601541
 30
0.0
 70
    32
  0
SEQEND
  5
9393
  8
0
  0
POLYLINE
  5
8E1C
  8
0
 66
     1
 10
0.0
 20
0.0
 30
0.0
  0
VERTEX
  5
9271
  8
0
 10
997.546908130645
 20
996.2463176252159
 30
0.0
  0
VERTEX
  5
9272
  8
0
 10
997.5741386257463
 20
990.3401753027468
 30
0.0
  0
VERTEX
  5
9273
  8
0
 10
997.6555586012349
 20
984.4674235022993
 30
0.0
  0
VERTEX
  5
9274
  8
0
 10
997.7907607923883
 20
978.6316241135057
 30
0.0
  0
VERTEX
  5
9275
  8
0
 10
997.9793379344837
 20
972.8363390259989
 30
0.0
  0
VERTEX
  5
9276
  8
0
 10
998.2208827627986
 20
967.0851301294106
 30
0.0
  0
VERTEX
  5
9277
  8
0
 10
998.5149880126098
 20
961.3815593133731
 30
0.0
  0
VERTEX
  5
9278
  8
0
 10
998.8612464191951
 20
955.7291884675195
 30
0.0
  0
VERTEX
  5
9279
  8
0
 10
999.259250717832
 20
950.1315794814817
 30
0.0
  0
VERTEX
  5
927A
  8
0
 10
999.708593643797
 20
944.592294244892
 30
0.0
  0
VERTEX
  5
927B
  8
0
 10
1000.208867932368
 20
939.1148946473828
 30
0.0
  0
VERTEX
  5
927C
  8
0
 10
1000.759666318822
 20
933.7029425785865
 30
0.0
  0
VERTEX
  5
927D
  8
0
 10
1001.360581538437
 20
928.3599999281357
 30
0.0
  0
VERTEX
  5
927E
  8
0
 10
1002.01120632649
 20
923.0896285856625
 30
0.0
  0
VERTEX
  5
927F
  8
0
 10
1002.711133418258
 20
917.8953904407994
 30
0.0
  0
VERTEX
  5
9280
  8
0
 10
1003.459955549018
 20
912.7808473831786
 30
0.0
  0
VERTEX
  5
9281
  8
0
 10
1004.257265454048
 20
907.7495613024327
 30
0.0
  0
VERTEX
  5
9282
  8
0
 10
1005.102655868625
 20
902.8050940881938
 30
0.0
  0
VERTEX
  5
9283
  8
0
 10
1005.995719528027
 20
897.9510076300944
 30
0.0
  0
VERTEX
  5
9284
  8
0
 10
1006.93604916753
 20
893.190863817767
 30
0.0
  0
VERTEX
  5
9285
  8
0
 10
1007.923237522412
 20
888.5282245408438
 30
0.0
  0
VERTEX
  5
9286
  8
0
 10
1008.956877327951
 20
883.9666516889571
 30
0.0
  0
VERTEX
  5
9287
  8
0
 10
1010.036561319423
 20
879.5097071517396
 30
0.0
  0
VERTEX
  5
9288
  8
0
 10
1011.161882232106
 20
875.1609528188231
 30
0.0
  0
VERTEX
  5
9289
  8
0
 10
1012.332432801277
 20
870.9239505798405
 30
0.0
  0
SEQEND
  5
9394
  8
0
  0
POLYLINE
  5
8E1D
  8
0
 66
     1
 10
0.0
 20
0.0
 30
0.0
  0
VERTEX
  5
928A
  8
0
 10
1012.332432801277
 20
870.9239505798405
 30
0.0
  0
VERTEX
  5
928B
  8
0
 10
1012.584676085986
 20
870.0406043879933
 30
0.0
  0
VERTEX
  5
928C
  8
0
 10
1012.838705517407
 20
869.1642913197635
 30
0.0
  0
VERTEX
  5
928D
  8
0
 10
1013.094492005203
 20
868.2950259970299
 30
0.0
  0
VERTEX
  5
928E
  8
0
 10
1013.352006459036
 20
867.4328230416704
 30
0.0
  0
VERTEX
  5
928F
  8
0
 10
1013.61121978857
 20
866.5776970755642
 30
0.0
  0
VERTEX
  5
9290
  8
0
 10
1013.872102903467
 20
865.7296627205899
 30
0.0
  0
VERTEX
  5
9291
  8
0
 10
1014.13462671339
 20
864.8887345986258
 30
0.0
  0
VERTEX
  5
9292
  8
0
 10
1014.398762128001
 20
864.0549273315509
 30
0.0
  0
VERTEX
  5
9293
  8
0
 10
1014.664480056963
 20
863.2282555412435
 30
0.0
  0
VERTEX
  5
9294
  8
0
 10
1014.931751409939
 20
862.4087338495823
 30
0.0
  0
VERTEX
  5
9295
  8
0
 10
1015.200547096591
 20
861.5963768784463
 30
0.0
  0
VERTEX
  5
9296
  8
0
 10
1015.470838026582
 20
860.7911992497136
 30
0.0
  0
VERTEX
  5
9297
  8
0
 10
1015.742595109575
 20
859.993215585263
 30
0.0
  0
VERTEX
  5
9298
  8
0
 10
1016.015789255232
 20
859.2024405069731
 30
0.0
  0
VERTEX
  5
9299
  8
0
 10
1016.290391373216
 20
858.4188886367226
 30
0.0
  0
VERTEX
  5
929A
  8
0
 10
1016.56637237319
 20
857.6425745963901
 30
0.0
  0
VERTEX
  5
929B
  8
0
 10
1016.843703164817
 20
856.8735130078542
 30
0.0
  0
VERTEX
  5
929C
  8
0
 10
1017.122354657758
 20
856.1117184929934
 30
0.0
  0
VERTEX
  5
929D
  8
0
 10
1017.402297761677
 20
855.3572056736866
 30
0.0
  0
VERTEX
  5
929E
  8
0
 10
1017.683503386236
 20
854.609989171812
 30
0.0
  0
VERTEX
  5
929F
  8
0
 10
1017.965942441099
 20
853.8700836092487
 30
0.0
  0
VERTEX
  5
92A0
  8
0
 10
1018.249585835926
 20
853.137503607875
 30
0.0
  0
VERTEX
  5
92A1
  8
0
 10
1018.534404480383
 20
852.4122637895695
 30
0.0
  0
VERTEX
  5
92A2
  8
0
 10
1018.82036928413
 20
851.6943787762111
 30
0.0
  0
SEQEND
  5
9395
  8
0
  0
POLYLINE
  5
8E1E
  8
0
 10
0.0
 20
0.0
 30
0.0
 66
     1
 70
     8
  0
VERTEX
  5
92A3
  8
0
 10
1018.82036928413
 20
851.6943787762111
 30
0.0
 70
    32
  0
VERTEX
  5
92A4
  8
0
 10
1018.977166202365
 20
851.6943787762111
 30
0.0
 70
    32
  0
VERTEX
  5
92A5
  8
0
 10
1019.429637309272
 20
851.6943787762111
 30
0.0
 70
    32
  0
VERTEX
  5
92A6
  8
0
 10
1020.150903133152
 20
851.694378776211
 30
0.0
 70
    32
  0
VERTEX
  5
92A7
  8
0
 10
1021.11408420231
 20
851.6943787762111
 30
0.0
 70
    32
  0
VERTEX
  5
92A8
  8
0
 10
1022.292301045047
 20
851.6943787762112
 30
0.0
 70
    32
  0
VERTEX
  5
92A9
  8
0
 10
1023.658674189666
 20
851.694378776211
 30
0.0
 70
    32
  0
VERTEX
  5
92AA
  8
0
 10
1025.18632416447
 20
851.6943787762111
 30
0.0
 70
    32
  0
VERTEX
  5
92AB
  8
0
 10
1026.848371497761
 20
851.6943787762111
 30
0.0
 70
    32
  0
VERTEX
  5
92AC
  8
0
 10
1028.617936717841
 20
851.6943787762111
 30
0.0
 70
    32
  0
VERTEX
  5
92AD
  8
0
 10
1030.468140353013
 20
851.6943787762111
 30
0.0
 70
    32
  0
VERTEX
  5
92AE
  8
0
 10
1032.372102931581
 20
851.6943787762111
 30
0.0
 70
    32
  0
VERTEX
  5
92AF
  8
0
 10
1034.302944981846
 20
851.6943787762111
 30
0.0
 70
    32
  0
VERTEX
  5
92B0
  8
0
 10
1036.233787032111
 20
851.6943787762111
 30
0.0
 70
    32
  0
VERTEX
  5
92B1
  8
0
 10
1038.137749610678
 20
851.6943787762111
 30
0.0
 70
    32
  0
VERTEX
  5
92B2
  8
0
 10
1039.987953245851
 20
851.6943787762111
 30
0.0
 70
    32
  0
VERTEX
  5
92B3
  8
0
 10
1041.757518465931
 20
851.6943787762111
 30
0.0
 70
    32
  0
VERTEX
  5
92B4
  8
0
 10
1043.419565799222
 20
851.694378776211
 30
0.0
 70
    32
  0
VERTEX
  5
92B5
  8
0
 10
1044.947215774025
 20
851.6943787762111
 30
0.0
 70
    32
  0
VERTEX
  5
92B6
  8
0
 10
1046.313588918644
 20
851.694378776211
 30
0.0
 70
    32
  0
VERTEX
  5
92B7
  8
0
 10
1047.491805761381
 20
851.6943787762111
 30
0.0
 70
    32
  0
VERTEX
  5
92B8
  8
0
 10
1048.454986830539
 20
851.6943787762111
 30
0.0
 70
    32
  0
VERTEX
  5
92B9
  8
0
 10
1049.17625265442
 20
851.6943787762111
 30
0.0
 70
    32
  0
VERTEX
  5
92BA
  8
0
 10
1049.628723761327
 20
851.6943787762111
 30
0.0
 70
    32
  0
VERTEX
  5
92BB
  8
0
 10
1049.785520679562
 20
851.6943787762111
 30
0.0
 70
    32
  0
SEQEND
  5
9396
  8
0
  0
POLYLINE
  5
8E1F
  8
0
 10
0.0
 20
0.0
 30
0.0
 66
     1
 70
     8
  0
VERTEX
  5
92BC
  8
0
 10
1049.785520679562
 20
851.6943787762111
 30
0.0
 70
    32
  0
VERTEX
  5
92BD
  8
0
 10
1049.785520679561
 20
853.1628394243592
 30
0.0
 70
    32
  0
VERTEX
  5
92BE
  8
0
 10
1049.785520679562
 20
857.4003972947296
 30
0.0
 70
    32
  0
VERTEX
  5
92BF
  8
0
 10
1049.785520679562
 20
864.155316276211
 30
0.0
 70
    32
  0
VERTEX
  5
92C0
  8
0
 10
1049.785520679562
 20
873.1758602576924
 30
0.0
 70
    32
  0
VERTEX
  5
92C1
  8
0
 10
1049.785520679562
 20
884.2102931280629
 30
0.0
 70
    32
  0
VERTEX
  5
92C2
  8
0
 10
1049.785520679562
 20
897.0068787762108
 30
0.0
 70
    32
  0
VERTEX
  5
92C3
  8
0
 10
1049.785520679562
 20
911.3138810910256
 30
0.0
 70
    32
  0
VERTEX
  5
92C4
  8
0
 10
1049.785520679562
 20
926.8795639613959
 30
0.0
 70
    32
  0
VERTEX
  5
92C5
  8
0
 10
1049.785520679562
 20
943.4521912762107
 30
0.0
 70
    32
  0
VERTEX
  5
92C6
  8
0
 10
1049.785520679562
 20
960.7800269243587
 30
0.0
 70
    32
  0
VERTEX
  5
92C7
  8
0
 10
1049.785520679562
 20
978.6113347947289
 30
0.0
 70
    32
  0
VERTEX
  5
92C8
  8
0
 10
1049.785520679562
 20
996.6943787762104
 30
0.0
 70
    32
  0
VERTEX
  5
92C9
  8
0
 10
1049.785520679562
 20
1014.777422757692
 30
0.0
 70
    32
  0
VERTEX
  5
92CA
  8
0
 10
1049.785520679562
 20
1032.608730628062
 30
0.0
 70
    32
  0
VERTEX
  5
92CB
  8
0
 10
1049.785520679562
 20
1049.93656627621
 30
0.0
 70
    32
  0
VERTEX
  5
92CC
  8
0
 10
1049.785520679562
 20
1066.509193591025
 30
0.0
 70
    32
  0
VERTEX
  5
92CD
  8
0
 10
1049.785520679562
 20
1082.074876461395
 30
0.0
 70
    32
  0
VERTEX
  5
92CE
  8
0
 10
1049.785520679562
 20
1096.38187877621
 30
0.0
 70
    32
  0
VERTEX
  5
92CF
  8
0
 10
1049.785520679562
 20
1109.178464424358
 30
0.0
 70
    32
  0
VERTEX
  5
92D0
  8
0
 10
1049.785520679562
 20
1120.212897294729
 30
0.0
 70
    32
  0
VERTEX
  5
92D1
  8
0
 10
1049.785520679562
 20
1129.233441276211
 30
0.0
 70
    32
  0
VERTEX
  5
92D2
  8
0
 10
1049.785520679562
 20
1135.988360257692
 30
0.0
 70
    32
  0
VERTEX
  5
92D3
  8
0
 10
1049.785520679562
 20
1140.225918128063
 30
0.0
 70
    32
  0
VERTEX
  5
92D4
  8
0
 10
1049.785520679562
 20
1141.694378776211
 30
0.0
 70
    32
  0
SEQEND
  5
9397
  8
0
  0
POLYLINE
  5
8E20
  8
0
 10
0.0
 20
0.0
 30
0.0
 66
     1
 70
     8
  0
VERTEX
  5
92D5
  8
0
 10
1049.785520679562
 20
1141.694378776211
 30
0.0
 70
    32
  0
VERTEX
  5
92D6
  8
0
 10
1049.630556452579
 20
1141.694378776211
 30
0.0
 70
    32
  0
VERTEX
  5
92D7
  8
0
 10
1049.183373968999
 20
1141.694378776211
 30
0.0
 70
    32
  0
VERTEX
  5
92D8
  8
0
 10
1048.470538524878
 20
1141.694378776211
 30
0.0
 70
    32
  0
VERTEX
  5
92D9
  8
0
 10
1047.518615416269
 20
1141.694378776211
 30
0.0
 70
    32
  0
VERTEX
  5
92DA
  8
0
 10
1046.354169939226
 20
1141.694378776211
 30
0.0
 70
    32
  0
VERTEX
  5
92DB
  8
0
 10
1045.003767389804
 20
1141.694378776211
 30
0.0
 70
    32
  0
VERTEX
  5
92DC
  8
0
 10
1043.493973064056
 20
1141.694378776211
 30
0.0
 70
    32
  0
VERTEX
  5
92DD
  8
0
 10
1041.851352258038
 20
1141.694378776211
 30
0.0
 70
    32
  0
VERTEX
  5
92DE
  8
0
 10
1040.102470267803
 20
1141.694378776211
 30
0.0
 70
    32
  0
VERTEX
  5
92DF
  8
0
 10
1038.273892389405
 20
1141.694378776211
 30
0.0
 70
    32
  0
VERTEX
  5
92E0
  8
0
 10
1036.392183918898
 20
1141.694378776211
 30
0.0
 70
    32
  0
VERTEX
  5
92E1
  8
0
 10
1034.483910152338
 20
1141.694378776211
 30
0.0
 70
    32
  0
VERTEX
  5
92E2
  8
0
 10
1032.575636385777
 20
1141.694378776211
 30
0.0
 70
    32
  0
VERTEX
  5
92E3
  8
0
 10
1030.69392791527
 20
1141.694378776211
 30
0.0
 70
    32
  0
VERTEX
  5
92E4
  8
0
 10
1028.865350036873
 20
1141.694378776211
 30
0.0
 70
    32
  0
VERTEX
  5
92E5
  8
0
 10
1027.116468046637
 20
1141.694378776211
 30
0.0
 70
    32
  0
VERTEX
  5
92E6
  8
0
 10
1025.473847240619
 20
1141.694378776211
 30
0.0
 70
    32
  0
VERTEX
  5
92E7
  8
0
 10
1023.964052914871
 20
1141.694378776211
 30
0.0
 70
    32
  0
VERTEX
  5
92E8
  8
0
 10
1022.613650365449
 20
1141.694378776211
 30
0.0
 70
    32
  0
VERTEX
  5
92E9
  8
0
 10
1021.449204888406
 20
1141.694378776211
 30
0.0
 70
    32
  0
VERTEX
  5
92EA
  8
0
 10
1020.497281779797
 20
1141.694378776211
 30
0.0
 70
    32
  0
VERTEX
  5
92EB
  8
0
 10
1019.784446335676
 20
1141.694378776211
 30
0.0
 70
    32
  0
VERTEX
  5
92EC
  8
0
 10
1019.337263852097
 20
1141.694378776211
 30
0.0
 70
    32
  0
VERTEX
  5
92ED
  8
0
 10
1019.182299625114
 20
1141.694378776211
 30
0.0
 70
    32
  0
SEQEND
  5
9398
  8
0
  0
POLYLINE
  5
8E21
  8
0
 66
     1
 10
0.0
 20
0.0
 30
0.0
  0
VERTEX
  5
92EE
  8
0
 10
1019.182299625114
 20
1141.694378776211
 30
0.0
  0
VERTEX
  5
92EF
  8
0
 10
1018.879648603872
 20
1140.948313990976
 30
0.0
  0
VERTEX
  5
92F0
  8
0
 10
1018.57828337554
 20
1140.194119441228
 30
0.0
  0
VERTEX
  5
92F1
  8
0
 10
1018.278233030455
 20
1139.431806824468
 30
0.0
  0
VERTEX
  5
92F2
  8
0
 10
1017.979526658955
 20
1138.6613878382
 30
0.0
  0
VERTEX
  5
92F3
  8
0
 10
1017.682193351378
 20
1137.882874179927
 30
0.0
  0
VERTEX
  5
92F4
  8
0
 10
1017.38626219806
 20
1137.096277547151
 30
0.0
  0
VERTEX
  5
92F5
  8
0
 10
1017.091762289339
 20
1136.301609637376
 30
0.0
  0
VERTEX
  5
92F6
  8
0
 10
1016.798722715552
 20
1135.498882148104
 30
0.0
  0
VERTEX
  5
92F7
  8
0
 10
1016.507172567036
 20
1134.688106776839
 30
0.0
  0
VERTEX
  5
92F8
  8
0
 10
1016.21714093413
 20
1133.869295221083
 30
0.0
  0
VERTEX
  5
92F9
  8
0
 10
1015.92865690717
 20
1133.042459178339
 30
0.0
  0
VERTEX
  5
92FA
  8
0
 10
1015.641749576493
 20
1132.20761034611
 30
0.0
  0
VERTEX
  5
92FB
  8
0
 10
1015.356448032437
 20
1131.364760421898
 30
0.0
  0
VERTEX
  5
92FC
  8
0
 10
1015.072781365339
 20
1130.513921103208
 30
0.0
  0
VERTEX
  5
92FD
  8
0
 10
1014.790778665537
 20
1129.655104087542
 30
0.0
  0
VERTEX
  5
92FE
  8
0
 10
1014.510469023368
 20
1128.788321072402
 30
0.0
  0
VERTEX
  5
92FF
  8
0
 10
1014.231881529169
 20
1127.913583755291
 30
0.0
  0
VERTEX
  5
9300
  8
0
 10
1013.955045273277
 20
1127.030903833714
 30
0.0
  0
VERTEX
  5
9301
  8
0
 10
1013.67998934603
 20
1126.140293005171
 30
0.0
  0
VERTEX
  5
9302
  8
0
 10
1013.406742837766
 20
1125.241762967167
 30
0.0
  0
VERTEX
  5
9303
  8
0
 10
1013.135334838821
 20
1124.335325417203
 30
0.0
  0
VERTEX
  5
9304
  8
0
 10
1012.865794439533
 20
1123.420992052784
 30
0.0
  0
VERTEX
  5
9305
  8
0
 10
1012.598150730239
 20
1122.498774571412
 30
0.0
  0
VERTEX
  5
9306
  8
0
 10
1012.332432801277
 20
1121.568684670589
 30
0.0
  0
SEQEND
  5
9399
  8
0
  0
POLYLINE
  5
8E22
  8
0
 66
     1
 10
0.0
 20
0.0
 30
0.0
  0
VERTEX
  5
9307
  8
0
 10
1012.332432801277
 20
1121.568684670589
 30
0.0
  0
VERTEX
  5
9308
  8
0
 10
1011.161882232106
 20
1117.330908934228
 30
0.0
  0
VERTEX
  5
9309
  8
0
 10
1010.036561319423
 20
1112.98151270084
 30
0.0
  0
VERTEX
  5
930A
  8
0
 10
1008.956877327951
 20
1108.524049086931
 30
0.0
  0
VERTEX
  5
930B
  8
0
 10
1007.923237522412
 20
1103.962071209007
 30
0.0
  0
VERTEX
  5
930C
  8
0
 10
1006.93604916753
 20
1099.299132183572
 30
0.0
  0
VERTEX
  5
930D
  8
0
 10
1005.995719528027
 20
1094.538785127131
 30
0.0
  0
VERTEX
  5
930E
  8
0
 10
1005.102655868625
 20
1089.684583156191
 30
0.0
  0
VERTEX
  5
930F
  8
0
 10
1004.257265454048
 20
1084.740079387255
 30
0.0
  0
VERTEX
  5
9310
  8
0
 10
1003.459955549018
 20
1079.70882693683
 30
0.0
  0
VERTEX
  5
9311
  8
0
 10
1002.711133418258
 20
1074.594378921421
 30
0.0
  0
VERTEX
  5
9312
  8
0
 10
1002.01120632649
 20
1069.400288457531
 30
0.0
  0
VERTEX
  5
9313
  8
0
 10
1001.360581538437
 20
1064.130108661668
 30
0.0
  0
VERTEX
  5
9314
  8
0
 10
1000.759666318822
 20
1058.787392650336
 30
0.0
  0
VERTEX
  5
9315
  8
0
 10
1000.208867932368
 20
1053.37569354004
 30
0.0
  0
VERTEX
  5
9316
  8
0
 10
999.708593643797
 20
1047.898564447285
 30
0.0
  0
VERTEX
  5
9317
  8
0
 10
999.2592507178317
 20
1042.359558488577
 30
0.0
  0
VERTEX
  5
9318
  8
0
 10
998.8612464191951
 20
1036.762228780421
 30
0.0
  0
VERTEX
  5
9319
  8
0
 10
998.5149880126098
 20
1031.110128439322
 30
0.0
  0
VERTEX
  5
931A
  8
0
 10
998.2208827627985
 20
1025.406810581785
 30
0.0
  0
VERTEX
  5
931B
  8
0
 10
997.9793379344837
 20
1019.655828324316
 30
0.0
  0
VERTEX
  5
931C
  8
0
 10
997.7907607923883
 20
1013.860734783418
 30
0.0
  0
VERTEX
  5
931D
  8
0
 10
997.6555586012348
 20
1008.025083075599
 30
0.0
  0
VERTEX
  5
931E
  8
0
 10
997.5741386257462
 20
1002.152426317363
 30
0.0
  0
VERTEX
  5
931F
  8
0
 10
997.546908130645
 20
996.2463176252159
 30
0.0
  0
SEQEND
  5
939A
  8
0
  0
LINE
  5
8E23
  8
0
 10
1027.654150569669
 20
1128.636596661482
 30
0.0
 11
1027.654150569669
 21
851.6943787762111
 31
0.0
  0
LINE
  5
8E24
  8
0
 10
1027.654150569669
 20
851.6943787762111
 30
0.0
 11
1049.785520679562
 21
851.6943787762111
 31
0.0
  0
LINE
  5
8E25
  8
0
 10
1049.785520679562
 20
851.6943787762111
 30
0.0
 11
1049.785520679562
 21
1128.636596661482
 31
0.0
  0
LINE
  5
8E26
  8
0
 10
1049.785520679562
 20
1128.636596661482
 30
0.0
 11
1027.654150569669
 21
1128.636596661482
 31
0.0
  0
POLYLINE
  5
8FB5
  8
0
 66
     1
 10
0.0
 20
0.0
 30
0.0
  0
VERTEX
  5
9320
  8
0
 10
1049.785520679562
 20
1125.594382254832
 30
0.0
  0
VERTEX
  5
9321
  8
0
 10
1050.072557947079
 20
1125.583881920838
 30
0.0
  0
VERTEX
  5
9322
  8
0
 10
1050.901356202918
 20
1125.553508707213
 30
0.0
  0
VERTEX
  5
9323
  8
0
 10
1052.223445127012
 20
1125.504954296494
 30
0.0
  0
VERTEX
  5
9324
  8
0
 10
1053.990354399294
 20
1125.43991037122
 30
0.0
  0
VERTEX
  5
9325
  8
0
 10
1056.153613699696
 20
1125.360068613925
 30
0.0
  0
VERTEX
  5
9326
  8
0
 10
1058.664752708151
 20
1125.267120707148
 30
0.0
  0
VERTEX
  5
9327
  8
0
 10
1061.475301104591
 20
1125.162758333426
 30
0.0
  0
VERTEX
  5
9328
  8
0
 10
1064.536788568949
 20
1125.048673175296
 30
0.0
  0
VERTEX
  5
9329
  8
0
 10
1067.800744781159
 20
1124.926556915294
 30
0.0
  0
VERTEX
  5
932A
  8
0
 10
1071.218699421151
 20
1124.798101235957
 30
0.0
  0
VERTEX
  5
932B
  8
0
 10
1074.74218216886
 20
1124.664997819824
 30
0.0
  0
VERTEX
  5
932C
  8
0
 10
1078.322722704217
 20
1124.52893834943
 30
0.0
  0
VERTEX
  5
932D
  8
0
 10
1081.911850707155
 20
1124.391614507313
 30
0.0
  0
VERTEX
  5
932E
  8
0
 10
1085.461095857608
 20
1124.25471797601
 30
0.0
  0
VERTEX
  5
932F
  8
0
 10
1088.921987835507
 20
1124.119940438058
 30
0.0
  0
VERTEX
  5
9330
  8
0
 10
1092.246056320785
 20
1123.988973575994
 30
0.0
  0
VERTEX
  5
9331
  8
0
 10
1095.384830993374
 20
1123.863509072355
 30
0.0
  0
VERTEX
  5
9332
  8
0
 10
1098.289841533209
 20
1123.745238609678
 30
0.0
  0
VERTEX
  5
9333
  8
0
 10
1100.91261762022
 20
1123.635853870499
 30
0.0
  0
VERTEX
  5
9334
  8
0
 10
1103.204688934341
 20
1123.537046537358
 30
0.0
  0
VERTEX
  5
9335
  8
0
 10
1105.117585155504
 20
1123.450508292789
 30
0.0
  0
VERTEX
  5
9336
  8
0
 10
1106.602835963642
 20
1123.37793081933
 30
0.0
  0
VERTEX
  5
9337
  8
0
 10
1107.611971038688
 20
1123.321005799518
 30
0.0
  0
VERTEX
  5
9338
  8
0
 10
1108.096520060574
 20
1123.281424915891
 30
0.0
  0
SEQEND
  5
939B
  8
0
  0
POLYLINE
  5
8FB6
  8
0
 66
     1
 10
0.0
 20
0.0
 30
0.0
  0
VERTEX
  5
9339
  8
0
 10
1108.096520060574
 20
1123.281424915891
 30
0.0
  0
VERTEX
  5
933A
  8
0
 10
1108.292362999258
 20
1123.25013854491
 30
0.0
  0
VERTEX
  5
933B
  8
0
 10
1108.474702203351
 20
1123.214608333654
 30
0.0
  0
VERTEX
  5
933C
  8
0
 10
1108.643997300183
 20
1123.173821614032
 30
0.0
  0
VERTEX
  5
933D
  8
0
 10
1108.800707917083
 20
1123.126765717948
 30
0.0
  0
VERTEX
  5
933E
  8
0
 10
1108.945293681383
 20
1123.07242797731
 30
0.0
  0
VERTEX
  5
933F
  8
0
 10
1109.078214220411
 20
1123.009795724025
 30
0.0
  0
VERTEX
  5
9340
  8
0
 10
1109.199929161498
 20
1122.937856290001
 30
0.0
  0
VERTEX
  5
9341
  8
0
 10
1109.310898131974
 20
1122.855597007143
 30
0.0
  0
VERTEX
  5
9342
  8
0
 10
1109.411580759168
 20
1122.762005207359
 30
0.0
  0
VERTEX
  5
9343
  8
0
 10
1109.50243667041
 20
1122.656068222555
 30
0.0
  0
VERTEX
  5
9344
  8
0
 10
1109.58392549303
 20
1122.536773384639
 30
0.0
  0
VERTEX
  5
9345
  8
0
 10
1109.656506854358
 20
1122.403108025518
 30
0.0
  0
VERTEX
  5
9346
  8
0
 10
1109.720640381724
 20
1122.254059477098
 30
0.0
  0
VERTEX
  5
9347
  8
0
 10
1109.776785702459
 20
1122.088615071285
 30
0.0
  0
VERTEX
  5
9348
  8
0
 10
1109.825402443891
 20
1121.905762139988
 30
0.0
  0
VERTEX
  5
9349
  8
0
 10
1109.86695023335
 20
1121.704488015113
 30
0.0
  0
VERTEX
  5
934A
  8
0
 10
1109.901888698167
 20
1121.483780028567
 30
0.0
  0
VERTEX
  5
934B
  8
0
 10
1109.930677465672
 20
1121.242625512256
 30
0.0
  0
VERTEX
  5
934C
  8
0
 10
1109.953776163193
 20
1120.980011798089
 30
0.0
  0
VERTEX
  5
934D
  8
0
 10
1109.971644418062
 20
1120.69492621797
 30
0.0
  0
VERTEX
  5
934E
  8
0
 10
1109.984741857608
 20
1120.386356103808
 30
0.0
  0
VERTEX
  5
934F
  8
0
 10
1109.993528109161
 20
1120.05328878751
 30
0.0
  0
VERTEX
  5
9350
  8
0
 10
1109.998462800051
 20
1119.694711600981
 30
0.0
  0
VERTEX
  5
9351
  8
0
 10
1110.000005557608
 20
1119.30961187613
 30
0.0
  0
VERTEX
  5
9352
  8
0
 10
1110.000005557608
 20
1117.58756002785
 30
0.0
  0
VERTEX
  5
9353
  8
0
 10
1110.000005557608
 20
1113.372582745123
 30
0.0
  0
VERTEX
  5
9354
  8
0
 10
1110.000005557608
 20
1106.892823027535
 30
0.0
  0
VERTEX
  5
9355
  8
0
 10
1110.000005557608
 20
1098.376423874675
 30
0.0
  0
VERTEX
  5
9356
  8
0
 10
1110.000005557608
 20
1088.051528286132
 30
0.0
  0
VERTEX
  5
9357
  8
0
 10
1110.000005557608
 20
1076.146279261493
 30
0.0
  0
VERTEX
  5
9358
  8
0
 10
1110.000005557608
 20
1062.888819800346
 30
0.0
  0
VERTEX
  5
9359
  8
0
 10
1110.000005557608
 20
1048.507292902281
 30
0.0
  0
VERTEX
  5
935A
  8
0
 10
1110.000005557608
 20
1033.229841566885
 30
0.0
  0
VERTEX
  5
935B
  8
0
 10
1110.000005557608
 20
1017.284608793746
 30
0.0
  0
VERTEX
  5
935C
  8
0
 10
1110.000005557608
 20
1000.899737582453
 30
0.0
  0
VERTEX
  5
935D
  8
0
 10
1110.000005557608
 20
984.303370932593
 30
0.0
  0
VERTEX
  5
935E
  8
0
 10
1110.000005557608
 20
967.7236518437553
 30
0.0
  0
VERTEX
  5
935F
  8
0
 10
1110.000005557608
 20
951.3887233155275
 30
0.0
  0
VERTEX
  5
9360
  8
0
 10
1110.000005557608
 20
935.5267283474983
 30
0.0
  0
VERTEX
  5
9361
  8
0
 10
1110.000005557608
 20
920.3658099392555
 30
0.0
  0
VERTEX
  5
9362
  8
0
 10
1110.000005557608
 20
906.1341110903875
 30
0.0
  0
VERTEX
  5
9363
  8
0
 10
1110.000005557608
 20
893.059774800482
 30
0.0
  0
VERTEX
  5
9364
  8
0
 10
1110.000005557608
 20
881.370944069128
 30
0.0
  0
VERTEX
  5
9365
  8
0
 10
1110.000005557608
 20
871.2957618959131
 30
0.0
  0
VERTEX
  5
9366
  8
0
 10
1110.000005557608
 20
863.0623712804259
 30
0.0
  0
VERTEX
  5
9367
  8
0
 10
1110.000005557608
 20
856.8989152222543
 30
0.0
  0
VERTEX
  5
9368
  8
0
 10
1110.000005557608
 20
853.0335367209867
 30
0.0
  0
VERTEX
  5
9369
  8
0
 10
1110.000005557608
 20
851.6943787762111
 30
0.0
  0
SEQEND
  5
939C
  8
0
  0
POLYLINE
  5
8FB7
  8
0
 10
0.0
 20
0.0
 30
0.0
 66
     1
 70
     8
  0
VERTEX
  5
936A
  8
0
 10
1110.000005557608
 20
851.6943787762111
 30
0.0
 70
    32
  0
VERTEX
  5
936B
  8
0
 10
1109.695100035222
 20
851.6943787762111
 30
0.0
 70
    32
  0
VERTEX
  5
936C
  8
0
 10
1108.81522981348
 20
851.6943787762111
 30
0.0
 70
    32
  0
VERTEX
  5
936D
  8
0
 10
1107.412664410504
 20
851.694378776211
 30
0.0
 70
    32
  0
VERTEX
  5
936E
  8
0
 10
1105.539673344419
 20
851.6943787762111
 30
0.0
 70
    32
  0
VERTEX
  5
936F
  8
0
 10
1103.248526133348
 20
851.6943787762112
 30
0.0
 70
    32
  0
VERTEX
  5
9370
  8
0
 10
1100.591492295413
 20
851.694378776211
 30
0.0
 70
    32
  0
VERTEX
  5
9371
  8
0
 10
1097.620841348739
 20
851.6943787762111
 30
0.0
 70
    32
  0
VERTEX
  5
9372
  8
0
 10
1094.388842811448
 20
851.6943787762111
 30
0.0
 70
    32
  0
VERTEX
  5
9373
  8
0
 10
1090.947766201664
 20
851.6943787762111
 30
0.0
 70
    32
  0
VERTEX
  5
9374
  8
0
 10
1087.34988103751
 20
851.6943787762111
 30
0.0
 70
    32
  0
VERTEX
  5
9375
  8
0
 10
1083.647456837109
 20
851.6943787762111
 30
0.0
 70
    32
  0
VERTEX
  5
9376
  8
0
 10
1079.892763118585
 20
851.6943787762111
 30
0.0
 70
    32
  0
VERTEX
  5
9377
  8
0
 10
1076.138069400061
 20
851.6943787762111
 30
0.0
 70
    32
  0
VERTEX
  5
9378
  8
0
 10
1072.43564519966
 20
851.6943787762111
 30
0.0
 70
    32
  0
VERTEX
  5
9379
  8
0
 10
1068.837760035506
 20
851.6943787762111
 30
0.0
 70
    32
  0
VERTEX
  5
937A
  8
0
 10
1065.396683425722
 20
851.6943787762111
 30
0.0
 70
    32
  0
VERTEX
  5
937B
  8
0
 10
1062.164684888431
 20
851.694378776211
 30
0.0
 70
    32
  0
VERTEX
  5
937C
  8
0
 10
1059.194033941757
 20
851.6943787762111
 30
0.0
 70
    32
  0
VERTEX
  5
937D
  8
0
 10
1056.537000103822
 20
851.694378776211
 30
0.0
 70
    32
  0
VERTEX
  5
937E
  8
0
 10
1054.24585289275
 20
851.6943787762111
 30
0.0
 70
    32
  0
VERTEX
  5
937F
  8
0
 10
1052.372861826665
 20
851.6943787762111
 30
0.0
 70
    32
  0
VERTEX
  5
9380
  8
0
 10
1050.97029642369
 20
851.6943787762111
 30
0.0
 70
    32
  0
VERTEX
  5
9381
  8
0
 10
1050.090426201948
 20
851.6943787762111
 30
0.0
 70
    32
  0
VERTEX
  5
9382
  8
0
 10
1049.785520679562
 20
851.6943787762111
 30
0.0
 70
    32
  0
SEQEND
  5
939D
  8
0
  0
LINE
  5
8FB8
  8
0
 10
1110.000005557608
 20
859.0850529554571
 30
0.0
 11
1049.785520679562
 21
859.0850529554571
 31
0.0
  0
LINE
  5
8FFF
  8
0
 10
1049.848020679562
 20
1125.594382254832
 30
0.0
 11
1160.180005557608
 21
1125.594382254832
 31
0.0
  0
LINE
  5
9000
  8
0
 10
1110.062505557608
 20
851.6943787762111
 30
0.0
 11
1160.180005557608
 21
851.6943787762111
 31
0.0
  0
LINE
  5
9001
  8
0
 10
1160.000005557608
 20
1090.594382254832
 30
0.0
 11
1160.000005557608
 21
886.6943787762111
 31
0.0
  0
LINE
  5
9005
  8
0
 10
994.9999909163009
 20
996.3088176252159
 30
0.0
 11
994.9999909163009
 21
1241.874378776211
 31
0.0
  0
LINE
  5
9006
  8
0
 10
1110.000005557608
 20
1119.151709075172
 30
0.0
 11
1110.000005557608
 21
1241.874378776211
 31
0.0
  0
LINE
  5
9007
  8
0
 10
1029.999990916301
 20
1241.694378776211
 30
0.0
 11
1075.000005557608
 21
1241.694378776211
 31
0.0
  0
LINE
  5
900B
  8
0
 10
842.1639846433388
 20
1141.694378776211
 30
0.0
 11
895.179990916301
 21
1141.694378776211
 31
0.0
  0
LINE
  5
900C
  8
0
 10
842.1639846433388
 20
851.6943787762111
 30
0.0
 11
895.179990916301
 21
851.6943787762111
 31
0.0
  0
LINE
  5
900D
  8
0
 10
894.999990916301
 20
1106.694378776211
 30
0.0
 11
894.999990916301
 21
886.6943787762111
 31
0.0
  0
LINE
  5
9011
  8
0
 10
624.9999944423922
 20
1138.846165735157
 30
0.0
 11
624.9999944423922
 21
1241.874378776211
 31
0.0
  0
LINE
  5
9012
  8
0
 10
844.999990916301
 20
1138.846165735157
 30
0.0
 11
844.999990916301
 21
1241.874378776211
 31
0.0
  0
LINE
  5
9013
  8
0
 10
659.9999944423922
 20
1241.694378776211
 30
0.0
 11
809.999990916301
 21
1241.694378776211
 31
0.0
  0
LINE
  5
9037
  8
0
 10
1803.798985262572
 20
1346.694378776211
 30
0.0
 11
2603.798985262572
 21
1346.694378776211
 31
0.0
  0
LINE
  5
9038
  8
0
 10
1803.798985262572
 20
1296.694378776211
 30
0.0
 11
2603.798985262572
 21
1296.694378776211
 31
0.0
  0
LINE
  5
9039
  8
0
 10
1803.798985262572
 20
1246.694378776211
 30
0.0
 11
2603.798985262572
 21
1246.694378776211
 31
0.0
  0
LINE
  5
903A
  8
0
 10
1803.798985262572
 20
1196.694378776211
 30
0.0
 11
2603.798985262572
 21
1196.694378776211
 31
0.0
  0
LINE
  5
903B
  8
0
 10
2003.798985262572
 20
1146.694378776211
 30
0.0
 11
2603.798985262572
 21
1146.694378776211
 31
0.0
  0
LINE
  5
903C
  8
0
 10
2003.798985262572
 20
1096.694378776211
 30
0.0
 11
2603.798985262572
 21
1096.694378776211
 31
0.0
  0
LINE
  5
903D
  8
0
 10
1803.798985262572
 20
1046.694378776211
 30
0.0
 11
2603.798985262572
 21
1046.694378776211
 31
0.0
  0
LINE
  5
903E
  8
0
 10
2003.798985262572
 20
996.6943787762111
 30
0.0
 11
2603.798985262572
 21
996.6943787762111
 31
0.0
  0
LINE
  5
903F
  8
0
 10
1803.798985262572
 20
946.6943787762111
 30
0.0
 11
2603.798985262572
 21
946.6943787762111
 31
0.0
  0
LINE
  5
9040
  8
0
 10
1803.798985262572
 20
896.6943787762111
 30
0.0
 11
2603.798985262572
 21
896.6943787762111
 31
0.0
  0
LINE
  5
9041
  8
0
 10
1803.798985262572
 20
846.6943787762111
 30
0.0
 11
2603.798985262572
 21
846.6943787762111
 31
0.0
  0
LINE
  5
9042
  8
0
 10
1803.798985262572
 20
796.6943787762111
 30
0.0
 11
2603.798985262572
 21
796.6943787762111
 31
0.0
  0
LINE
  5
9043
  8
0
 10
1803.798985262572
 20
746.6943787762111
 30
0.0
 11
2603.798985262572
 21
746.6943787762111
 31
0.0
  0
LINE
  5
9044
  8
0
 10
1803.798985262572
 20
696.6943787762111
 30
0.0
 11
2603.798985262572
 21
696.6943787762111
 31
0.0
  0
LINE
  5
9045
  8
0
 10
1803.798985262572
 20
646.6943787762111
 30
0.0
 11
2603.798985262572
 21
646.6943787762111
 31
0.0
  0
LINE
  5
9046
  8
0
 10
1803.798985262572
 20
1346.694378776211
 30
0.0
 11
1803.798985262572
 21
646.6943787762111
 31
0.0
  0
LINE
  5
9047
  8
0
 10
2003.798985262572
 20
1296.694378776211
 30
0.0
 11
2003.798985262572
 21
946.6943787762111
 31
0.0
  0
LINE
  5
9048
  8
0
 10
2203.798985262572
 20
1346.694378776211
 30
0.0
 11
2203.798985262572
 21
646.6943787762111
 31
0.0
  0
LINE
  5
9049
  8
0
 10
2603.798985262572
 20
1346.694378776211
 30
0.0
 11
2603.798985262572
 21
646.6943787762111
 31
0.0
  0
LINE
  5
904A
  8
0
 62
     8
 10
1803.798985262572
 20
1346.694378776211
 30
0.0
 11
1803.798985262572
 21
1346.694378776211
 31
0.0
  0
LINE
  5
904B
  8
図面枠
 10
2870.0
 20
100.0
 30
0.0
 11
2870.0
 21
2000.0
 31
0.0
  0
LINE
  5
904C
  8
図面枠
 10
2870.0
 20
2000.0
 30
0.0
 11
200.0
 21
2000.0
 31
0.0
  0
LINE
  5
904D
  8
図面枠
 10
200.0
 20
2000.0
 30
0.0
 11
200.0
 21
100.0
 31
0.0
  0
LINE
  5
904E
  8
図面枠
 10
200.0
 20
100.0
 30
0.0
 11
2870.0
 21
100.0
 31
0.0
  0
LINE
  5
904F
  8
用紙枠
 10
0.0
 20
0.0
 30
0.0
 11
2970.0
 21
0.0
 31
0.0
  0
LINE
  5
9050
  8
用紙枠
 10
2970.0
 20
0.0
 30
0.0
 11
2970.0
 21
2100.0
 31
0.0
  0
LINE
  5
9051
  8
用紙枠
 10
2970.0
 20
2100.0
 30
0.0
 11
0.0
 21
2100.0
 31
0.0
  0
LINE
  5
9052
  8
用紙枠
 10
0.0
 20
2100.0
 30
0.0
 11
0.0
 21
0.0
 31
0.0
  0
TEXT
  5
9053
  8
0
 10
1150.000005557608
 20
932.664266879158
 30
0.0
 40
35.0
  1
273.9
 50
90.0
  0
LINE
  5
9054
  8
0
 10
1165.833338890941
 20
886.6943787762111
 30
0.0
 11
1160.000005557608
 21
851.6943787762111
 31
0.0
  0
LINE
  5
9055
  8
0
 10
1154.166672224275
 20
886.6943787762111
 30
0.0
 11
1160.000005557608
 21
851.6943787762111
 31
0.0
  0
LINE
  5
9056
  8
0
 10
1160.000005557608
 20
851.6943787762111
 30
0.0
 11
1160.000005557608
 21
886.6943787762111
 31
0.0
  0
LINE
  5
9057
  8
0
 10
1154.166672224275
 20
1090.594382254832
 30
0.0
 11
1160.000005557608
 21
1125.594382254832
 31
0.0
  0
LINE
  5
9058
  8
0
 10
1165.833338890941
 20
1090.594382254832
 30
0.0
 11
1160.000005557608
 21
1125.594382254832
 31
0.0
  0
LINE
  5
9059
  8
0
 10
1160.000005557608
 20
1125.594382254832
 30
0.0
 11
1160.000005557608
 21
1090.594382254832
 31
0.0
  0
TEXT
  5
905A
  8
0
 10
1012.926134600591
 20
1251.694378776211
 30
0.0
 40
35.0
  1
115
  0
LINE
  5
905B
  8
0
 10
1075.000005557608
 20
1247.527712109544
 30
0.0
 11
1110.000005557608
 21
1241.694378776211
 31
0.0
  0
LINE
  5
905C
  8
0
 10
1075.000005557608
 20
1235.861045442878
 30
0.0
 11
1110.000005557608
 21
1241.694378776211
 31
0.0
  0
LINE
  5
905D
  8
0
 10
1110.000005557608
 20
1241.694378776211
 30
0.0
 11
1075.000005557608
 21
1241.694378776211
 31
0.0
  0
LINE
  5
905E
  8
0
 10
1029.999990916301
 20
1235.861045442878
 30
0.0
 11
994.9999909163009
 21
1241.694378776211
 31
0.0
  0
LINE
  5
905F
  8
0
 10
1029.999990916301
 20
1247.527712109544
 30
0.0
 11
994.9999909163009
 21
1241.694378776211
 31
0.0
  0
LINE
  5
9060
  8
0
 10
994.9999909163009
 20
1241.694378776211
 30
0.0
 11
1029.999990916301
 21
1241.694378776211
 31
0.0
  0
TEXT
  5
9061
  8
0
 10
884.9999909163009
 20
958.1148333216659
 30
0.0
 40
35.0
  1
290
 50
90.0
  0
LINE
  5
9062
  8
0
 10
900.8333242496344
 20
886.6943787762111
 30
0.0
 11
894.999990916301
 21
851.6943787762111
 31
0.0
  0
LINE
  5
9063
  8
0
 10
889.1666575829677
 20
886.6943787762111
 30
0.0
 11
894.999990916301
 21
851.6943787762111
 31
0.0
  0
LINE
  5
9064
  8
0
 10
894.999990916301
 20
851.6943787762111
 30
0.0
 11
894.999990916301
 21
886.6943787762111
 31
0.0
  0
LINE
  5
9065
  8
0
 10
889.1666575829677
 20
1106.694378776211
 30
0.0
 11
894.999990916301
 21
1141.694378776211
 31
0.0
  0
LINE
  5
9066
  8
0
 10
900.8333242496344
 20
1106.694378776211
 30
0.0
 11
894.999990916301
 21
1141.694378776211
 31
0.0
  0
LINE
  5
9067
  8
0
 10
894.999990916301
 20
1141.694378776211
 30
0.0
 11
894.999990916301
 21
1106.694378776211
 31
0.0
  0
TEXT
  5
9068
  8
0
 10
696.4204472248011
 20
1251.694378776211
 30
0.0
 40
35.0
  1
220
  0
LINE
  5
9069
  8
0
 10
809.999990916301
 20
1247.527712109544
 30
0.0
 11
844.999990916301
 21
1241.694378776211
 31
0.0
  0
LINE
  5
906A
  8
0
 10
809.999990916301
 20
1235.861045442878
 30
0.0
 11
844.999990916301
 21
1241.694378776211
 31
0.0
  0
LINE
  5
906B
  8
0
 10
844.999990916301
 20
1241.694378776211
 30
0.0
 11
809.999990916301
 21
1241.694378776211
 31
0.0
  0
LINE
  5
906C
  8
0
 10
659.9999944423922
 20
1235.861045442878
 30
0.0
 11
624.9999944423922
 21
1241.694378776211
 31
0.0
  0
LINE
  5
906D
  8
0
 10
659.9999944423922
 20
1247.527712109544
 30
0.0
 11
624.9999944423922
 21
1241.694378776211
 31
0.0
  0
LINE
  5
906E
  8
0
 10
624.9999944423922
 20
1241.694378776211
 30
0.0
 11
659.9999944423922
 21
1241.694378776211
 31
0.0
  0
TEXT
  5
906F
  8
0
 10
2332.037621626209
 20
661.2398333216656
 30
0.0
 40
20.0
  1
屋外／屋内
  0
TEXT
  5
9070
  8
0
 10
1805.298985262572
 20
661.6375605943929
 30
0.0
 40
20.0
  1
  設置場所
  0
TEXT
  5
9071
  8
0
 10
2357.548985262572
 20
711.8080151398475
 30
0.0
 40
20.0
  1
約2.2kg
  0
TEXT
  5
9072
  8
0
 10
1805.298985262572
 20
711.5239242307565
 30
0.0
 40
20.0
  1
  質量
  0
TEXT
  5
9073
  8
0
 10
2298.060348898936
 20
761.6943787762111
 30
0.0
 40
20.0
  1
220x290x115ｍｍ
  0
TEXT
  5
9074
  8
0
 10
1805.298985262572
 20
761.5239242307565
 30
0.0
 40
20.0
  1
  外形寸法（WxHxD）
  0
TEXT
  5
9075
  8
0
 10
2286.526257989845
 20
810.728469685302
 30
0.0
 40
20.0
  1
難燃性プラスチック
  0
TEXT
  5
9076
  8
0
 10
1805.298985262572
 20
810.6148333216657
 30
0.0
 40
20.0
  1
  キャビネット素材
  0
TEXT
  5
9077
  8
0
 10
2248.230803444391
 20
861.5239242307566
 30
0.0
 40
20.0
  1
25～85%%%RH(結露なきこと)
  0
TEXT
  5
9078
  8
0
 10
1805.298985262572
 20
861.1830151398475
 30
0.0
 40
20.0
  1
  使用湿度範囲
  0
TEXT
  5
9079
  8
0
 10
2245.162621626209
 20
911.1261969580294
 30
0.0
 40
20.0
  1
-20～+50℃(氷結なきこと)
  0
TEXT
  5
907A
  8
0
 10
1805.298985262572
 20
911.1830151398475
 30
0.0
 40
20.0
  1
  使用温度範囲
  0
TEXT
  5
907B
  8
0
 10
2379.480803444391
 20
961.6943787762111
 30
0.0
 40
20.0
  1
20A
  0
TEXT
  5
907C
  8
0
 10
2005.298985262572
 20
961.2398333216657
 30
0.0
 40
20.0
  1
 出力電流
  0
TEXT
  5
907D
  8
0
 10
2364.196712535299
 20
1011.694378776211
 30
0.0
 40
20.0
  1
1000V
  0
TEXT
  5
907E
  8
0
 10
2005.298985262572
 20
1011.069378776211
 30
0.0
 40
20.0
  1
 逆耐圧
  0
TEXT
  5
907F
  8
0
 10
1805.298985262572
 20
1004.781499988332
 30
0.0
 40
20.0
  1
  逆流防止
  0
TEXT
  5
9080
  8
0
 10
1805.298985262572
 20
967.0163484731808
 30
0.0
 40
20.0
  1
  ダイオード
  0
TEXT
  5
9081
  8
0
 10
2382.037621626209
 20
1061.069378776211
 30
0.0
 40
20.0
  1
2極
  0
TEXT
  5
9082
  8
0
 10
2005.298985262572
 20
1061.296651503484
 30
0.0
 40
20.0
  1
 極数
  0
TEXT
  5
9083
  8
0
 10
2360.162621626209
 20
1111.694378776211
 30
0.0
 40
20.0
  1
DC10A
  0
TEXT
  5
9084
  8
0
 10
2005.298985262572
 20
1111.239833321666
 30
0.0
 40
20.0
  1
 定格電流
  0
TEXT
  5
9085
  8
0
 10
2352.9467125353
 20
1161.694378776211
 30
0.0
 40
20.0
  1
DC300V
  0
TEXT
  5
9086
  8
0
 10
2005.298985262572
 20
1161.239833321666
 30
0.0
 40
20.0
  1
 定格電圧
  0
TEXT
  5
9087
  8
0
 10
1805.298985262572
 20
1129.781499988332
 30
0.0
 40
20.0
  1
  入力分岐
  0
TEXT
  5
9088
  8
0
 10
1805.298985262572
 20
1092.925439382272
 30
0.0
 40
20.0
  1
  開閉器性能
  0
TEXT
  5
9089
  8
0
 10
2366.298985262572
 20
1211.069378776211
 30
0.0
 40
20.0
  1
1回路
  0
TEXT
  5
908A
  8
0
 10
2005.298985262572
 20
1211.183015139848
 30
0.0
 40
20.0
  1
 回路数
  0
TEXT
  5
908B
  8
0
 10
1805.298985262572
 20
1211.069378776211
 30
0.0
 40
20.0
  1
  出力回路
  0
TEXT
  5
908C
  8
0
 10
2367.321712535299
 20
1261.069378776211
 30
0.0
 40
20.0
  1
4回路
  0
TEXT
  5
908D
  8
0
 10
2005.298985262572
 20
1261.183015139848
 30
0.0
 40
20.0
  1
 回路数
  0
TEXT
  5
908E
  8
0
 10
1805.298985262572
 20
1261.069378776211
 30
0.0
 40
20.0
  1
  入力回路
  0
TEXT
  5
908F
  8
0
 10
2307.719439808027
 20
1311.694378776211
 30
0.0
 40
20.0
  1
TOS-CBS4C-R
  0
TEXT
  5
9090
  8
0
 10
1805.298985262572
 20
1310.955742412575
 30
0.0
 40
20.0
  1
  型式
  0
VIEWPORT
  5
2C13
 67
     1
  8
0
  6
CONTINUOUS
 10
145.330337524414
 20
141.1905255588052
 30
0.0
 40
366.1848134449208
 41
300.9119599272723
 68
     1
 69
     1
1001
ACAD
1000
MVIEW
1002
{
1070
    16
1010
0.0
1020
0.0
1030
0.0
1020
0.0
1030
0.0
1010
0.0
1020
0.0
1030
1.0
1020
0.0
1030
1.0
1040
0.0
1040
300.9119599272723
1040
145.330337524414
1040
141.1905255588052
1040
50.0
1040
0.0
1040
0.0
1070
     0
1070
   100
1070
     0
1070
     1
1070
     0
1070
     0
1070
     0
1070
     0
1040
0.0
1040
0.0
1040
0.0
1040
10.0
1040
10.0
1040
10.0
1040
10.0
1070
     0
1002
{
1002
}
1002
}
  0
VIEWPORT
  5
2C17
 67
     1
  8
0
  6
CONTINUOUS
 10
145.3303314447403
 20
101.8328338861465
 30
0.0
 40
232.5285303115845
 41
162.9325342178345
 68
     2
 69
     2
1001
ACAD
1000
MVIEW
1002
{
1070
    16
1010
0.0
1020
0.0
1030
0.0
1020
0.0
1030
0.0
1010
0.0
1020
0.0
1030
1.0
1020
0.0
1030
1.0
1040
0.0
1040
8205.767713711226
1040
5809.965151642898
1040
1137.040193552135
1040
50.0
1040
0.0
1040
0.0
1070
     0
1070
   100
1070
     0
1070
     1
1070
     0
1070
     0
1070
     0
1070
     0
1040
0.0
1040
0.0
1040
0.0
1040
10.0
1040
10.0
1040
10.0
1040
10.0
1070
     0
1002
{
1002
}
1002
}
  0
ENDSEC
  0
EOF
