  0
SECTION
  2
HEADER
  9
$ACADVER
  1
AC1009
  9
$INSBASE
 10
0
 20
0
 30
0
  9
$EXTMIN
 10
0
 20
0
  9
$EXTMAX
 10
5940
 20
4200
  9
$LIMMIN
 10
0
 20
0
  9
$LIMMAX
 10
5940
 20
4200
  9
$LTSCALE
 40
20
  0
ENDSEC
  0
SECTION
  2
TABLES
  0
TABLE
  2
LTYPE
 70
     9
  0
LTYPE
  2
CONTINUOUS
 70
    64
  3
実線
 72
    65
 73
     0
 40
0.0
  0
LTYPE
  2
DASHED1
 70
    64
  3
--  --  --  --  --  --  --  --  
 72
    65
 73
     2
 40
2.5
 49
1.25
 49
-1.25
  0
LTYPE
  2
DASHED2
 70
    64
  3
----    ----    ----    ----    
 72
    65
 73
     2
 40
5.0
 49
2.5
 49
-2.5
  0
LTYPE
  2
DASHED3
 70
    64
  3
------  ------  ------  ------  
 72
    65
 73
     2
 40
5.0
 49
3.75
 49
-1.25
  0
LTYPE
  2
CENTER1
 70
    64
  3
----- - ----- - ----- - ----- - 
 72
    65
 73
     4
 40
10.0
 49
6.25
 49
-1.25
 49
1.25
 49
-1.25
  0
LTYPE
  2
CENTER2
 70
    64
  3
----------  --  ----------  --  
 72
    65
 73
     4
 40
20.0
 49
12.5
 49
-2.5
 49
2.5
 49
-2.5
  0
LTYPE
  2
PHANTOM1
 70
    64
  3
--- - - --- - - --- - - --- - - 
 72
    65
 73
     6
 40
10.0
 49
3.25
 49
-1.25
 49
1.25
 49
-1.25
 49
1.25
 49
-1.25
  0
LTYPE
  2
PHANTOM2
 70
    64
  3
--------  -  -  --------  -  -  
 72
    65
 73
     6
 40
20.0
 49
10.0
 49
-2.5
 49
1.25
 49
-2.5
 49
1.25
 49
-2.5
  0
LTYPE
  2
DOT
 70
    64
  3
-   -   -   -   -   -   -   -   
 72
    65
 73
     2
 40
2.5
 49
0.625
 49
-1.875
  0
LTYPE
  2
DUMMY
 70
    64
  3
ダミー
 72
    65
 73
     0
 40
0.0
  0
LTYPE
  2
RAND1
 70
    64
  3
ランダム線1
 72
    65
 73
     4
 40
10.0
 49
1.0
 49
-2.0
 49
3.0
 49
-4.0
  0
LTYPE
  2
RAND2
 70
    64
  3
ランダム線2
 72
    65
 73
     4
 40
14.0
 49
2.0
 49
-3.0
 49
4.0
 49
-5.0
  0
LTYPE
  2
RAND3
 70
    64
  3
ランダム線3
 72
    65
 73
     4
 40
18.0
 49
3.0
 49
-4.0
 49
5.0
 49
-6.0
  0
LTYPE
  2
RAND4
 70
    64
  3
ランダム線4
 72
    65
 73
     4
 40
22.0
 49
4.0
 49
-5.0
 49
6.0
 49
-7.0
  0
LTYPE
  2
RAND5
 70
    64
  3
ランダム線5
 72
    65
 73
     4
 40
26.0
 49
5.0
 49
-6.0
 49
7.0
 49
-8.0
  0
LTYPE
  2
LONG1
 70
    64
  3
----------  --  ----------  --  
 72
    65
 73
     4
 40
40.0
 49
32.5
 49
-2.5
 49
2.5
 49
-2.5
  0
LTYPE
  2
LONG2
 70
    64
  3
--------  -  -  --------  -  -  
 72
    65
 73
     6
 40
40.0
 49
30.0
 49
-2.5
 49
1.25
 49
-2.5
 49
1.25
 49
-2.5
  0
LTYPE
  2
LONG3
 70
    64
  3
+++++++++++++++..+++++++++++++++
 72
    65
 73
     2
 40
40.0
 49
37.5
 49
-2.5
  0
LTYPE
  2
LONG4
 70
    64
  3
+++++++++++++++..+++++++++++++++
 72
    65
 73
     2
 40
80.0
 49
75.0
 49
-5.0
  0
LTYPE
  2
LONG5
 70
    64
  3
----------  --  ----------  --  
 72
    65
 73
     4
 40
60.0
 49
37.5
 49
-7.5
 49
7.5
 49
-7.5
  0
LTYPE
  2
dashed
 70
   64
  3
-------   -------------   ------
 72
   65
 73
    2
 40
7.5
 49
6
 49
-1.5
  0
LTYPE
  2
dashed_spaced
 70
   64
  3
----        --------        ----
 72
   65
 73
    2
 40
12
 49
6
 49
-6
  0
LTYPE
  2
long_dashed_dotted
 70
   64
  3
------------- --- --------------
 72
   65
 73
    4
 40
15.25
 49
12
 49
-1.5
 49
0.25
 49
-1.5
  0
LTYPE
  2
long_dashed_double-dotted
 70
   64
  3
----------- --- --- ------------
 72
   65
 73
    6
 40
17
 49
12
 49
-1.5
 49
0.25
 49
-1.5
 49
0.25
 49
-1.5
  0
LTYPE
  2
long_dashed_triplicate-dotted
 70
   64
  3
--------- --- --- --- ----------
 72
   65
 73
    8
 40
18.75
 49
12
 49
-1.5
 49
0.25
 49
-1.5
 49
0.25
 49
-1.5
 49
0.25
 49
-1.5
  0
LTYPE
  2
dotted
 70
   64
  3
   -       -       -       -    
 72
   65
 73
    2
 40
1.75
 49
0.25
 49
-1.5
  0
LTYPE
  2
chain
 70
   64
  3
-------------- -- --------------
 72
   65
 73
    4
 40
18.5
 49
12
 49
-1.5
 49
3.5
 49
-1.5
  0
LTYPE
  2
chain_double_dash
 70
   64
  3
------------ -- -- -------------
 72
   65
 73
    6
 40
23.5
 49
12
 49
-1.5
 49
3.5
 49
-1.5
 49
3.5
 49
-1.5
  0
LTYPE
  2
dashed_dotted
 70
   64
  3
-----------     -     ----------
 72
   65
 73
    4
 40
9.25
 49
6
 49
-1.5
 49
0.25
 49
-1.5
  0
LTYPE
  2
double-dashed_dotted
 70
   64
  3
------   -----------   -   -----
 72
   65
 73
    6
 40
16.75
 49
6
 49
-1.5
 49
6
 49
-1.5
 49
0.25
 49
-1.5
  0
LTYPE
  2
dashed_double-dotted
 70
   64
  3
---------    -    -    ---------
 72
   65
 73
    6
 40
11
 49
6
 49
-1.5
 49
0.25
 49
-1.5
 49
0.25
 49
-1.5
  0
LTYPE
  2
double-dashed_double-dotted
 70
   64
  3
-----   ---------   -   -   ----
 72
   65
 73
    8
 40
18.5
 49
6
 49
-1.5
 49
6
 49
-1.5
 49
0.25
 49
-1.5
 49
0.25
 49
-1.5
  0
LTYPE
  2
dashed_triplicate-dotted
 70
   64
  3
-------    -    -    -    ------
 72
   65
 73
    8
 40
12.75
 49
6
 49
-1.5
 49
0.25
 49
-1.5
 49
0.25
 49
-1.5
 49
0.25
 49
-1.5
  0
LTYPE
  2
double-dashed_triplicate-dotted
 70
   64
  3
-----  ---------  -  -  -  -----
 72
   65
 73
   10
 40
20.25
 49
6
 49
-1.5
 49
6
 49
-1.5
 49
0.25
 49
-1.5
 49
0.25
 49
-1.5
 49
0.25
 49
-1.5
  0
LTYPE
  2
undefined
 70
   64
  3
--------------------------------
 72
   65
 73
    0
 40
0
  0
LTYPE
  2
_
 70
   64
  3
                                
 72
   65
 73
    0
 40
0
  0
LTYPE
  2
__18
 70
   64
  3
                                
 72
   65
 73
    0
 40
0
  0
LTYPE
  2
__19
 70
   64
  3
                                
 72
   65
 73
    0
 40
0
  0
LTYPE
  2
__20
 70
   64
  3
                                
 72
   65
 73
    0
 40
0
  0
LTYPE
  2
__21
 70
   64
  3
                                
 72
   65
 73
    0
 40
0
  0
LTYPE
  2
__22
 70
   64
  3
                                
 72
   65
 73
    0
 40
0
  0
LTYPE
  2
__23
 70
   64
  3
                                
 72
   65
 73
    0
 40
0
  0
LTYPE
  2
__24
 70
   64
  3
                                
 72
   65
 73
    0
 40
0
  0
LTYPE
  2
__25
 70
   64
  3
                                
 72
   65
 73
    0
 40
0
  0
LTYPE
  2
__26
 70
   64
  3
                                
 72
   65
 73
    0
 40
0
  0
LTYPE
  2
__27
 70
   64
  3
                                
 72
   65
 73
    0
 40
0
  0
LTYPE
  2
__28
 70
   64
  3
                                
 72
   65
 73
    0
 40
0
  0
LTYPE
  2
__29
 70
   64
  3
                                
 72
   65
 73
    0
 40
0
  0
LTYPE
  2
__30
 70
   64
  3
                                
 72
   65
 73
    0
 40
0
  0
LTYPE
  2
__31
 70
   64
  3
                                
 72
   65
 73
    0
 40
0
  0
LTYPE
  2
__32
 70
   64
  3
                                
 72
   65
 73
    0
 40
0
  0
ENDTAB
  0
TABLE
  2
STYLE
  5
3
100
AcDbSymbolTable
 70
     1
  0
STYLE
  5
10
100
AcDbSymbolTableRecord
100
AcDbTextStyleTableRecord
  2
STANDARD
 70
     0
 40
0.0
 41
1.0
 50
0.0
 71
     0
 42
0.2
  3
txt
  4
bigfont.shx
  0
STYLE
  5
26
100
AcDbSymbolTableRecord
100
AcDbTextStyleTableRecord
  2
TATEGAKI
 70
    68
 40
0.0
 41
1.0
 50
0.0
 71
     0
 42
1.0
  3
txt
  4
bigfont.shx
  0
ENDTAB
  0
TABLE
  2
LAYER
 70
    4
  0
LAYER
  2
_0-0_0
 70
   64
 62
    7
  6
CONTINUOUS
  0
LAYER
  2
_0-2_用紙枠
 70
   64
 62
    7
  6
CONTINUOUS
  0
LAYER
  2
_0-3_図面枠
 70
   64
 62
    7
  6
CONTINUOUS
  0
LAYER
  2
ADD_LINE
 70
   64
 62
    7
  6
CONTINUOUS
  0
ENDTAB
  0
ENDSEC
  0
SECTION
  2
BLOCKS
  0
ENDSEC
  0
SECTION
  2
ENTITIES
  0
LINE
  8
_0-3_図面枠
  6
CONTINUOUS
 62
    7
 10
5739.9999723388783
 20
3786.7774955464747
 11
399.99997233887882
 21
3786.7774955464747
  0
LINE
  8
_0-0_0
  6
CONTINUOUS
 62
    7
 10
1116.9999723388787
 20
1349.8887379940513
 11
1116.9999723388787
 21
2636.8887379940506
  0
LINE
  8
_0-0_0
  6
CONTINUOUS
 62
    7
 10
1090.9999723388787
 20
1362.8887379940513
 11
1090.9999723388787
 21
2623.8887379940525
  0
LINE
  8
_0-0_0
  6
CONTINUOUS
 62
    7
 10
1168.9999723388787
 20
1349.8887379940513
 11
1168.9999723388787
 21
2636.8887379940506
  0
LINE
  8
_0-0_0
  6
CONTINUOUS
 62
    7
 10
1220.9999723388787
 20
1349.8887379940513
 11
1220.9999723388787
 21
2636.8887379940506
  0
LINE
  8
_0-0_0
  6
CONTINUOUS
 62
    7
 10
1272.9999723388787
 20
1349.8887379940513
 11
1272.9999723388787
 21
2636.8887379940506
  0
LINE
  8
_0-0_0
  6
CONTINUOUS
 62
    7
 10
1324.9999723388787
 20
1349.8887379940513
 11
1324.9999723388787
 21
2636.8887379940506
  0
LINE
  8
_0-0_0
  6
CONTINUOUS
 62
    7
 10
1376.9999723388787
 20
1349.8887379940513
 11
1376.9999723388787
 21
2636.8887379940506
  0
LINE
  8
_0-0_0
  6
CONTINUOUS
 62
    7
 10
1246.9999723388787
 20
1349.8887379940513
 11
1246.9999723388787
 21
2636.8887379940506
  0
LINE
  8
_0-0_0
  6
CONTINUOUS
 62
    7
 10
1402.9999723388787
 20
1362.8887379940513
 11
1402.9999723388787
 21
2623.8887379940516
  0
LINE
  8
_0-0_0
  6
CONTINUOUS
 62
    7
 10
1431.9999723388787
 20
1349.8887379940513
 11
1431.9999723388787
 21
2636.8887379940506
  0
LINE
  8
_0-0_0
  6
CONTINUOUS
 62
    7
 10
1483.9999723388787
 20
1349.8887379940513
 11
1483.9999723388787
 21
2636.8887379940506
  0
LINE
  8
_0-0_0
  6
CONTINUOUS
 62
    7
 10
1535.9999723388787
 20
1349.8887379940513
 11
1535.9999723388787
 21
2636.8887379940506
  0
LINE
  8
_0-0_0
  6
CONTINUOUS
 62
    7
 10
1561.9999723388787
 20
1349.8887379940513
 11
1561.9999723388787
 21
2636.8887379940506
  0
LINE
  8
_0-0_0
  6
CONTINUOUS
 62
    7
 10
1587.9999723388787
 20
1349.8887379940513
 11
1587.9999723388787
 21
2636.8887379940506
  0
LINE
  8
_0-0_0
  6
CONTINUOUS
 62
    7
 10
1639.9999723388787
 20
1349.8887379940513
 11
1639.9999723388787
 21
2636.8887379940506
  0
LINE
  8
_0-0_0
  6
CONTINUOUS
 62
    7
 10
1691.9999723388787
 20
1349.8887379940513
 11
1691.9999723388787
 21
2636.8887379940506
  0
LINE
  8
_0-0_0
  6
CONTINUOUS
 62
    7
 10
1717.9999723388787
 20
1362.8887379940513
 11
1717.9999723388787
 21
2623.8887379940516
  0
LINE
  8
_0-0_0
  6
CONTINUOUS
 62
    7
 10
1405.9999723388787
 20
1362.8887379940513
 11
1405.9999723388787
 21
2623.8887379940516
  0
LINE
  8
_0-0_0
  6
CONTINUOUS
 62
    7
 10
1746.9999723388787
 20
1349.8887379940513
 11
1746.9999723388787
 21
2636.8887379940506
  0
LINE
  8
_0-0_0
  6
CONTINUOUS
 62
    7
 10
1798.9999723388787
 20
1349.8887379940513
 11
1798.9999723388787
 21
2636.8887379940506
  0
LINE
  8
_0-0_0
  6
CONTINUOUS
 62
    7
 10
1850.9999723388787
 20
1349.8887379940513
 11
1850.9999723388787
 21
2636.8887379940506
  0
LINE
  8
_0-0_0
  6
CONTINUOUS
 62
    7
 10
1876.9999723388787
 20
1349.8887379940513
 11
1876.9999723388787
 21
2636.8887379940506
  0
LINE
  8
_0-0_0
  6
CONTINUOUS
 62
    7
 10
1902.9999723388787
 20
1349.8887379940513
 11
1902.9999723388787
 21
2636.8887379940506
  0
LINE
  8
_0-0_0
  6
CONTINUOUS
 62
    7
 10
1954.9999723388787
 20
1349.8887379940513
 11
1954.9999723388787
 21
2636.8887379940506
  0
LINE
  8
_0-0_0
  6
CONTINUOUS
 62
    7
 10
2006.9999723388787
 20
1349.8887379940513
 11
2006.9999723388787
 21
2636.8887379940506
  0
LINE
  8
_0-0_0
  6
CONTINUOUS
 62
    7
 10
2032.9999723388787
 20
1362.8887379940513
 11
2032.9999723388787
 21
2623.8887379940516
  0
LINE
  8
_0-0_0
  6
CONTINUOUS
 62
    7
 10
1720.9999723388787
 20
1362.8887379940513
 11
1720.9999723388787
 21
2623.8887379940516
  0
LINE
  8
_0-0_0
  6
CONTINUOUS
 62
    7
 10
1090.9999723388796
 20
2152.8887379940511
 11
2032.9999723388787
 21
2152.8887379940511
  0
LINE
  8
_0-0_0
  6
CONTINUOUS
 62
    7
 10
1090.9999723388796
 20
2149.8887379940511
 11
2032.9999723388787
 21
2149.8887379940511
  0
LINE
  8
_0-0_0
  6
CONTINUOUS
 62
    7
 10
1090.9999723388796
 20
2307.8887379940511
 11
2032.9999723388796
 21
2307.8887379940511
  0
LINE
  8
_0-0_0
  6
CONTINUOUS
 62
    7
 10
1090.9999723388796
 20
2310.8887379940511
 11
2032.9999723388796
 21
2310.8887379940511
  0
LINE
  8
_0-0_0
  6
CONTINUOUS
 62
    7
 10
1090.9999723388808
 20
2465.8887379940511
 11
2032.9999723388796
 21
2465.8887379940511
  0
LINE
  8
_0-0_0
  6
CONTINUOUS
 62
    7
 10
1090.9999723388808
 20
2468.8887379940511
 11
2032.9999723388796
 21
2468.8887379940511
  0
LINE
  8
_0-0_0
  6
CONTINUOUS
 62
    7
 10
1090.9999723388808
 20
2623.8887379940525
 11
2032.9999723388796
 21
2623.8887379940516
  0
LINE
  8
_0-0_0
  6
CONTINUOUS
 62
    7
 10
1090.9999723388796
 20
1991.8887379940516
 11
2032.9999723388787
 21
1991.8887379940516
  0
LINE
  8
_0-0_0
  6
CONTINUOUS
 62
    7
 10
1090.9999723388796
 20
1994.8887379940513
 11
2032.9999723388787
 21
1994.8887379940513
  0
LINE
  8
_0-0_0
  6
CONTINUOUS
 62
    7
 10
1090.9999723388796
 20
1833.8887379940513
 11
2032.9999723388787
 21
1833.8887379940513
  0
LINE
  8
_0-0_0
  6
CONTINUOUS
 62
    7
 10
1090.9999723388796
 20
1836.8887379940516
 11
2032.9999723388787
 21
1836.8887379940516
  0
LINE
  8
_0-0_0
  6
CONTINUOUS
 62
    7
 10
1090.9999723388796
 20
1675.8887379940511
 11
2032.9999723388778
 21
1675.8887379940511
  0
LINE
  8
_0-0_0
  6
CONTINUOUS
 62
    7
 10
1090.9999723388796
 20
1678.8887379940513
 11
2032.9999723388778
 21
1678.8887379940513
  0
LINE
  8
_0-0_0
  6
CONTINUOUS
 62
    7
 10
1090.9999723388787
 20
1517.8887379940513
 11
2032.9999723388778
 21
1517.8887379940506
  0
LINE
  8
_0-0_0
  6
CONTINUOUS
 62
    7
 10
1090.9999723388787
 20
1520.8887379940511
 11
2032.9999723388778
 21
1520.8887379940511
  0
LINE
  8
_0-0_0
  6
CONTINUOUS
 62
    7
 10
1090.9999723388787
 20
1362.8887379940513
 11
2032.9999723388778
 21
1362.8887379940513
  0
LINE
  8
_0-0_0
  6
CONTINUOUS
 62
    7
 10
2041.4999723388787
 20
1346.3887379940513
 11
2053.4999723388787
 21
1334.3887379940516
  0
LINE
  8
_0-0_0
  6
CONTINUOUS
 62
    7
 10
1082.4999723388787
 20
1346.3887379940513
 11
1070.4999723388787
 21
1334.3887379940516
  0
LINE
  8
_0-0_0
  6
CONTINUOUS
 62
    7
 10
1082.4999723388787
 20
2640.3887379940511
 11
1070.4999723388787
 21
2652.3887379940525
  0
LINE
  8
_0-0_0
  6
CONTINUOUS
 62
    7
 10
2041.4999723388787
 20
2640.3887379940511
 11
2053.4999723388787
 21
2652.3887379940525
  0
LINE
  8
_0-0_0
  6
CONTINUOUS
 62
    7
 10
2364.9999723388787
 20
1334.3887379940516
 11
2364.9999723388787
 21
2652.3887379940525
  0
LINE
  8
_0-0_0
  6
CONTINUOUS
 62
    7
 10
2376.4999723388787
 20
1334.3887379940516
 11
2376.4999723388787
 21
2652.3887379940525
  0
LINE
  8
_0-0_0
  6
CONTINUOUS
 62
    7
 10
2387.9999723388787
 20
1334.3887379940516
 11
2387.9999723388787
 21
2652.3887379940525
  0
LINE
  8
_0-0_0
  6
CONTINUOUS
 62
    7
 10
2353.4999723388787
 20
2652.5137379940506
 11
2353.4999723388787
 21
2853.1087379940523
  0
LINE
  8
_0-0_0
  6
CONTINUOUS
 62
    7
 10
2399.4999723388787
 20
2652.5137379940506
 11
2399.4999723388787
 21
2853.1087379940523
  0
LINE
  8
_0-0_0
  6
CONTINUOUS
 62
    7
 10
2283.4999723388787
 20
2852.7487379940521
 11
2213.4999723388787
 21
2852.7487379940521
  0
LINE
  8
_0-0_0
  6
CONTINUOUS
 62
    7
 10
2469.4999723388787
 20
2852.7487379940521
 11
2672.1704268843337
 21
2852.7487379940521
  0
LINE
  8
_0-0_0
  6
CONTINUOUS
 62
    7
 10
2353.4999723388787
 20
2852.7487379940521
 11
2399.4999723388787
 21
2852.7487379940521
  0
LINE
  8
_0-0_0
  6
CONTINUOUS
 62
    7
 10
2053.4999723388787
 20
2652.5137379940506
 11
2053.4999723388787
 21
2852.7487379940512
  0
LINE
  8
_0-0_0
  6
CONTINUOUS
 62
    7
 10
1070.4999723388787
 20
2652.5137379940506
 11
1070.4999723388787
 21
2852.7487379940512
  0
LINE
  8
_0-0_0
  6
CONTINUOUS
 62
    7
 10
1983.4999723388787
 20
2852.3887379940511
 11
1140.4999723388787
 21
2852.3887379940511
  0
LINE
  8
_0-0_0
  6
CONTINUOUS
 62
    7
 10
2053.6249723388787
 20
2652.3887379940525
 11
2153.8599723388788
 21
2652.3887379940525
  0
LINE
  8
_0-0_0
  6
CONTINUOUS
 62
    7
 10
2053.6249723388787
 20
1334.3887379940516
 11
2153.8599723388788
 21
1334.3887379940516
  0
LINE
  8
_0-0_0
  6
CONTINUOUS
 62
    7
 10
2153.4999723388787
 20
2582.3887379940511
 11
2153.4999723388787
 21
1404.3887379940516
  0
LINE
  8
_0-0_0
  6
CONTINUOUS
 62
    7
 10
2353.4999723388787
 20
1334.3887379940516
 11
2399.4999723388787
 21
1334.3887379940516
  0
LINE
  8
_0-0_0
  6
CONTINUOUS
 62
    7
 10
2399.4999723388787
 20
1334.3887379940516
 11
2399.4999723388787
 21
2652.3887379940525
  0
LINE
  8
_0-0_0
  6
CONTINUOUS
 62
    7
 10
2399.4999723388787
 20
2652.3887379940525
 11
2353.4999723388787
 21
2652.3887379940525
  0
LINE
  8
_0-0_0
  6
CONTINUOUS
 62
    7
 10
2353.4999723388787
 20
2652.3887379940525
 11
2353.4999723388787
 21
1334.3887379940516
  0
LINE
  8
_0-0_0
  6
CONTINUOUS
 62
    7
 10
1743.9999723388787
 20
2636.8887379940506
 11
2009.9999723388787
 21
2636.8887379940506
  0
LINE
  8
_0-0_0
  6
CONTINUOUS
 62
    7
 10
2009.9999723388787
 20
2636.8887379940506
 11
2009.9999723388787
 21
2626.8887379940506
  0
LINE
  8
_0-0_0
  6
CONTINUOUS
 62
    7
 10
2009.9999723388787
 20
2626.8887379940506
 11
1743.9999723388787
 21
2626.8887379940506
  0
LINE
  8
_0-0_0
  6
CONTINUOUS
 62
    7
 10
1743.9999723388787
 20
2626.8887379940506
 11
1743.9999723388787
 21
2636.8887379940506
  0
LINE
  8
_0-0_0
  6
CONTINUOUS
 62
    7
 10
1428.9999723388787
 20
2636.8887379940506
 11
1694.9999723388787
 21
2636.8887379940506
  0
LINE
  8
_0-0_0
  6
CONTINUOUS
 62
    7
 10
1694.9999723388787
 20
2636.8887379940506
 11
1694.9999723388787
 21
2626.8887379940506
  0
LINE
  8
_0-0_0
  6
CONTINUOUS
 62
    7
 10
1694.9999723388787
 20
2626.8887379940506
 11
1428.9999723388787
 21
2626.8887379940506
  0
LINE
  8
_0-0_0
  6
CONTINUOUS
 62
    7
 10
1428.9999723388787
 20
2626.8887379940506
 11
1428.9999723388787
 21
2636.8887379940506
  0
LINE
  8
_0-0_0
  6
CONTINUOUS
 62
    7
 10
1113.9999723388787
 20
2636.8887379940506
 11
1379.9999723388787
 21
2636.8887379940506
  0
LINE
  8
_0-0_0
  6
CONTINUOUS
 62
    7
 10
1379.9999723388787
 20
2636.8887379940506
 11
1379.9999723388787
 21
2626.8887379940506
  0
LINE
  8
_0-0_0
  6
CONTINUOUS
 62
    7
 10
1379.9999723388787
 20
2626.8887379940506
 11
1113.9999723388787
 21
2626.8887379940506
  0
LINE
  8
_0-0_0
  6
CONTINUOUS
 62
    7
 10
1113.9999723388787
 20
2626.8887379940506
 11
1113.9999723388787
 21
2636.8887379940506
  0
LINE
  8
_0-0_0
  6
CONTINUOUS
 62
    7
 10
1743.9999723388787
 20
1359.8887379940513
 11
2009.9999723388787
 21
1359.8887379940513
  0
LINE
  8
_0-0_0
  6
CONTINUOUS
 62
    7
 10
2009.9999723388787
 20
1359.8887379940513
 11
2009.9999723388787
 21
1349.8887379940513
  0
LINE
  8
_0-0_0
  6
CONTINUOUS
 62
    7
 10
2009.9999723388787
 20
1349.8887379940513
 11
1743.9999723388787
 21
1349.8887379940513
  0
LINE
  8
_0-0_0
  6
CONTINUOUS
 62
    7
 10
1743.9999723388787
 20
1349.8887379940513
 11
1743.9999723388787
 21
1359.8887379940513
  0
LINE
  8
_0-0_0
  6
CONTINUOUS
 62
    7
 10
1428.9999723388787
 20
1359.8887379940513
 11
1694.9999723388787
 21
1359.8887379940513
  0
LINE
  8
_0-0_0
  6
CONTINUOUS
 62
    7
 10
1694.9999723388787
 20
1359.8887379940513
 11
1694.9999723388787
 21
1349.8887379940513
  0
LINE
  8
_0-0_0
  6
CONTINUOUS
 62
    7
 10
1694.9999723388787
 20
1349.8887379940513
 11
1428.9999723388787
 21
1349.8887379940513
  0
LINE
  8
_0-0_0
  6
CONTINUOUS
 62
    7
 10
1428.9999723388787
 20
1349.8887379940513
 11
1428.9999723388787
 21
1359.8887379940513
  0
LINE
  8
_0-0_0
  6
CONTINUOUS
 62
    7
 10
1113.9999723388787
 20
1359.8887379940513
 11
1379.9999723388787
 21
1359.8887379940513
  0
LINE
  8
_0-0_0
  6
CONTINUOUS
 62
    7
 10
1379.9999723388787
 20
1359.8887379940513
 11
1379.9999723388787
 21
1349.8887379940513
  0
LINE
  8
_0-0_0
  6
CONTINUOUS
 62
    7
 10
1379.9999723388787
 20
1349.8887379940513
 11
1113.9999723388787
 21
1349.8887379940513
  0
LINE
  8
_0-0_0
  6
CONTINUOUS
 62
    7
 10
1113.9999723388787
 20
1349.8887379940513
 11
1113.9999723388787
 21
1359.8887379940513
  0
LINE
  8
_0-0_0
  6
CONTINUOUS
 62
    7
 10
2041.4999723388787
 20
1346.3887379940513
 11
1082.4999723388787
 21
1346.3887379940513
  0
LINE
  8
_0-0_0
  6
CONTINUOUS
 62
    7
 10
1082.4999723388787
 20
1346.3887379940513
 11
1082.4999723388787
 21
2640.3887379940511
  0
LINE
  8
_0-0_0
  6
CONTINUOUS
 62
    7
 10
1082.4999723388787
 20
2640.3887379940511
 11
2041.4999723388787
 21
2640.3887379940511
  0
LINE
  8
_0-0_0
  6
CONTINUOUS
 62
    7
 10
2041.4999723388787
 20
2640.3887379940511
 11
2041.4999723388787
 21
1346.3887379940513
  0
LINE
  8
_0-0_0
  6
CONTINUOUS
 62
    7
 10
2053.4999723388787
 20
1334.3887379940516
 11
1070.4999723388787
 21
1334.3887379940516
  0
LINE
  8
_0-0_0
  6
CONTINUOUS
 62
    7
 10
1070.4999723388787
 20
1334.3887379940516
 11
1070.4999723388787
 21
2652.3887379940525
  0
LINE
  8
_0-0_0
  6
CONTINUOUS
 62
    7
 10
1070.4999723388787
 20
2652.3887379940525
 11
2053.4999723388787
 21
2652.3887379940525
  0
LINE
  8
_0-0_0
  6
CONTINUOUS
 62
    7
 10
2053.4999723388787
 20
2652.3887379940525
 11
2053.4999723388787
 21
1334.3887379940516
  0
LINE
  8
_0-0_0
  6
CONTINUOUS
 62
    7
 10
3654.9999723388787
 20
2543.3887379940525
 11
5154.9999723388783
 21
2543.3887379940525
  0
LINE
  8
_0-0_0
  6
CONTINUOUS
 62
    7
 10
3654.9999723388787
 20
2443.3887379940525
 11
5154.9999723388783
 21
2443.3887379940525
  0
LINE
  8
_0-0_0
  6
CONTINUOUS
 62
    7
 10
3654.9999723388787
 20
2343.3887379940525
 11
5154.9999723388783
 21
2343.3887379940525
  0
LINE
  8
_0-0_0
  6
CONTINUOUS
 62
    7
 10
3654.9999723388787
 20
2243.3887379940511
 11
5154.9999723388783
 21
2243.3887379940511
  0
LINE
  8
_0-0_0
  6
CONTINUOUS
 62
    7
 10
3654.9999723388787
 20
2143.3887379940511
 11
5154.9999723388783
 21
2143.3887379940511
  0
LINE
  8
_0-0_0
  6
CONTINUOUS
 62
    7
 10
3654.9999723388787
 20
2043.3887379940511
 11
5154.9999723388783
 21
2043.3887379940511
  0
LINE
  8
_0-0_0
  6
CONTINUOUS
 62
    7
 10
3654.9999723388787
 20
1943.3887379940511
 11
5154.9999723388783
 21
1943.3887379940511
  0
LINE
  8
_0-0_0
  6
CONTINUOUS
 62
    7
 10
3654.9999723388787
 20
1843.3887379940511
 11
5154.9999723388783
 21
1843.3887379940511
  0
LINE
  8
_0-0_0
  6
CONTINUOUS
 62
    7
 10
3654.9999723388787
 20
1743.3887379940511
 11
5154.9999723388783
 21
1743.3887379940511
  0
LINE
  8
_0-0_0
  6
CONTINUOUS
 62
    7
 10
3654.9999723388787
 20
1643.3887379940511
 11
5154.9999723388783
 21
1643.3887379940511
  0
LINE
  8
_0-0_0
  6
CONTINUOUS
 62
    7
 10
3654.9999723388787
 20
1543.3887379940511
 11
5154.9999723388783
 21
1543.3887379940511
  0
LINE
  8
_0-0_0
  6
CONTINUOUS
 62
    7
 10
3654.9999723388787
 20
1443.3887379940511
 11
5154.9999723388783
 21
1443.3887379940511
  0
LINE
  8
_0-0_0
  6
CONTINUOUS
 62
    7
 10
3654.9999723388787
 20
2543.3887379940525
 11
3654.9999723388787
 21
1443.3887379940511
  0
LINE
  8
_0-0_0
  6
CONTINUOUS
 62
    7
 10
4354.9999723388792
 20
2543.3887379940525
 11
4354.9999723388792
 21
1443.3887379940511
  0
LINE
  8
_0-0_0
  6
CONTINUOUS
 62
    7
 10
5154.9999723388783
 20
2543.3887379940525
 11
5154.9999723388783
 21
1443.3887379940511
  0
LINE
  8
_0-3_図面枠
  6
CONTINUOUS
 62
    7
 10
5739.9999723388783
 20
199.99998044162936
 11
5739.9999723388783
 21
3999.9999804416293
  0
LINE
  8
_0-3_図面枠
  6
CONTINUOUS
 62
    7
 10
5739.9999723388783
 20
3999.9999804416293
 11
399.99997233887882
 21
3999.9999804416293
  0
LINE
  8
_0-3_図面枠
  6
CONTINUOUS
 62
    7
 10
399.99997233887882
 20
3999.9999804416293
 11
399.99997233887882
 21
199.99998044162936
  0
LINE
  8
_0-3_図面枠
  6
CONTINUOUS
 62
    7
 10
399.99997233887882
 20
199.99998044162936
 11
5739.9999723388783
 21
199.99998044162936
  0
LINE
  8
_0-2_用紙枠
  6
CONTINUOUS
 62
    7
 10
-0.0000276611211802
 20
-0.0000195583706386
 11
5939.9999723388783
 21
-0.0000195583706386
  0
LINE
  8
_0-2_用紙枠
  6
CONTINUOUS
 62
    7
 10
5939.9999723388783
 20
-0.0000195583706386
 11
5939.9999723388783
 21
4199.9999804416293
  0
LINE
  8
_0-2_用紙枠
  6
CONTINUOUS
 62
    7
 10
5939.9999723388783
 20
4199.9999804416293
 11
-0.0000276611211802
 21
4199.9999804416293
  0
LINE
  8
_0-2_用紙枠
  6
CONTINUOUS
 62
    7
 10
-0.0000276611211802
 20
4199.9999804416293
 11
-0.0000276611211802
 21
-0.0000195583706386
  0
TEXT
  8
_0-0_0
 62
    7
 10
2133.4999723388787
 20
1888.5876016304153
 40
70
 41
1
 50
90
  1
1318
  0
LINE
  8
_0-0_0
  6
CONTINUOUS
 62
    7
 10
2165.1666390055457
 20
1404.3887379940516
 11
2153.4999723388787
 21
1334.3887379940516
  0
LINE
  8
_0-0_0
  6
CONTINUOUS
 62
    7
 10
2141.8333056722126
 20
1404.3887379940516
 11
2153.4999723388787
 21
1334.3887379940516
  0
LINE
  8
_0-0_0
  6
CONTINUOUS
 62
    7
 10
2153.4999723388787
 20
1334.3887379940516
 11
2153.4999723388787
 21
1404.3887379940516
  0
LINE
  8
_0-0_0
  6
CONTINUOUS
 62
    7
 10
2141.8333056722126
 20
2582.3887379940511
 11
2153.4999723388787
 21
2652.3887379940525
  0
LINE
  8
_0-0_0
  6
CONTINUOUS
 62
    7
 10
2165.1666390055457
 20
2582.3887379940511
 11
2153.4999723388787
 21
2652.3887379940525
  0
LINE
  8
_0-0_0
  6
CONTINUOUS
 62
    7
 10
2153.4999723388787
 20
2652.3887379940525
 11
2153.4999723388787
 21
2582.3887379940511
  0
TEXT
  8
_0-0_0
 62
    7
 10
1485.4374723388787
 20
2872.3887379940525
 40
70
 41
1
 50
0
  1
983
  0
LINE
  8
_0-0_0
  6
CONTINUOUS
 62
    7
 10
1140.4999723388787
 20
2840.7220713273855
 11
1070.4999723388787
 21
2852.3887379940511
  0
LINE
  8
_0-0_0
  6
CONTINUOUS
 62
    7
 10
1140.4999723388787
 20
2864.0554046607185
 11
1070.4999723388787
 21
2852.3887379940511
  0
LINE
  8
_0-0_0
  6
CONTINUOUS
 62
    7
 10
1070.4999723388787
 20
2852.3887379940511
 11
1140.4999723388787
 21
2852.3887379940511
  0
LINE
  8
_0-0_0
  6
CONTINUOUS
 62
    7
 10
1983.4999723388787
 20
2864.0554046607185
 11
2053.4999723388787
 21
2852.3887379940511
  0
LINE
  8
_0-0_0
  6
CONTINUOUS
 62
    7
 10
1983.4999723388787
 20
2840.7220713273855
 11
2053.4999723388787
 21
2852.3887379940511
  0
LINE
  8
_0-0_0
  6
CONTINUOUS
 62
    7
 10
2053.4999723388787
 20
2852.3887379940511
 11
1983.4999723388787
 21
2852.3887379940511
  0
TEXT
  8
_0-0_0
 62
    7
 10
2555.9204268843337
 20
2872.7487379940521
 40
70
 41
1
 50
0
  1
46
  0
LINE
  8
_0-0_0
  6
CONTINUOUS
 62
    7
 10
2469.4999723388787
 20
2841.0820713273852
 11
2399.4999723388787
 21
2852.7487379940521
  0
LINE
  8
_0-0_0
  6
CONTINUOUS
 62
    7
 10
2469.4999723388787
 20
2864.4154046607182
 11
2399.4999723388787
 21
2852.7487379940521
  0
LINE
  8
_0-0_0
  6
CONTINUOUS
 62
    7
 10
2399.4999723388787
 20
2852.7487379940521
 11
2469.4999723388787
 21
2852.7487379940521
  0
LINE
  8
_0-0_0
  6
CONTINUOUS
 62
    7
 10
2283.4999723388787
 20
2864.4154046607182
 11
2353.4999723388787
 21
2852.7487379940521
  0
LINE
  8
_0-0_0
  6
CONTINUOUS
 62
    7
 10
2283.4999723388787
 20
2841.0820713273852
 11
2353.4999723388787
 21
2852.7487379940521
  0
LINE
  8
_0-0_0
  6
CONTINUOUS
 62
    7
 10
2353.4999723388787
 20
2852.7487379940521
 11
2283.4999723388787
 21
2852.7487379940521
  0
TEXT
  8
_0-3_図面枠
 62
    7
 10
499.99997233887882
 20
3816.7774955464747
 40
140
 41
1
 50
0
  1
太陽電池モジュール　TMX-205P-WHT-J
  0
TEXT
  8
_0-0_0
 62
    7
 10
3657.9999723388792
 20
2466.9114652667781
 40
50
 41
1
 50
0
  1
  型式
  0
TEXT
  8
_0-0_0
 62
    7
 10
3657.9999723388792
 20
2367.9341925395065
 40
50
 41
1
 50
0
  1
  セル種類
  0
TEXT
  8
_0-0_0
 62
    7
 10
3657.9999723388792
 20
2267.2523743576885
 40
50
 41
1
 50
0
  1
  最大モジュール変換効率
  0
TEXT
  8
_0-0_0
 62
    7
 10
3657.9999723388792
 20
2167.4796470849601
 40
50
 41
1
 50
0
  1
  公称最大出力
  0
TEXT
  8
_0-0_0
 62
    7
 10
3657.9999723388792
 20
2067.5932834485975
 40
50
 41
1
 50
0
  1
  公称最大出力動作電圧
  0
TEXT
  8
_0-0_0
 62
    7
 10
3657.9999723388792
 20
1967.5932834485975
 40
50
 41
1
 50
0
  1
  公称最大出力動作電流
  0
TEXT
  8
_0-0_0
 62
    7
 10
3657.9999723388792
 20
1867.4796470849603
 40
50
 41
1
 50
0
  1
  公称開放電圧
  0
TEXT
  8
_0-0_0
 62
    7
 10
3657.9999723388792
 20
1767.2523743576876
 40
50
 41
1
 50
0
  1
  公称短絡電流
  0
TEXT
  8
_0-0_0
 62
    7
 10
3657.9999723388792
 20
1667.9341925395056
 40
50
 41
1
 50
0
  1
  最大システム電圧
  0
TEXT
  8
_0-0_0
 62
    7
 10
3657.9999723388792
 20
1568.0478289031425
 40
50
 41
1
 50
0
  1
  外形寸法（WxHxD）
  0
TEXT
  8
_0-0_0
 62
    7
 10
3657.9999723388792
 20
1468.0478289031428
 40
50
 41
1
 50
0
  1
  質量
  0
TEXT
  8
_0-0_0
 62
    7
 10
4543.0681541570593
 20
2367.3660107213245
 40
50
 41
1
 50
0
  1
シリコン多結晶系
  0
TEXT
  8
_0-0_0
 62
    7
 10
4688.7499723388792
 20
2268.3887379940511
 40
50
 41
1
 50
0
  1
15.8%
  0
TEXT
  8
_0-0_0
 62
    7
 10
4688.5226996116071
 20
2168.3887379940511
 40
50
 41
1
 50
0
  1
205W
  0
TEXT
  8
_0-0_0
 62
    7
 10
4686.0226996116053
 20
2068.3887379940511
 40
50
 41
1
 50
0
  1
24.6V
  0
TEXT
  8
_0-0_0
 62
    7
 10
4686.0226996116053
 20
1968.3887379940511
 40
50
 41
1
 50
0
  1
8.32A
  0
TEXT
  8
_0-0_0
 62
    7
 10
4686.0226996116053
 20
1768.3887379940511
 40
50
 41
1
 50
0
  1
8.87A
  0
TEXT
  8
_0-0_0
 62
    7
 10
4675.7954268843323
 20
1668.3887379940511
 40
50
 41
1
 50
0
  1
1000V
  0
TEXT
  8
_0-0_0
 62
    7
 10
4559.8076923076933
 20
2468.3887379940511
 40
50
 41
1
 50
0
  1
TMX-205P-WHT-J
  0
TEXT
  8
_0-0_0
 62
    7
 10
4566.7307692307704
 20
1571.1160107213243
 40
50
 41
1
 50
0
  1
1,318x983x46mm
  0
TEXT
  8
_0-0_0
 62
    7
 10
4672.038461538461
 20
1471.7307692307693
 40
50
 41
1
 50
0
  1
14.8kg
  0
TEXT
  8
_0-0_0
 62
    7
 10
4686.0226996116053
 20
1868.3887379940511
 40
50
 41
1
 50
0
  1
30.1V
  0
ENDSEC
  0
EOF
