  0
SECTION
  2
HEADER
  9
$ACADVER
  1
AC1009
  9
$INSBASE
 10
0
 20
0
 30
0
  9
$EXTMIN
 10
0
 20
0
  9
$EXTMAX
 10
5940
 20
4200
  9
$LIMMIN
 10
0
 20
0
  9
$LIMMAX
 10
5940
 20
4200
  9
$LTSCALE
 40
20
  0
ENDSEC
  0
SECTION
  2
TABLES
  0
TABLE
  2
LTYPE
 70
     9
  0
LTYPE
  2
CONTINUOUS
 70
    64
  3
実線
 72
    65
 73
     0
 40
0.0
  0
LTYPE
  2
DASHED1
 70
    64
  3
--  --  --  --  --  --  --  --  
 72
    65
 73
     2
 40
2.5
 49
1.25
 49
-1.25
  0
LTYPE
  2
DASHED2
 70
    64
  3
----    ----    ----    ----    
 72
    65
 73
     2
 40
5.0
 49
2.5
 49
-2.5
  0
LTYPE
  2
DASHED3
 70
    64
  3
------  ------  ------  ------  
 72
    65
 73
     2
 40
5.0
 49
3.75
 49
-1.25
  0
LTYPE
  2
CENTER1
 70
    64
  3
----- - ----- - ----- - ----- - 
 72
    65
 73
     4
 40
10.0
 49
6.25
 49
-1.25
 49
1.25
 49
-1.25
  0
LTYPE
  2
CENTER2
 70
    64
  3
----------  --  ----------  --  
 72
    65
 73
     4
 40
20.0
 49
12.5
 49
-2.5
 49
2.5
 49
-2.5
  0
LTYPE
  2
PHANTOM1
 70
    64
  3
--- - - --- - - --- - - --- - - 
 72
    65
 73
     6
 40
10.0
 49
3.25
 49
-1.25
 49
1.25
 49
-1.25
 49
1.25
 49
-1.25
  0
LTYPE
  2
PHANTOM2
 70
    64
  3
--------  -  -  --------  -  -  
 72
    65
 73
     6
 40
20.0
 49
10.0
 49
-2.5
 49
1.25
 49
-2.5
 49
1.25
 49
-2.5
  0
LTYPE
  2
DOT
 70
    64
  3
-   -   -   -   -   -   -   -   
 72
    65
 73
     2
 40
2.5
 49
0.625
 49
-1.875
  0
LTYPE
  2
DUMMY
 70
    64
  3
ダミー
 72
    65
 73
     0
 40
0.0
  0
LTYPE
  2
RAND1
 70
    64
  3
ランダム線1
 72
    65
 73
     4
 40
10.0
 49
1.0
 49
-2.0
 49
3.0
 49
-4.0
  0
LTYPE
  2
RAND2
 70
    64
  3
ランダム線2
 72
    65
 73
     4
 40
14.0
 49
2.0
 49
-3.0
 49
4.0
 49
-5.0
  0
LTYPE
  2
RAND3
 70
    64
  3
ランダム線3
 72
    65
 73
     4
 40
18.0
 49
3.0
 49
-4.0
 49
5.0
 49
-6.0
  0
LTYPE
  2
RAND4
 70
    64
  3
ランダム線4
 72
    65
 73
     4
 40
22.0
 49
4.0
 49
-5.0
 49
6.0
 49
-7.0
  0
LTYPE
  2
RAND5
 70
    64
  3
ランダム線5
 72
    65
 73
     4
 40
26.0
 49
5.0
 49
-6.0
 49
7.0
 49
-8.0
  0
LTYPE
  2
LONG1
 70
    64
  3
----------  --  ----------  --  
 72
    65
 73
     4
 40
40.0
 49
32.5
 49
-2.5
 49
2.5
 49
-2.5
  0
LTYPE
  2
LONG2
 70
    64
  3
--------  -  -  --------  -  -  
 72
    65
 73
     6
 40
40.0
 49
30.0
 49
-2.5
 49
1.25
 49
-2.5
 49
1.25
 49
-2.5
  0
LTYPE
  2
LONG3
 70
    64
  3
+++++++++++++++..+++++++++++++++
 72
    65
 73
     2
 40
40.0
 49
37.5
 49
-2.5
  0
LTYPE
  2
LONG4
 70
    64
  3
+++++++++++++++..+++++++++++++++
 72
    65
 73
     2
 40
80.0
 49
75.0
 49
-5.0
  0
LTYPE
  2
LONG5
 70
    64
  3
----------  --  ----------  --  
 72
    65
 73
     4
 40
60.0
 49
37.5
 49
-7.5
 49
7.5
 49
-7.5
  0
LTYPE
  2
dashed
 70
   64
  3
-------   -------------   ------
 72
   65
 73
    2
 40
7.5
 49
6
 49
-1.5
  0
LTYPE
  2
dashed_spaced
 70
   64
  3
----        --------        ----
 72
   65
 73
    2
 40
12
 49
6
 49
-6
  0
LTYPE
  2
long_dashed_dotted
 70
   64
  3
------------- --- --------------
 72
   65
 73
    4
 40
15.25
 49
12
 49
-1.5
 49
0.25
 49
-1.5
  0
LTYPE
  2
long_dashed_double-dotted
 70
   64
  3
----------- --- --- ------------
 72
   65
 73
    6
 40
17
 49
12
 49
-1.5
 49
0.25
 49
-1.5
 49
0.25
 49
-1.5
  0
LTYPE
  2
long_dashed_triplicate-dotted
 70
   64
  3
--------- --- --- --- ----------
 72
   65
 73
    8
 40
18.75
 49
12
 49
-1.5
 49
0.25
 49
-1.5
 49
0.25
 49
-1.5
 49
0.25
 49
-1.5
  0
LTYPE
  2
dotted
 70
   64
  3
   -       -       -       -    
 72
   65
 73
    2
 40
1.75
 49
0.25
 49
-1.5
  0
LTYPE
  2
chain
 70
   64
  3
-------------- -- --------------
 72
   65
 73
    4
 40
18.5
 49
12
 49
-1.5
 49
3.5
 49
-1.5
  0
LTYPE
  2
chain_double_dash
 70
   64
  3
------------ -- -- -------------
 72
   65
 73
    6
 40
23.5
 49
12
 49
-1.5
 49
3.5
 49
-1.5
 49
3.5
 49
-1.5
  0
LTYPE
  2
dashed_dotted
 70
   64
  3
-----------     -     ----------
 72
   65
 73
    4
 40
9.25
 49
6
 49
-1.5
 49
0.25
 49
-1.5
  0
LTYPE
  2
double-dashed_dotted
 70
   64
  3
------   -----------   -   -----
 72
   65
 73
    6
 40
16.75
 49
6
 49
-1.5
 49
6
 49
-1.5
 49
0.25
 49
-1.5
  0
LTYPE
  2
dashed_double-dotted
 70
   64
  3
---------    -    -    ---------
 72
   65
 73
    6
 40
11
 49
6
 49
-1.5
 49
0.25
 49
-1.5
 49
0.25
 49
-1.5
  0
LTYPE
  2
double-dashed_double-dotted
 70
   64
  3
-----   ---------   -   -   ----
 72
   65
 73
    8
 40
18.5
 49
6
 49
-1.5
 49
6
 49
-1.5
 49
0.25
 49
-1.5
 49
0.25
 49
-1.5
  0
LTYPE
  2
dashed_triplicate-dotted
 70
   64
  3
-------    -    -    -    ------
 72
   65
 73
    8
 40
12.75
 49
6
 49
-1.5
 49
0.25
 49
-1.5
 49
0.25
 49
-1.5
 49
0.25
 49
-1.5
  0
LTYPE
  2
double-dashed_triplicate-dotted
 70
   64
  3
-----  ---------  -  -  -  -----
 72
   65
 73
   10
 40
20.25
 49
6
 49
-1.5
 49
6
 49
-1.5
 49
0.25
 49
-1.5
 49
0.25
 49
-1.5
 49
0.25
 49
-1.5
  0
LTYPE
  2
undefined
 70
   64
  3
--------------------------------
 72
   65
 73
    0
 40
0
  0
LTYPE
  2
_
 70
   64
  3
                                
 72
   65
 73
    0
 40
0
  0
LTYPE
  2
__18
 70
   64
  3
                                
 72
   65
 73
    0
 40
0
  0
LTYPE
  2
__19
 70
   64
  3
                                
 72
   65
 73
    0
 40
0
  0
LTYPE
  2
__20
 70
   64
  3
                                
 72
   65
 73
    0
 40
0
  0
LTYPE
  2
__21
 70
   64
  3
                                
 72
   65
 73
    0
 40
0
  0
LTYPE
  2
__22
 70
   64
  3
                                
 72
   65
 73
    0
 40
0
  0
LTYPE
  2
__23
 70
   64
  3
                                
 72
   65
 73
    0
 40
0
  0
LTYPE
  2
__24
 70
   64
  3
                                
 72
   65
 73
    0
 40
0
  0
LTYPE
  2
__25
 70
   64
  3
                                
 72
   65
 73
    0
 40
0
  0
LTYPE
  2
__26
 70
   64
  3
                                
 72
   65
 73
    0
 40
0
  0
LTYPE
  2
__27
 70
   64
  3
                                
 72
   65
 73
    0
 40
0
  0
LTYPE
  2
__28
 70
   64
  3
                                
 72
   65
 73
    0
 40
0
  0
LTYPE
  2
__29
 70
   64
  3
                                
 72
   65
 73
    0
 40
0
  0
LTYPE
  2
__30
 70
   64
  3
                                
 72
   65
 73
    0
 40
0
  0
LTYPE
  2
__31
 70
   64
  3
                                
 72
   65
 73
    0
 40
0
  0
LTYPE
  2
__32
 70
   64
  3
                                
 72
   65
 73
    0
 40
0
  0
ENDTAB
  0
TABLE
  2
STYLE
  5
3
100
AcDbSymbolTable
 70
     1
  0
STYLE
  5
10
100
AcDbSymbolTableRecord
100
AcDbTextStyleTableRecord
  2
STANDARD
 70
     0
 40
0.0
 41
1.0
 50
0.0
 71
     0
 42
0.2
  3
txt
  4
bigfont.shx
  0
STYLE
  5
26
100
AcDbSymbolTableRecord
100
AcDbTextStyleTableRecord
  2
TATEGAKI
 70
    68
 40
0.0
 41
1.0
 50
0.0
 71
     0
 42
1.0
  3
txt
  4
bigfont.shx
  0
ENDTAB
  0
TABLE
  2
LAYER
 70
    4
  0
LAYER
  2
_0-0_0
 70
   64
 62
    7
  6
CONTINUOUS
  0
LAYER
  2
_0-2_用紙枠
 70
   64
 62
    7
  6
CONTINUOUS
  0
LAYER
  2
_0-3_図面枠
 70
   64
 62
    7
  6
CONTINUOUS
  0
LAYER
  2
ADD_LINE
 70
   64
 62
    7
  6
CONTINUOUS
  0
ENDTAB
  0
ENDSEC
  0
SECTION
  2
BLOCKS
  0
ENDSEC
  0
SECTION
  2
ENTITIES
  0
LINE
  8
_0-3_図面枠
  6
CONTINUOUS
 62
    7
 10
5739.99995850705
 20
3786.7774857663935
 11
399.99995850704977
 21
3786.7774857663935
  0
LINE
  8
_0-0_0
  6
CONTINUOUS
 62
    7
 10
2403.4951985580992
 20
2732.9533909863849
 11
2403.4951985580969
 21
1253.7887652911679
  0
ARC
  8
_0-0_0
  6
CONTINUOUS
 62
    7
 10
2367.9711870056049
 20
2730.3499265837531
 40
3.0388983427700076
 50
89.542888535984019
 51
167.88603416399809
  0
CIRCLE
  8
_0-0_0
  6
CONTINUOUS
 62
    7
 10
2394.9937683731268
 20
2724.4010058018748
 40
2.9915558238082216
  0
CIRCLE
  8
_0-0_0
  6
CONTINUOUS
 62
    7
 10
2394.9894264782429
 20
2724.3879801172206
 40
4.51122921300861
  0
CIRCLE
  8
_0-0_0
  6
CONTINUOUS
 62
    7
 10
2395.0067940577828
 20
2724.4227152763001
 40
1.7675395178872861
  0
CIRCLE
  8
_0-0_0
  6
CONTINUOUS
 62
    7
 10
2385.0030682425781
 20
2717.3931874573682
 40
2.1405567816981832
  0
CIRCLE
  8
_0-0_0
  6
CONTINUOUS
 62
    7
 10
2372.6981381382839
 20
2724.3923220121051
 40
4.4938549782710311
  0
CIRCLE
  8
_0-0_0
  6
CONTINUOUS
 62
    7
 10
2372.6981381382839
 20
2724.3923220121051
 40
3.0002493655847049
  0
CIRCLE
  8
_0-0_0
  6
CONTINUOUS
 62
    7
 10
2372.6894543485132
 20
2724.4010058018748
 40
1.7888606926495147
  0
CIRCLE
  8
_0-0_0
  6
CONTINUOUS
 62
    7
 10
2384.9857006630359
 20
1269.3799270756911
 40
2.1405811440600879
  0
CIRCLE
  8
_0-0_0
  6
CONTINUOUS
 62
    7
 10
2394.9937683731268
 20
1262.37645062607
 40
1.8018866135089351
  0
CIRCLE
  8
_0-0_0
  6
CONTINUOUS
 62
    7
 10
2394.9937683731268
 20
1262.37645062607
 40
2.9915655758144921
  0
CIRCLE
  8
_0-0_0
  6
CONTINUOUS
 62
    7
 10
2394.9937683731268
 20
1262.37645062607
 40
4.498213194824487
  0
CIRCLE
  8
_0-0_0
  6
CONTINUOUS
 62
    7
 10
2372.7024800331678
 20
1262.3807925209551
 40
1.8065309270055003
  0
CIRCLE
  8
_0-0_0
  6
CONTINUOUS
 62
    7
 10
2372.7024800331678
 20
1262.3807925209551
 40
2.9959056211297548
  0
CIRCLE
  8
_0-0_0
  6
CONTINUOUS
 62
    7
 10
2372.6937962433999
 20
1262.38513441584
 40
4.4895172415051761
  0
ARC
  8
_0-0_0
  6
CONTINUOUS
 62
    7
 10
2403.4990156894901
 20
2731.8877838692442
 40
1.5009491984971679
 50
0.1670694667027719
 51
90.145711630062294
  0
ARC
  8
_0-0_0
  6
CONTINUOUS
 62
    7
 10
2403.4887599914132
 20
1254.9000296172901
 40
1.5113102182823752
 50
270.20052511255881
 51
359.3033811396204
  0
LINE
  8
_0-0_0
  6
CONTINUOUS
 62
    7
 10
2401.9929029278642
 20
1253.388728213971
 11
2401.9856487452221
 21
1253.3887282139701
  0
ARC
  8
_0-0_0
  6
CONTINUOUS
 62
    7
 10
2366.9889316102121
 20
1255.3777187529181
 40
1.9889979235934121
 50
179.7137631140389
 51
270.15612967376484
  0
LINE
  8
_0-0_0
  6
CONTINUOUS
 62
    7
 10
2364.9999585070518
 20
1255.3876552998779
 11
2364.9999585070518
 21
2731.3871146719548
  0
ARC
  8
_0-0_0
  6
CONTINUOUS
 62
    7
 10
2366.983522098702
 20
2731.4051028199256
 40
1.9836451536468449
 50
89.744262120424864
 51
180.51957835501301
  0
ARC
  8
_0-0_0
  6
CONTINUOUS
 62
    7
 10
2368.081269975457
 20
1256.5087831775561
 40
3.1212236091971288
 50
189.17258147451579
 51
268.4320574108595
  0
ARC
  8
_0-0_0
  6
CONTINUOUS
 62
    7
 10
2401.9874026591619
 20
1256.4302901072051
 40
3.041562398930711
 50
269.96696044377308
 51
352.08076807202349
  0
ARC
  8
_0-0_0
  6
CONTINUOUS
 62
    7
 10
2401.8691369305739
 20
2730.1498369171009
 40
3.2409862443253119
 50
14.981597275233909
 51
87.939801814990901
  0
LINE
  8
_0-0_0
  6
CONTINUOUS
 62
    7
 10
2366.994351576835
 20
1253.388728213971
 11
2403.4940492995529
 21
1253.388728213971
  0
LINE
  8
_0-0_0
  6
CONTINUOUS
 62
    7
 10
2404.9999585070482
 20
1254.881655117933
 11
2404.9999585070482
 21
2731.892160499232
  0
LINE
  8
_0-0_0
  6
CONTINUOUS
 62
    7
 10
2403.4951985580992
 20
2733.388728213964
 11
2366.9923760060101
 21
2733.3887282139731
  0
LINE
  8
_0-0_0
  6
CONTINUOUS
 62
    7
 10
1064.999958507052
 20
1253.388728213971
 11
2064.9999585070518
 21
1253.388728213971
  0
LINE
  8
_0-0_0
  6
CONTINUOUS
 62
    7
 10
1064.999958507052
 20
2733.3887282139731
 11
2064.9999585070518
 21
2733.3887282139731
  0
LINE
  8
_0-0_0
  6
CONTINUOUS
 62
    7
 10
1064.999958507052
 20
2733.3887282139731
 11
1064.999958507052
 21
1253.388728213971
  0
LINE
  8
_0-0_0
  6
CONTINUOUS
 62
    7
 10
1069.9974795197691
 20
2722.8900263818691
 11
1069.9974795197691
 21
1263.8917719409601
  0
LINE
  8
_0-0_0
  6
CONTINUOUS
 62
    7
 10
1074.7692219984631
 20
1263.8917719409601
 11
1074.7692219984631
 21
2722.8900263818691
  0
LINE
  8
_0-0_0
  6
CONTINUOUS
 62
    7
 10
1066.992888259299
 20
2728.3912072012536
 11
2063.0018654203459
 21
2728.3912072012536
  0
LINE
  8
_0-0_0
  6
CONTINUOUS
 62
    7
 10
2063.0018654203459
 20
2731.886432583738
 11
1066.992888259299
 21
2731.886432583738
  0
LINE
  8
_0-0_0
  6
CONTINUOUS
 62
    7
 10
1066.992888259299
 20
2733.3887282139731
 11
1066.992888259299
 21
2722.8900263818691
  0
LINE
  8
_0-0_0
  6
CONTINUOUS
 62
    7
 10
2054.999753147159
 20
1263.8917719409601
 11
2054.999753147159
 21
2722.8900263818691
  0
LINE
  8
_0-0_0
  6
CONTINUOUS
 62
    7
 10
2059.9972741598772
 20
2722.8900263818691
 11
2059.9972741598772
 21
1263.8917719409601
  0
LINE
  8
_0-0_0
  6
CONTINUOUS
 62
    7
 10
2064.9999585070518
 20
1253.388728213971
 11
2064.9999585070518
 21
2733.3887282139731
  0
LINE
  8
_0-0_0
  6
CONTINUOUS
 62
    7
 10
2063.0018654203459
 20
2733.3887282139731
 11
2063.0018654203459
 21
2722.8900263818691
  0
LINE
  8
_0-0_0
  6
CONTINUOUS
 62
    7
 10
2063.0018654203459
 20
2723.6672255662961
 11
1066.992888259299
 21
2723.6672255662961
  0
LINE
  8
_0-0_0
  6
CONTINUOUS
 62
    7
 10
1066.992888259299
 20
2723.3893442936514
 11
2063.0018654203459
 21
2723.3893442936514
  0
LINE
  8
_0-0_0
  6
CONTINUOUS
 62
    7
 10
1066.992888259299
 20
1258.3819073318029
 11
2063.0018654203459
 21
1258.3819073318029
  0
LINE
  8
_0-0_0
  6
CONTINUOUS
 62
    7
 10
2063.0018654203459
 20
1263.8917719409601
 11
2063.0018654203459
 21
1253.388728213971
  0
LINE
  8
_0-0_0
  6
CONTINUOUS
 62
    7
 10
2063.0018654203459
 20
1263.8917719409601
 11
1066.992888259299
 21
1263.8917719409601
  0
LINE
  8
_0-0_0
  6
CONTINUOUS
 62
    7
 10
1066.992888259299
 20
1263.8917719409601
 11
1066.992888259299
 21
1253.388728213971
  0
LINE
  8
_0-0_0
  6
CONTINUOUS
 62
    7
 10
1066.992888259299
 20
1263.383770239406
 11
2061.9902039121248
 21
1263.383770239406
  0
LINE
  8
_0-0_0
  6
CONTINUOUS
 62
    7
 10
2061.9902039121248
 20
1263.383770239406
 11
2061.998887701895
 21
1263.383770239406
  0
LINE
  8
_0-0_0
  6
CONTINUOUS
 62
    7
 10
2061.998887701895
 20
1263.383770239406
 11
2063.0018654203459
 21
1263.383770239406
  0
LINE
  8
_0-0_0
  6
CONTINUOUS
 62
    7
 10
2063.0018654203459
 20
1263.114572756532
 11
1066.992888259299
 21
1263.114572756532
  0
LINE
  8
_0-0_0
  6
CONTINUOUS
 62
    7
 10
1066.992888259299
 20
1253.822917702478
 11
2063.0018654203459
 21
1253.822917702478
  0
LINE
  8
_0-0_0
  6
CONTINUOUS
 62
    7
 10
2063.0018654203459
 20
1254.882340054435
 11
1066.992888259299
 21
1254.882340054435
  0
LINE
  8
_0-0_0
  6
CONTINUOUS
 62
    7
 10
1066.992888259299
 20
1255.611778395127
 11
2063.0018654203459
 21
1255.611778395127
  0
LINE
  8
_0-0_0
  6
CONTINUOUS
 62
    7
 10
2063.0018654203459
 20
2732.9545387254657
 11
1066.992888259299
 21
2732.9545387254657
  0
LINE
  8
_0-0_0
  6
CONTINUOUS
 62
    7
 10
1066.992888259299
 20
2731.1700199277002
 11
2063.0018654203459
 21
2731.1700199277002
  0
LINE
  8
_0-0_0
  6
CONTINUOUS
 62
    7
 10
1240.2562036480899
 20
2647.9836558246102
 11
1244.7457229592537
 21
2647.9836558246102
  0
LINE
  8
_0-0_0
  6
CONTINUOUS
 62
    7
 10
1401.509837784771
 20
2647.9836558246102
 11
1405.9993570959359
 21
2647.9836558246102
  0
LINE
  8
_0-0_0
  6
CONTINUOUS
 62
    7
 10
1562.754788131683
 20
2647.9836558246102
 11
1567.2399655479621
 21
2647.9836558246102
  0
LINE
  8
_0-0_0
  6
CONTINUOUS
 62
    7
 10
1723.9953965837099
 20
2647.9836558246102
 11
1728.4935996846439
 21
2647.9836558246102
  0
LINE
  8
_0-0_0
  6
CONTINUOUS
 62
    7
 10
1889.7472338213261
 20
2647.9836558246102
 11
1885.231663140851
 21
2647.9836558246102
  0
LINE
  8
_0-0_0
  6
CONTINUOUS
 62
    7
 10
1108.375488408919
 20
1435.874228338653
 11
1108.375488408919
 21
1432.8826627628391
  0
LINE
  8
_0-0_0
  6
CONTINUOUS
 62
    7
 10
1109.877784039154
 20
1435.874228338653
 11
1109.877784039154
 21
1432.8826627628391
  0
LINE
  8
_0-0_0
  6
CONTINUOUS
 62
    7
 10
1109.1222943291509
 20
2718.9910047750745
 11
1109.1222943291509
 21
1267.986178817582
  0
LINE
  8
_0-0_0
  6
CONTINUOUS
 62
    7
 10
1110.624589959386
 20
2718.9910047750745
 11
1110.624589959386
 21
1267.986178817582
  0
LINE
  8
_0-0_0
  6
CONTINUOUS
 62
    7
 10
1161.1251693676561
 20
2718.9910047750745
 11
1161.1251693676561
 21
1267.986178817582
  0
LINE
  8
_0-0_0
  6
CONTINUOUS
 62
    7
 10
1162.623123103006
 20
2718.9910047750745
 11
1162.6274649978909
 21
1267.986178817582
  0
LINE
  8
_0-0_0
  6
CONTINUOUS
 62
    7
 10
1213.123702511276
 20
2718.9910047750745
 11
1213.123702511276
 21
1267.986178817582
  0
LINE
  8
_0-0_0
  6
CONTINUOUS
 62
    7
 10
1214.625998141511
 20
2718.9910047750745
 11
1214.625998141511
 21
1267.986178817582
  0
LINE
  8
_0-0_0
  6
CONTINUOUS
 62
    7
 10
1270.371586570948
 20
2718.9910047750745
 11
1270.371586570948
 21
1267.986178817582
  0
LINE
  8
_0-0_0
  6
CONTINUOUS
 62
    7
 10
1271.8738822011828
 20
2718.9910047750745
 11
1271.8738822011828
 21
1267.986178817582
  0
LINE
  8
_0-0_0
  6
CONTINUOUS
 62
    7
 10
1322.3701197145681
 20
2718.9910047750745
 11
1322.3701197145681
 21
1267.986178817582
  0
LINE
  8
_0-0_0
  6
CONTINUOUS
 62
    7
 10
1323.8724153448029
 20
2718.9910047750745
 11
1323.8724153448029
 21
1267.986178817582
  0
LINE
  8
_0-0_0
  6
CONTINUOUS
 62
    7
 10
1374.372994753073
 20
2718.9910047750745
 11
1374.372994753073
 21
1267.986178817582
  0
LINE
  8
_0-0_0
  6
CONTINUOUS
 62
    7
 10
1375.870948488423
 20
2718.9910047750745
 11
1375.8752903833081
 21
1267.986178817582
  0
LINE
  8
_0-0_0
  6
CONTINUOUS
 62
    7
 10
1431.62522070763
 20
2718.9910047750745
 11
1431.6208788127451
 21
1267.8863152352251
  0
LINE
  8
_0-0_0
  6
CONTINUOUS
 62
    7
 10
1433.1231744429788
 20
2718.9910047750745
 11
1433.1231744429788
 21
1267.8863152352251
  0
LINE
  8
_0-0_0
  6
CONTINUOUS
 62
    7
 10
1483.6237538512489
 20
2718.9910047750745
 11
1483.6237538512489
 21
1267.986178817582
  0
LINE
  8
_0-0_0
  6
CONTINUOUS
 62
    7
 10
1485.1260494814851
 20
2718.9910047750745
 11
1485.1260494814851
 21
1267.986178817582
  0
LINE
  8
_0-0_0
  6
CONTINUOUS
 62
    7
 10
1535.6222869948697
 20
2718.9910047750745
 11
1535.6222869948697
 21
1267.986178817582
  0
LINE
  8
_0-0_0
  6
CONTINUOUS
 62
    7
 10
1537.124582625104
 20
2718.9910047750745
 11
1537.124582625104
 21
1267.986178817582
  0
LINE
  8
_0-0_0
  6
CONTINUOUS
 62
    7
 10
1592.8701710545411
 20
2718.9910047750745
 11
1592.8701710545411
 21
1267.986178817582
  0
LINE
  8
_0-0_0
  6
CONTINUOUS
 62
    7
 10
1594.376808579661
 20
2718.9910047750745
 11
1594.3724666847761
 21
1267.986178817582
  0
LINE
  8
_0-0_0
  6
CONTINUOUS
 62
    7
 10
1644.877387987932
 20
2718.9910047750745
 11
1644.877387987932
 21
1267.986178817582
  0
LINE
  8
_0-0_0
  6
CONTINUOUS
 62
    7
 10
1646.3796836181659
 20
2718.9910047750745
 11
1646.3796836181659
 21
1267.986178817582
  0
LINE
  8
_0-0_0
  6
CONTINUOUS
 62
    7
 10
1696.875921131551
 20
2718.9910047750745
 11
1696.8715792366661
 21
1267.986178817582
  0
LINE
  8
_0-0_0
  6
CONTINUOUS
 62
    7
 10
1698.3738748669009
 20
2718.9910047750745
 11
1698.3738748669009
 21
1267.986178817582
  0
LINE
  8
_0-0_0
  6
CONTINUOUS
 62
    7
 10
1754.123805191223
 20
2718.9910047750745
 11
1754.123805191223
 21
1267.986178817582
  0
LINE
  8
_0-0_0
  6
CONTINUOUS
 62
    7
 10
1755.6261008214578
 20
2718.9910047750745
 11
1755.6261008214578
 21
1267.986178817582
  0
LINE
  8
_0-0_0
  6
CONTINUOUS
 62
    7
 10
1806.1223383348431
 20
2718.9910047750745
 11
1806.1223383348431
 21
1267.986178817582
  0
LINE
  8
_0-0_0
  6
CONTINUOUS
 62
    7
 10
1807.6246339650779
 20
2718.9910047750745
 11
1807.6246339650779
 21
1267.986178817582
  0
LINE
  8
_0-0_0
  6
CONTINUOUS
 62
    7
 10
1858.1165295835781
 20
2718.9910047750745
 11
1858.1165295835781
 21
1267.986178817582
  0
LINE
  8
_0-0_0
  6
CONTINUOUS
 62
    7
 10
1859.6275090035831
 20
2718.9910047750745
 11
1859.618825213812
 21
1267.986178817582
  0
LINE
  8
_0-0_0
  6
CONTINUOUS
 62
    7
 10
1915.377439327905
 20
2718.9910047750745
 11
1915.377439327905
 21
1267.986178817582
  0
LINE
  8
_0-0_0
  6
CONTINUOUS
 62
    7
 10
1916.8710511683703
 20
2718.9910047750745
 11
1916.87973495814
 21
1267.986178817582
  0
LINE
  8
_0-0_0
  6
CONTINUOUS
 62
    7
 10
1967.3759724715239
 20
2718.9910047750745
 11
1967.3759724715239
 21
1267.986178817582
  0
LINE
  8
_0-0_0
  6
CONTINUOUS
 62
    7
 10
1968.873926206875
 20
2718.9910047750745
 11
1968.8782681017592
 21
1267.986178817582
  0
LINE
  8
_0-0_0
  6
CONTINUOUS
 62
    7
 10
2019.37884751003
 20
2718.9910047750745
 11
2019.37884751003
 21
1267.986178817582
  0
LINE
  8
_0-0_0
  6
CONTINUOUS
 62
    7
 10
2020.8724593504951
 20
2718.9910047750745
 11
2020.881143140266
 21
1267.986178817582
  0
LINE
  8
_0-0_0
  6
CONTINUOUS
 62
    7
 10
1227.4997164757492
 20
2713.9934837623559
 11
1267.5015940519161
 21
2713.9934837623559
  0
LINE
  8
_0-0_0
  6
CONTINUOUS
 62
    7
 10
1561.499980509898
 20
2713.9934837623559
 11
1568.494773169748
 21
2713.9934837623559
  0
LINE
  8
_0-0_0
  6
CONTINUOUS
 62
    7
 10
1862.501843417501
 20
2713.9934837623559
 11
1902.503720993667
 21
2713.9934837623559
  0
LINE
  8
_0-0_0
  6
CONTINUOUS
 62
    7
 10
2063.5011833321309
 20
2730.4840005358592
 11
2063.0018654203459
 21
2730.4840005358592
  0
LINE
  8
_0-0_0
  6
CONTINUOUS
 62
    7
 10
2063.5011833321309
 20
1256.488841161912
 11
2063.5011833321309
 21
2730.4840005358592
  0
LINE
  8
_0-0_0
  6
CONTINUOUS
 62
    7
 10
2063.0018654203459
 20
1256.488841161912
 11
2063.5011833321309
 21
1256.488841161912
  0
LINE
  8
_0-0_0
  6
CONTINUOUS
 62
    7
 10
1066.5022541372859
 20
1256.488841161912
 11
1066.992888259299
 21
1256.488841161912
  0
LINE
  8
_0-0_0
  6
CONTINUOUS
 62
    7
 10
1066.4892284526311
 20
1256.480157372142
 11
1066.5022541372859
 21
1256.488841161912
  0
LINE
  8
_0-0_0
  6
CONTINUOUS
 62
    7
 10
1066.5022541372859
 20
2730.4840005358592
 11
1066.5022541372859
 21
1256.488841161912
  0
LINE
  8
_0-0_0
  6
CONTINUOUS
 62
    7
 10
1066.4892284526311
 20
2730.4926843256289
 11
1066.5022541372859
 21
2730.4840005358592
  0
LINE
  8
_0-0_0
  6
CONTINUOUS
 62
    7
 10
1066.5022541372859
 20
2730.4840005358592
 11
1066.992888259299
 21
2730.4840005358592
  0
LINE
  8
_0-0_0
  6
CONTINUOUS
 62
    7
 10
1066.992888259299
 20
2722.8900263818691
 11
2063.0018654203459
 21
2722.8900263818691
  0
LINE
  8
_0-0_0
  6
CONTINUOUS
 62
    7
 10
2364.9999585070518
 20
2731.5121146719548
 11
2364.9999585070518
 21
2933.7487282139718
  0
LINE
  8
_0-0_0
  6
CONTINUOUS
 62
    7
 10
2404.9999585070482
 20
2731.5121146719548
 11
2404.9999585070482
 21
2933.7487282139718
  0
LINE
  8
_0-0_0
  6
CONTINUOUS
 62
    7
 10
2294.9999585070518
 20
2933.3887282139722
 11
2224.9999585070518
 21
2933.3887282139722
  0
LINE
  8
_0-0_0
  6
CONTINUOUS
 62
    7
 10
2474.9999585070482
 20
2933.3887282139722
 11
2679.6590494161392
 21
2933.3887282139722
  0
LINE
  8
_0-0_0
  6
CONTINUOUS
 62
    7
 10
2364.9999585070518
 20
2933.3887282139722
 11
2404.9999585070482
 21
2933.3887282139722
  0
LINE
  8
_0-0_0
  6
CONTINUOUS
 62
    7
 10
1064.999958507052
 20
2733.5137282139722
 11
1064.999958507052
 21
2933.7487282139718
  0
LINE
  8
_0-0_0
  6
CONTINUOUS
 62
    7
 10
2064.9999585070518
 20
2733.5137282139722
 11
2064.9999585070518
 21
2933.7487282139718
  0
LINE
  8
_0-0_0
  6
CONTINUOUS
 62
    7
 10
1134.999958507052
 20
2933.3887282139722
 11
1994.999958507052
 21
2933.3887282139722
  0
LINE
  8
_0-0_0
  6
CONTINUOUS
 62
    7
 10
2065.1249585070518
 20
1253.388728213971
 11
2165.3599585070519
 21
1253.388728213971
  0
LINE
  8
_0-0_0
  6
CONTINUOUS
 62
    7
 10
2065.1249585070518
 20
2733.3887282139731
 11
2165.3599585070519
 21
2733.3887282139731
  0
LINE
  8
_0-0_0
  6
CONTINUOUS
 62
    7
 10
2164.9999585070518
 20
1323.388728213971
 11
2164.9999585070518
 21
2663.3887282139722
  0
LINE
  8
_0-0_0
  6
CONTINUOUS
 62
    7
 10
1064.999958507052
 20
1253.8837042308689
 11
1065.1258734587179
 21
1254.343945088687
  0
LINE
  8
_0-0_0
  6
CONTINUOUS
 62
    7
 10
1065.1258734587179
 20
1254.343945088687
 11
1065.4862507341791
 21
1255.008255006102
  0
LINE
  8
_0-0_0
  6
CONTINUOUS
 62
    7
 10
1065.4862507341791
 20
1255.008255006102
 11
1066.1766120209061
 21
1256.019916514324
  0
LINE
  8
_0-0_0
  6
CONTINUOUS
 62
    7
 10
1066.1766120209061
 20
1256.019916514324
 11
1066.4892284526311
 21
1256.480157372142
  0
LINE
  8
_0-0_0
  6
CONTINUOUS
 62
    7
 10
1066.4892284526311
 20
2730.4926843256289
 11
1066.1766120209061
 21
2730.9442413936772
  0
LINE
  8
_0-0_0
  6
CONTINUOUS
 62
    7
 10
1066.1766120209061
 20
2730.9442413936772
 11
1065.4862507341791
 21
2731.964586691669
  0
LINE
  8
_0-0_0
  6
CONTINUOUS
 62
    7
 10
1065.4862507341791
 20
2731.964586691669
 11
1065.1258734587179
 21
2732.6245547141998
  0
LINE
  8
_0-0_0
  6
CONTINUOUS
 62
    7
 10
1065.1258734587179
 20
2732.6245547141998
 11
1064.999958507052
 21
2733.0891374669022
  0
LINE
  8
_0-0_0
  6
CONTINUOUS
 62
    7
 10
2064.9999585070518
 20
1253.896572102014
 11
2064.8775640106969
 21
1254.343945088687
  0
LINE
  8
_0-0_0
  6
CONTINUOUS
 62
    7
 10
2064.8775640106969
 20
1254.343945088687
 11
2064.5085029454672
 21
1255.008255006102
  0
LINE
  8
_0-0_0
  6
CONTINUOUS
 62
    7
 10
2064.5085029454672
 20
1255.008255006102
 11
2063.8268254485101
 21
1256.019916514324
  0
LINE
  8
_0-0_0
  6
CONTINUOUS
 62
    7
 10
2063.8268254485101
 20
1256.019916514324
 11
2063.5098671218989
 21
1256.480157372142
  0
LINE
  8
_0-0_0
  6
CONTINUOUS
 62
    7
 10
2063.5098671218989
 20
1256.480157372142
 11
2063.5011833321309
 21
1256.488841161912
  0
LINE
  8
_0-0_0
  6
CONTINUOUS
 62
    7
 10
2064.9999585070518
 20
2733.0761482007474
 11
2064.8775640106969
 21
2732.6245547141998
  0
LINE
  8
_0-0_0
  6
CONTINUOUS
 62
    7
 10
2064.8775640106969
 20
2732.6245547141998
 11
2064.5085029454672
 21
2731.964586691669
  0
LINE
  8
_0-0_0
  6
CONTINUOUS
 62
    7
 10
2064.5085029454672
 20
2731.964586691669
 11
2063.8268254485101
 21
2730.9442413936772
  0
LINE
  8
_0-0_0
  6
CONTINUOUS
 62
    7
 10
2063.8268254485101
 20
2730.9442413936772
 11
2063.5098671218989
 21
2730.4926843256289
  0
LINE
  8
_0-0_0
  6
CONTINUOUS
 62
    7
 10
2063.5098671218989
 20
2730.4926843256289
 11
2063.5011833321309
 21
2730.4840005358592
  0
ARC
  8
_0-0_0
  6
CONTINUOUS
 62
    7
 10
1969.8605671433891
 20
2471.0324280053292
 40
99.911970487860941
 50
126.7084275851898
 51
143.29157241481118
  0
LINE
  8
_0-0_0
  6
CONTINUOUS
 62
    7
 10
1889.762366181267
 20
2530.7541162718089
 11
1889.7595043598619
 21
2414.7571408811609
  0
ARC
  8
_0-0_0
  6
CONTINUOUS
 62
    7
 10
1967.692373266467
 20
2472.309603842767
 40
96.880431713329529
 50
216.44541070793463
 51
233.54908984722863
  0
LINE
  8
_0-0_0
  6
CONTINUOUS
 62
    7
 10
1910.1324303067377
 20
2394.3822593773361
 11
1915.383887898076
 21
2394.375197931703
  0
LINE
  8
_0-0_0
  6
CONTINUOUS
 62
    7
 10
1915.383887898076
 20
2394.375197931703
 11
1916.8861835283101
 21
2394.375197931703
  0
LINE
  8
_0-0_0
  6
CONTINUOUS
 62
    7
 10
1916.8861835283101
 20
2394.375197931703
 11
1967.38676293658
 21
2394.375197931703
  0
LINE
  8
_0-0_0
  6
CONTINUOUS
 62
    7
 10
1967.38676293658
 20
2394.375197931703
 11
1968.8803747770439
 21
2394.375197931703
  0
LINE
  8
_0-0_0
  6
CONTINUOUS
 62
    7
 10
1968.8803747770439
 20
2394.375197931703
 11
2019.385296080201
 21
2394.375197931703
  0
LINE
  8
_0-0_0
  6
CONTINUOUS
 62
    7
 10
2019.385296080201
 20
2394.375197931703
 11
2020.8875917104347
 21
2394.375197931703
  0
LINE
  8
_0-0_0
  6
CONTINUOUS
 62
    7
 10
2020.8875917104347
 20
2394.375197931703
 11
2026.132600731602
 21
2394.375197931703
  0
ARC
  8
_0-0_0
  6
CONTINUOUS
 62
    7
 10
1968.94186987338
 20
2471.9424414855648
 40
96.371453079434474
 50
306.40154413120018
 51
323.5984558688009
  0
LINE
  8
_0-0_0
  6
CONTINUOUS
 62
    7
 10
2046.5091134272429
 20
2414.7517106273449
 11
2046.5091134272429
 21
2530.7541162718089
  0
ARC
  8
_0-0_0
  6
CONTINUOUS
 62
    7
 10
1968.299801651033
 20
2472.9183128223408
 40
97.271149932309669
 50
36.482933758848269
 51
53.514801144304748
  0
LINE
  8
_0-0_0
  6
CONTINUOUS
 62
    7
 10
2026.1386969351429
 20
2551.1253380916069
 11
2020.8875917104347
 21
2551.1306289674499
  0
LINE
  8
_0-0_0
  6
CONTINUOUS
 62
    7
 10
2020.8875917104347
 20
2551.1306289674499
 11
2019.385296080201
 21
2551.1306289674499
  0
LINE
  8
_0-0_0
  6
CONTINUOUS
 62
    7
 10
2019.385296080201
 20
2551.1306289674499
 11
1968.8803747770439
 21
2551.1306289674499
  0
LINE
  8
_0-0_0
  6
CONTINUOUS
 62
    7
 10
1968.8803747770439
 20
2551.1306289674499
 11
1967.38676293658
 21
2551.1306289674499
  0
LINE
  8
_0-0_0
  6
CONTINUOUS
 62
    7
 10
1967.38676293658
 20
2551.1306289674499
 11
1916.8861835283101
 21
2551.1306289674499
  0
LINE
  8
_0-0_0
  6
CONTINUOUS
 62
    7
 10
1916.8861835283101
 20
2551.1306289674499
 11
1915.383887898076
 21
2551.1306289674512
  0
LINE
  8
_0-0_0
  6
CONTINUOUS
 62
    7
 10
1915.383887898076
 20
2551.1306289674512
 11
1910.1397330184559
 21
2551.1306289674499
  0
LINE
  8
_0-0_0
  6
CONTINUOUS
 62
    7
 10
1910.1397330184559
 20
2551.1306289674499
 11
1910.1388788769079
 21
2551.1306289674499
  0
ARC
  8
_0-0_0
  6
CONTINUOUS
 62
    7
 10
1808.6052275156403
 20
2471.0461388246022
 40
99.911970487863215
 50
126.70842758518852
 51
143.29157241480999
  0
LINE
  8
_0-0_0
  6
CONTINUOUS
 62
    7
 10
1728.5070265535171
 20
2530.7678270910842
 11
1728.5041647321127
 21
2414.7708517004362
  0
ARC
  8
_0-0_0
  6
CONTINUOUS
 62
    7
 10
1806.4370336387169
 20
2472.323314662041
 40
96.880431713328534
 50
216.44541070793409
 51
233.549089847228
  0
LINE
  8
_0-0_0
  6
CONTINUOUS
 62
    7
 10
1748.8770906789882
 20
2394.395970196611
 11
1754.1285482703261
 21
2394.3889087509792
  0
LINE
  8
_0-0_0
  6
CONTINUOUS
 62
    7
 10
1754.1285482703261
 20
2394.3889087509792
 11
1755.63084390056
 21
2394.3889087509792
  0
LINE
  8
_0-0_0
  6
CONTINUOUS
 62
    7
 10
1755.63084390056
 20
2394.3889087509792
 11
1806.1314233088301
 21
2394.3889087509792
  0
LINE
  8
_0-0_0
  6
CONTINUOUS
 62
    7
 10
1806.1314233088301
 20
2394.3889087509792
 11
1807.6250351492949
 21
2394.3889087509792
  0
LINE
  8
_0-0_0
  6
CONTINUOUS
 62
    7
 10
1807.6250351492949
 20
2394.3889087509792
 11
1858.12995645245
 21
2394.3889087509792
  0
LINE
  8
_0-0_0
  6
CONTINUOUS
 62
    7
 10
1858.12995645245
 20
2394.3889087509792
 11
1859.6322520826852
 21
2394.3889087509792
  0
LINE
  8
_0-0_0
  6
CONTINUOUS
 62
    7
 10
1859.6322520826852
 20
2394.3889087509792
 11
1864.8772611038521
 21
2394.3889087509792
  0
ARC
  8
_0-0_0
  6
CONTINUOUS
 62
    7
 10
1807.6865302456308
 20
2471.9561523048442
 40
96.371453079436776
 50
306.40154413119888
 51
323.59845586879959
  0
LINE
  8
_0-0_0
  6
CONTINUOUS
 62
    7
 10
1885.253773799494
 20
2414.7654214466211
 11
1885.253773799494
 21
2530.7678270910842
  0
ARC
  8
_0-0_0
  6
CONTINUOUS
 62
    7
 10
1807.044462023284
 20
2472.9320236416102
 40
97.271149932314174
 50
36.482933758850969
 51
53.514801144307398
  0
LINE
  8
_0-0_0
  6
CONTINUOUS
 62
    7
 10
1864.8833573073921
 20
2551.139048910883
 11
1859.6322520826852
 21
2551.1443397867261
  0
LINE
  8
_0-0_0
  6
CONTINUOUS
 62
    7
 10
1859.6322520826852
 20
2551.1443397867261
 11
1858.12995645245
 21
2551.1443397867261
  0
LINE
  8
_0-0_0
  6
CONTINUOUS
 62
    7
 10
1858.12995645245
 20
2551.1443397867261
 11
1807.6250351492949
 21
2551.1443397867261
  0
LINE
  8
_0-0_0
  6
CONTINUOUS
 62
    7
 10
1807.6250351492949
 20
2551.1443397867261
 11
1806.1314233088301
 21
2551.1443397867261
  0
LINE
  8
_0-0_0
  6
CONTINUOUS
 62
    7
 10
1806.1314233088301
 20
2551.1443397867261
 11
1755.63084390056
 21
2551.1443397867261
  0
LINE
  8
_0-0_0
  6
CONTINUOUS
 62
    7
 10
1755.63084390056
 20
2551.1443397867261
 11
1754.1285482703261
 21
2551.1443397867261
  0
LINE
  8
_0-0_0
  6
CONTINUOUS
 62
    7
 10
1754.1285482703261
 20
2551.1443397867261
 11
1748.884393390706
 21
2551.1443397867261
  0
LINE
  8
_0-0_0
  6
CONTINUOUS
 62
    7
 10
1748.884393390706
 20
2551.1443397867261
 11
1748.883539249159
 21
2551.1443397867261
  0
ARC
  8
_0-0_0
  6
CONTINUOUS
 62
    7
 10
1647.3576407649107
 20
2471.0324280053269
 40
99.911970487861893
 50
126.70842758518918
 51
143.2915724148107
  0
LINE
  8
_0-0_0
  6
CONTINUOUS
 62
    7
 10
1567.2594398027879
 20
2530.7541162718089
 11
1567.256577981384
 21
2414.7571408811609
  0
ARC
  8
_0-0_0
  6
CONTINUOUS
 62
    7
 10
1645.1894468879891
 20
2472.3096038427652
 40
96.880431713328534
 50
216.44541070793409
 51
233.549089847228
  0
LINE
  8
_0-0_0
  6
CONTINUOUS
 62
    7
 10
1587.62950392826
 20
2394.3822593773361
 11
1592.8809615195969
 21
2394.375197931703
  0
LINE
  8
_0-0_0
  6
CONTINUOUS
 62
    7
 10
1592.8809615195969
 20
2394.375197931703
 11
1594.383257149831
 21
2394.375197931703
  0
LINE
  8
_0-0_0
  6
CONTINUOUS
 62
    7
 10
1594.383257149831
 20
2394.375197931703
 11
1644.8838365581018
 21
2394.375197931703
  0
LINE
  8
_0-0_0
  6
CONTINUOUS
 62
    7
 10
1644.8838365581018
 20
2394.375197931703
 11
1646.377448398566
 21
2394.375197931703
  0
LINE
  8
_0-0_0
  6
CONTINUOUS
 62
    7
 10
1646.377448398566
 20
2394.375197931703
 11
1696.882369701721
 21
2394.375197931703
  0
LINE
  8
_0-0_0
  6
CONTINUOUS
 62
    7
 10
1696.882369701721
 20
2394.375197931703
 11
1698.3846653319561
 21
2394.375197931703
  0
LINE
  8
_0-0_0
  6
CONTINUOUS
 62
    7
 10
1698.3846653319561
 20
2394.375197931703
 11
1703.6296743531229
 21
2394.375197931703
  0
ARC
  8
_0-0_0
  6
CONTINUOUS
 62
    7
 10
1646.4389434949021
 20
2471.9424414855671
 40
96.37145307943581
 50
306.40154413119939
 51
323.59845586880022
  0
LINE
  8
_0-0_0
  6
CONTINUOUS
 62
    7
 10
1724.006187048765
 20
2414.7517106273449
 11
1724.006187048765
 21
2530.7541162718089
  0
ARC
  8
_0-0_0
  6
CONTINUOUS
 62
    7
 10
1645.7968752725551
 20
2472.9183128223372
 40
97.271149932311914
 50
36.482933758849619
 51
53.51480114430607
  0
LINE
  8
_0-0_0
  6
CONTINUOUS
 62
    7
 10
1703.6357705566641
 20
2551.1253380916069
 11
1698.3846653319561
 21
2551.1306289674499
  0
LINE
  8
_0-0_0
  6
CONTINUOUS
 62
    7
 10
1698.3846653319561
 20
2551.1306289674499
 11
1696.882369701721
 21
2551.1306289674499
  0
LINE
  8
_0-0_0
  6
CONTINUOUS
 62
    7
 10
1696.882369701721
 20
2551.1306289674499
 11
1646.377448398566
 21
2551.1306289674499
  0
LINE
  8
_0-0_0
  6
CONTINUOUS
 62
    7
 10
1646.377448398566
 20
2551.1306289674499
 11
1644.8838365581018
 21
2551.1306289674499
  0
LINE
  8
_0-0_0
  6
CONTINUOUS
 62
    7
 10
1644.8838365581018
 20
2551.1306289674499
 11
1594.383257149831
 21
2551.1306289674499
  0
LINE
  8
_0-0_0
  6
CONTINUOUS
 62
    7
 10
1594.383257149831
 20
2551.1306289674499
 11
1592.8809615195969
 21
2551.1306289674512
  0
LINE
  8
_0-0_0
  6
CONTINUOUS
 62
    7
 10
1592.8809615195969
 20
2551.1306289674512
 11
1587.6368066399773
 21
2551.1306289674499
  0
LINE
  8
_0-0_0
  6
CONTINUOUS
 62
    7
 10
1587.6368066399773
 20
2551.1306289674499
 11
1587.63595249843
 21
2551.1306289674499
  0
ARC
  8
_0-0_0
  6
CONTINUOUS
 62
    7
 10
1486.1040066282289
 20
2471.0324280053292
 40
99.911970487860941
 50
126.7084275851898
 51
143.29157241481118
  0
LINE
  8
_0-0_0
  6
CONTINUOUS
 62
    7
 10
1406.005805666106
 20
2530.7541162718089
 11
1406.002943844702
 21
2414.7571408811609
  0
ARC
  8
_0-0_0
  6
CONTINUOUS
 62
    7
 10
1483.9358127513069
 20
2472.309603842767
 40
96.880431713329529
 50
216.44541070793463
 51
233.54908984722863
  0
LINE
  8
_0-0_0
  6
CONTINUOUS
 62
    7
 10
1426.3758697915778
 20
2394.3822593773361
 11
1431.627327382914
 21
2394.375197931703
  0
LINE
  8
_0-0_0
  6
CONTINUOUS
 62
    7
 10
1431.627327382914
 20
2394.375197931703
 11
1433.12962301315
 21
2394.375197931703
  0
LINE
  8
_0-0_0
  6
CONTINUOUS
 62
    7
 10
1433.12962301315
 20
2394.375197931703
 11
1483.6302024214201
 21
2394.375197931703
  0
LINE
  8
_0-0_0
  6
CONTINUOUS
 62
    7
 10
1483.6302024214201
 20
2394.375197931703
 11
1485.123814261884
 21
2394.375197931703
  0
LINE
  8
_0-0_0
  6
CONTINUOUS
 62
    7
 10
1485.123814261884
 20
2394.375197931703
 11
1535.6287355650393
 21
2394.375197931703
  0
LINE
  8
_0-0_0
  6
CONTINUOUS
 62
    7
 10
1535.6287355650393
 20
2394.375197931703
 11
1537.1310311952741
 21
2394.375197931703
  0
LINE
  8
_0-0_0
  6
CONTINUOUS
 62
    7
 10
1537.1310311952741
 20
2394.375197931703
 11
1542.3760402164421
 21
2394.375197931703
  0
ARC
  8
_0-0_0
  6
CONTINUOUS
 62
    7
 10
1485.1853093582199
 20
2471.9424414855648
 40
96.371453079434474
 50
306.40154413120018
 51
323.5984558688009
  0
LINE
  8
_0-0_0
  6
CONTINUOUS
 62
    7
 10
1562.752552912083
 20
2414.7517106273449
 11
1562.752552912083
 21
2530.7541162718089
  0
ARC
  8
_0-0_0
  6
CONTINUOUS
 62
    7
 10
1484.5432411358729
 20
2472.9183128223372
 40
97.271149932311914
 50
36.482933758849619
 51
53.51480114430607
  0
LINE
  8
_0-0_0
  6
CONTINUOUS
 62
    7
 10
1542.3821364199821
 20
2551.1253380916069
 11
1537.1310311952741
 21
2551.1306289674499
  0
LINE
  8
_0-0_0
  6
CONTINUOUS
 62
    7
 10
1537.1310311952741
 20
2551.1306289674499
 11
1535.6287355650393
 21
2551.1306289674499
  0
LINE
  8
_0-0_0
  6
CONTINUOUS
 62
    7
 10
1535.6287355650393
 20
2551.1306289674499
 11
1485.123814261884
 21
2551.1306289674499
  0
LINE
  8
_0-0_0
  6
CONTINUOUS
 62
    7
 10
1485.123814261884
 20
2551.1306289674499
 11
1483.6302024214201
 21
2551.1306289674499
  0
LINE
  8
_0-0_0
  6
CONTINUOUS
 62
    7
 10
1483.6302024214201
 20
2551.1306289674499
 11
1433.12962301315
 21
2551.1306289674499
  0
LINE
  8
_0-0_0
  6
CONTINUOUS
 62
    7
 10
1433.12962301315
 20
2551.1306289674499
 11
1431.627327382914
 21
2551.1306289674512
  0
LINE
  8
_0-0_0
  6
CONTINUOUS
 62
    7
 10
1431.627327382914
 20
2551.1306289674512
 11
1426.383172503296
 21
2551.1306289674499
  0
LINE
  8
_0-0_0
  6
CONTINUOUS
 62
    7
 10
1426.383172503296
 20
2551.1306289674499
 11
1426.382318361748
 21
2551.1306289674499
  0
ARC
  8
_0-0_0
  6
CONTINUOUS
 62
    7
 10
1324.8503724915468
 20
2471.032428005326
 40
99.911970487863215
 50
126.70842758518852
 51
143.29157241480999
  0
LINE
  8
_0-0_0
  6
CONTINUOUS
 62
    7
 10
1244.752171529424
 20
2530.7541162718089
 11
1244.7493097080201
 21
2414.7571408811609
  0
ARC
  8
_0-0_0
  6
CONTINUOUS
 62
    7
 10
1322.6821786146249
 20
2472.3096038427652
 40
96.880431713328534
 50
216.44541070793409
 51
233.549089847228
  0
LINE
  8
_0-0_0
  6
CONTINUOUS
 62
    7
 10
1265.122235654896
 20
2394.3822593773361
 11
1270.373693246233
 21
2394.375197931703
  0
LINE
  8
_0-0_0
  6
CONTINUOUS
 62
    7
 10
1270.373693246233
 20
2394.375197931703
 11
1271.875988876468
 21
2394.375197931703
  0
LINE
  8
_0-0_0
  6
CONTINUOUS
 62
    7
 10
1271.875988876468
 20
2394.375197931703
 11
1322.3765682847379
 21
2394.375197931703
  0
LINE
  8
_0-0_0
  6
CONTINUOUS
 62
    7
 10
1322.3765682847379
 20
2394.375197931703
 11
1323.8701801252028
 21
2394.375197931703
  0
LINE
  8
_0-0_0
  6
CONTINUOUS
 62
    7
 10
1323.8701801252028
 20
2394.375197931703
 11
1374.375101428358
 21
2394.375197931703
  0
LINE
  8
_0-0_0
  6
CONTINUOUS
 62
    7
 10
1374.375101428358
 20
2394.375197931703
 11
1375.8773970585917
 21
2394.375197931703
  0
LINE
  8
_0-0_0
  6
CONTINUOUS
 62
    7
 10
1375.8773970585917
 20
2394.375197931703
 11
1381.122406079759
 21
2394.375197931703
  0
ARC
  8
_0-0_0
  6
CONTINUOUS
 62
    7
 10
1323.9316752215379
 20
2471.942441485568
 40
96.371453079436776
 50
306.40154413119888
 51
323.59845586879959
  0
LINE
  8
_0-0_0
  6
CONTINUOUS
 62
    7
 10
1401.498918775402
 20
2414.7517106273449
 11
1401.498918775402
 21
2530.7541162718089
  0
ARC
  8
_0-0_0
  6
CONTINUOUS
 62
    7
 10
1323.2896069991909
 20
2472.9183128223358
 40
97.271149932312895
 50
36.482933758850187
 51
53.514801144306666
  0
LINE
  8
_0-0_0
  6
CONTINUOUS
 62
    7
 10
1381.1285022832999
 20
2551.1253380916069
 11
1375.8773970585917
 21
2551.1306289674499
  0
LINE
  8
_0-0_0
  6
CONTINUOUS
 62
    7
 10
1375.8773970585917
 20
2551.1306289674499
 11
1374.375101428358
 21
2551.1306289674499
  0
LINE
  8
_0-0_0
  6
CONTINUOUS
 62
    7
 10
1374.375101428358
 20
2551.1306289674499
 11
1323.8701801252028
 21
2551.1306289674499
  0
LINE
  8
_0-0_0
  6
CONTINUOUS
 62
    7
 10
1323.8701801252028
 20
2551.1306289674499
 11
1322.3765682847379
 21
2551.1306289674499
  0
LINE
  8
_0-0_0
  6
CONTINUOUS
 62
    7
 10
1322.3765682847379
 20
2551.1306289674499
 11
1271.875988876468
 21
2551.1306289674499
  0
LINE
  8
_0-0_0
  6
CONTINUOUS
 62
    7
 10
1271.875988876468
 20
2551.1306289674499
 11
1270.373693246233
 21
2551.1306289674512
  0
LINE
  8
_0-0_0
  6
CONTINUOUS
 62
    7
 10
1270.373693246233
 20
2551.1306289674512
 11
1265.129538366614
 21
2551.1306289674499
  0
LINE
  8
_0-0_0
  6
CONTINUOUS
 62
    7
 10
1265.129538366614
 20
2551.1306289674499
 11
1265.1286842250661
 21
2551.1306289674499
  0
ARC
  8
_0-0_0
  6
CONTINUOUS
 62
    7
 10
1324.8503724915468
 20
2311.2810894988788
 40
99.911970487862874
 50
126.7084275851887
 51
143.29157241481019
  0
LINE
  8
_0-0_0
  6
CONTINUOUS
 62
    7
 10
1244.752171529424
 20
2371.0027777653609
 11
1244.7493097080201
 21
2255.0058023747129
  0
ARC
  8
_0-0_0
  6
CONTINUOUS
 62
    7
 10
1322.6821786146249
 20
2312.5582653363181
 40
96.88043171332825
 50
216.4454107079338
 51
233.5490898472278
  0
LINE
  8
_0-0_0
  6
CONTINUOUS
 62
    7
 10
1265.122235654896
 20
2234.6309208708881
 11
1270.373693246233
 21
2234.6238594252559
  0
LINE
  8
_0-0_0
  6
CONTINUOUS
 62
    7
 10
1270.373693246233
 20
2234.6238594252559
 11
1271.875988876468
 21
2234.6238594252559
  0
LINE
  8
_0-0_0
  6
CONTINUOUS
 62
    7
 10
1271.875988876468
 20
2234.6238594252559
 11
1322.3765682847379
 21
2234.6238594252559
  0
LINE
  8
_0-0_0
  6
CONTINUOUS
 62
    7
 10
1322.3765682847379
 20
2234.6238594252559
 11
1323.8701801252028
 21
2234.6238594252559
  0
LINE
  8
_0-0_0
  6
CONTINUOUS
 62
    7
 10
1323.8701801252028
 20
2234.6238594252559
 11
1374.375101428358
 21
2234.6238594252559
  0
LINE
  8
_0-0_0
  6
CONTINUOUS
 62
    7
 10
1374.375101428358
 20
2234.6238594252559
 11
1375.8773970585917
 21
2234.6238594252559
  0
LINE
  8
_0-0_0
  6
CONTINUOUS
 62
    7
 10
1375.8773970585917
 20
2234.6238594252559
 11
1381.122406079759
 21
2234.6238594252559
  0
ARC
  8
_0-0_0
  6
CONTINUOUS
 62
    7
 10
1323.9316752215379
 20
2312.1911029791199
 40
96.371453079436407
 50
306.40154413119905
 51
323.59845586879987
  0
LINE
  8
_0-0_0
  6
CONTINUOUS
 62
    7
 10
1401.498918775402
 20
2255.0003721208982
 11
1401.498918775402
 21
2371.0027777653609
  0
ARC
  8
_0-0_0
  6
CONTINUOUS
 62
    7
 10
1323.2896069991909
 20
2313.1669743158891
 40
97.271149932313165
 50
36.482933758850393
 51
53.514801144306823
  0
LINE
  8
_0-0_0
  6
CONTINUOUS
 62
    7
 10
1381.1285022832999
 20
2391.3739995851588
 11
1375.8773970585917
 21
2391.3792904610041
  0
LINE
  8
_0-0_0
  6
CONTINUOUS
 62
    7
 10
1375.8773970585917
 20
2391.3792904610041
 11
1374.375101428358
 21
2391.3792904610041
  0
LINE
  8
_0-0_0
  6
CONTINUOUS
 62
    7
 10
1374.375101428358
 20
2391.3792904610041
 11
1323.8701801252028
 21
2391.3792904610041
  0
LINE
  8
_0-0_0
  6
CONTINUOUS
 62
    7
 10
1323.8701801252028
 20
2391.3792904610041
 11
1322.3765682847379
 21
2391.3792904610041
  0
LINE
  8
_0-0_0
  6
CONTINUOUS
 62
    7
 10
1322.3765682847379
 20
2391.3792904610041
 11
1271.875988876468
 21
2391.3792904610041
  0
LINE
  8
_0-0_0
  6
CONTINUOUS
 62
    7
 10
1271.875988876468
 20
2391.3792904610041
 11
1270.373693246233
 21
2391.3792904610041
  0
LINE
  8
_0-0_0
  6
CONTINUOUS
 62
    7
 10
1270.373693246233
 20
2391.3792904610041
 11
1265.129538366614
 21
2391.3792904610041
  0
LINE
  8
_0-0_0
  6
CONTINUOUS
 62
    7
 10
1265.129538366614
 20
2391.3792904610041
 11
1265.1286842250661
 21
2391.3792904610041
  0
ARC
  8
_0-0_0
  6
CONTINUOUS
 62
    7
 10
1486.1040066282289
 20
2311.281089498882
 40
99.911970487860572
 50
126.70842758518999
 51
143.2915724148115
  0
LINE
  8
_0-0_0
  6
CONTINUOUS
 62
    7
 10
1406.005805666106
 20
2371.0027777653609
 11
1406.002943844702
 21
2255.0058023747129
  0
ARC
  8
_0-0_0
  6
CONTINUOUS
 62
    7
 10
1483.9358127513069
 20
2312.558265336319
 40
96.880431713329244
 50
216.44541070793443
 51
233.5490898472284
  0
LINE
  8
_0-0_0
  6
CONTINUOUS
 62
    7
 10
1426.3758697915778
 20
2234.6309208708881
 11
1431.627327382914
 21
2234.6238594252559
  0
LINE
  8
_0-0_0
  6
CONTINUOUS
 62
    7
 10
1431.627327382914
 20
2234.6238594252559
 11
1433.12962301315
 21
2234.6238594252559
  0
LINE
  8
_0-0_0
  6
CONTINUOUS
 62
    7
 10
1433.12962301315
 20
2234.6238594252559
 11
1483.6302024214201
 21
2234.6238594252559
  0
LINE
  8
_0-0_0
  6
CONTINUOUS
 62
    7
 10
1483.6302024214201
 20
2234.6238594252559
 11
1485.123814261884
 21
2234.6238594252559
  0
LINE
  8
_0-0_0
  6
CONTINUOUS
 62
    7
 10
1485.123814261884
 20
2234.6238594252559
 11
1535.6287355650393
 21
2234.6238594252559
  0
LINE
  8
_0-0_0
  6
CONTINUOUS
 62
    7
 10
1535.6287355650393
 20
2234.6238594252559
 11
1537.1310311952741
 21
2234.6238594252559
  0
LINE
  8
_0-0_0
  6
CONTINUOUS
 62
    7
 10
1537.1310311952741
 20
2234.6238594252559
 11
1542.3760402164421
 21
2234.6238594252559
  0
ARC
  8
_0-0_0
  6
CONTINUOUS
 62
    7
 10
1485.1853093582199
 20
2312.1911029791172
 40
96.371453079434133
 50
306.40154413120041
 51
323.59845586880118
  0
LINE
  8
_0-0_0
  6
CONTINUOUS
 62
    7
 10
1562.752552912083
 20
2255.0003721208982
 11
1562.752552912083
 21
2371.0027777653609
  0
ARC
  8
_0-0_0
  6
CONTINUOUS
 62
    7
 10
1484.5432411358729
 20
2313.16697431589
 40
97.271149932312184
 50
36.482933758849832
 51
53.514801144306247
  0
LINE
  8
_0-0_0
  6
CONTINUOUS
 62
    7
 10
1542.3821364199821
 20
2391.3739995851588
 11
1537.1310311952741
 21
2391.3792904610041
  0
LINE
  8
_0-0_0
  6
CONTINUOUS
 62
    7
 10
1537.1310311952741
 20
2391.3792904610041
 11
1535.6287355650393
 21
2391.3792904610041
  0
LINE
  8
_0-0_0
  6
CONTINUOUS
 62
    7
 10
1535.6287355650393
 20
2391.3792904610041
 11
1485.123814261884
 21
2391.3792904610041
  0
LINE
  8
_0-0_0
  6
CONTINUOUS
 62
    7
 10
1485.123814261884
 20
2391.3792904610041
 11
1483.6302024214201
 21
2391.3792904610041
  0
LINE
  8
_0-0_0
  6
CONTINUOUS
 62
    7
 10
1483.6302024214201
 20
2391.3792904610041
 11
1433.12962301315
 21
2391.3792904610041
  0
LINE
  8
_0-0_0
  6
CONTINUOUS
 62
    7
 10
1433.12962301315
 20
2391.3792904610041
 11
1431.627327382914
 21
2391.3792904610041
  0
LINE
  8
_0-0_0
  6
CONTINUOUS
 62
    7
 10
1431.627327382914
 20
2391.3792904610041
 11
1426.383172503296
 21
2391.3792904610041
  0
LINE
  8
_0-0_0
  6
CONTINUOUS
 62
    7
 10
1426.383172503296
 20
2391.3792904610041
 11
1426.382318361748
 21
2391.3792904610041
  0
ARC
  8
_0-0_0
  6
CONTINUOUS
 62
    7
 10
1647.3576407649107
 20
2311.2810894988811
 40
99.911970487861552
 50
126.70842758518938
 51
143.2915724148109
  0
LINE
  8
_0-0_0
  6
CONTINUOUS
 62
    7
 10
1567.2594398027879
 20
2371.0027777653609
 11
1567.256577981384
 21
2255.0058023747129
  0
ARC
  8
_0-0_0
  6
CONTINUOUS
 62
    7
 10
1645.1894468879891
 20
2312.5582653363181
 40
96.88043171332825
 50
216.4454107079338
 51
233.5490898472278
  0
LINE
  8
_0-0_0
  6
CONTINUOUS
 62
    7
 10
1587.62950392826
 20
2234.6309208708881
 11
1592.8809615195969
 21
2234.6238594252559
  0
LINE
  8
_0-0_0
  6
CONTINUOUS
 62
    7
 10
1592.8809615195969
 20
2234.6238594252559
 11
1594.383257149831
 21
2234.6238594252559
  0
LINE
  8
_0-0_0
  6
CONTINUOUS
 62
    7
 10
1594.383257149831
 20
2234.6238594252559
 11
1644.8838365581018
 21
2234.6238594252559
  0
LINE
  8
_0-0_0
  6
CONTINUOUS
 62
    7
 10
1644.8838365581018
 20
2234.6238594252559
 11
1646.377448398566
 21
2234.6238594252559
  0
LINE
  8
_0-0_0
  6
CONTINUOUS
 62
    7
 10
1646.377448398566
 20
2234.6238594252559
 11
1696.882369701721
 21
2234.6238594252559
  0
LINE
  8
_0-0_0
  6
CONTINUOUS
 62
    7
 10
1696.882369701721
 20
2234.6238594252559
 11
1698.3846653319561
 21
2234.6238594252559
  0
LINE
  8
_0-0_0
  6
CONTINUOUS
 62
    7
 10
1698.3846653319561
 20
2234.6238594252559
 11
1703.6296743531229
 21
2234.6238594252559
  0
ARC
  8
_0-0_0
  6
CONTINUOUS
 62
    7
 10
1646.4389434949021
 20
2312.191102979119
 40
96.37145307943544
 50
306.40154413119956
 51
323.59845586880033
  0
LINE
  8
_0-0_0
  6
CONTINUOUS
 62
    7
 10
1724.006187048765
 20
2255.0003721208982
 11
1724.006187048765
 21
2371.0027777653609
  0
ARC
  8
_0-0_0
  6
CONTINUOUS
 62
    7
 10
1645.7968752725551
 20
2313.16697431589
 40
97.271149932312184
 50
36.482933758849832
 51
53.514801144306247
  0
LINE
  8
_0-0_0
  6
CONTINUOUS
 62
    7
 10
1703.6357705566641
 20
2391.3739995851588
 11
1698.3846653319561
 21
2391.3792904610041
  0
LINE
  8
_0-0_0
  6
CONTINUOUS
 62
    7
 10
1698.3846653319561
 20
2391.3792904610041
 11
1696.882369701721
 21
2391.3792904610041
  0
LINE
  8
_0-0_0
  6
CONTINUOUS
 62
    7
 10
1696.882369701721
 20
2391.3792904610041
 11
1646.377448398566
 21
2391.3792904610041
  0
LINE
  8
_0-0_0
  6
CONTINUOUS
 62
    7
 10
1646.377448398566
 20
2391.3792904610041
 11
1644.8838365581018
 21
2391.3792904610041
  0
LINE
  8
_0-0_0
  6
CONTINUOUS
 62
    7
 10
1644.8838365581018
 20
2391.3792904610041
 11
1594.383257149831
 21
2391.3792904610041
  0
LINE
  8
_0-0_0
  6
CONTINUOUS
 62
    7
 10
1594.383257149831
 20
2391.3792904610041
 11
1592.8809615195969
 21
2391.3792904610041
  0
LINE
  8
_0-0_0
  6
CONTINUOUS
 62
    7
 10
1592.8809615195969
 20
2391.3792904610041
 11
1587.6368066399773
 21
2391.3792904610041
  0
LINE
  8
_0-0_0
  6
CONTINUOUS
 62
    7
 10
1587.6368066399773
 20
2391.3792904610041
 11
1587.63595249843
 21
2391.3792904610041
  0
ARC
  8
_0-0_0
  6
CONTINUOUS
 62
    7
 10
1808.6052275156403
 20
2311.294800318155
 40
99.911970487863215
 50
126.70842758518852
 51
143.29157241480999
  0
LINE
  8
_0-0_0
  6
CONTINUOUS
 62
    7
 10
1728.5070265535171
 20
2371.016488584637
 11
1728.5041647321127
 21
2255.01951319399
  0
ARC
  8
_0-0_0
  6
CONTINUOUS
 62
    7
 10
1806.4370336387169
 20
2312.5719761555938
 40
96.880431713328534
 50
216.44541070793409
 51
233.549089847228
  0
LINE
  8
_0-0_0
  6
CONTINUOUS
 62
    7
 10
1748.8770906789882
 20
2234.6446316901652
 11
1754.1285482703261
 21
2234.6375702445321
  0
LINE
  8
_0-0_0
  6
CONTINUOUS
 62
    7
 10
1754.1285482703261
 20
2234.6375702445321
 11
1755.63084390056
 21
2234.6375702445321
  0
LINE
  8
_0-0_0
  6
CONTINUOUS
 62
    7
 10
1755.63084390056
 20
2234.6375702445321
 11
1806.1314233088301
 21
2234.6375702445321
  0
LINE
  8
_0-0_0
  6
CONTINUOUS
 62
    7
 10
1806.1314233088301
 20
2234.6375702445321
 11
1807.6250351492949
 21
2234.6375702445321
  0
LINE
  8
_0-0_0
  6
CONTINUOUS
 62
    7
 10
1807.6250351492949
 20
2234.6375702445321
 11
1858.12995645245
 21
2234.6375702445321
  0
LINE
  8
_0-0_0
  6
CONTINUOUS
 62
    7
 10
1858.12995645245
 20
2234.6375702445321
 11
1859.6322520826852
 21
2234.6375702445321
  0
LINE
  8
_0-0_0
  6
CONTINUOUS
 62
    7
 10
1859.6322520826852
 20
2234.6375702445321
 11
1864.8772611038521
 21
2234.6375702445321
  0
ARC
  8
_0-0_0
  6
CONTINUOUS
 62
    7
 10
1807.6865302456308
 20
2312.204813798397
 40
96.371453079436776
 50
306.40154413119888
 51
323.59845586879959
  0
LINE
  8
_0-0_0
  6
CONTINUOUS
 62
    7
 10
1885.253773799494
 20
2255.0140829401739
 11
1885.253773799494
 21
2371.016488584637
  0
ARC
  8
_0-0_0
  6
CONTINUOUS
 62
    7
 10
1807.044462023284
 20
2313.180685135163
 40
97.271149932314174
 50
36.482933758850969
 51
53.514801144307398
  0
LINE
  8
_0-0_0
  6
CONTINUOUS
 62
    7
 10
1864.8833573073921
 20
2391.3877104044359
 11
1859.6322520826852
 21
2391.3930012802789
  0
LINE
  8
_0-0_0
  6
CONTINUOUS
 62
    7
 10
1859.6322520826852
 20
2391.3930012802789
 11
1858.12995645245
 21
2391.3930012802789
  0
LINE
  8
_0-0_0
  6
CONTINUOUS
 62
    7
 10
1858.12995645245
 20
2391.3930012802789
 11
1807.6250351492949
 21
2391.3930012802789
  0
LINE
  8
_0-0_0
  6
CONTINUOUS
 62
    7
 10
1807.6250351492949
 20
2391.3930012802789
 11
1806.1314233088301
 21
2391.3930012802789
  0
LINE
  8
_0-0_0
  6
CONTINUOUS
 62
    7
 10
1806.1314233088301
 20
2391.3930012802789
 11
1755.63084390056
 21
2391.3930012802789
  0
LINE
  8
_0-0_0
  6
CONTINUOUS
 62
    7
 10
1755.63084390056
 20
2391.3930012802789
 11
1754.1285482703261
 21
2391.3930012802798
  0
LINE
  8
_0-0_0
  6
CONTINUOUS
 62
    7
 10
1754.1285482703261
 20
2391.3930012802798
 11
1748.884393390706
 21
2391.3930012802789
  0
LINE
  8
_0-0_0
  6
CONTINUOUS
 62
    7
 10
1748.884393390706
 20
2391.3930012802789
 11
1748.883539249159
 21
2391.3930012802789
  0
ARC
  8
_0-0_0
  6
CONTINUOUS
 62
    7
 10
1969.8605671433891
 20
2311.281089498882
 40
99.911970487860572
 50
126.70842758518999
 51
143.2915724148115
  0
LINE
  8
_0-0_0
  6
CONTINUOUS
 62
    7
 10
1889.762366181267
 20
2371.0027777653609
 11
1889.7595043598619
 21
2255.0058023747129
  0
ARC
  8
_0-0_0
  6
CONTINUOUS
 62
    7
 10
1967.692373266467
 20
2312.558265336319
 40
96.880431713329244
 50
216.44541070793443
 51
233.5490898472284
  0
LINE
  8
_0-0_0
  6
CONTINUOUS
 62
    7
 10
1910.1324303067377
 20
2234.6309208708881
 11
1915.383887898076
 21
2234.6238594252559
  0
LINE
  8
_0-0_0
  6
CONTINUOUS
 62
    7
 10
1915.383887898076
 20
2234.6238594252559
 11
1916.8861835283101
 21
2234.6238594252559
  0
LINE
  8
_0-0_0
  6
CONTINUOUS
 62
    7
 10
1916.8861835283101
 20
2234.6238594252559
 11
1967.38676293658
 21
2234.6238594252559
  0
LINE
  8
_0-0_0
  6
CONTINUOUS
 62
    7
 10
1967.38676293658
 20
2234.6238594252559
 11
1968.8803747770439
 21
2234.6238594252559
  0
LINE
  8
_0-0_0
  6
CONTINUOUS
 62
    7
 10
1968.8803747770439
 20
2234.6238594252559
 11
2019.385296080201
 21
2234.6238594252559
  0
LINE
  8
_0-0_0
  6
CONTINUOUS
 62
    7
 10
2019.385296080201
 20
2234.6238594252559
 11
2020.8875917104347
 21
2234.6238594252559
  0
LINE
  8
_0-0_0
  6
CONTINUOUS
 62
    7
 10
2020.8875917104347
 20
2234.6238594252559
 11
2026.132600731602
 21
2234.6238594252559
  0
ARC
  8
_0-0_0
  6
CONTINUOUS
 62
    7
 10
1968.94186987338
 20
2312.1911029791172
 40
96.371453079434133
 50
306.40154413120041
 51
323.59845586880118
  0
LINE
  8
_0-0_0
  6
CONTINUOUS
 62
    7
 10
2046.5091134272429
 20
2255.0003721208982
 11
2046.5091134272429
 21
2371.0027777653609
  0
ARC
  8
_0-0_0
  6
CONTINUOUS
 62
    7
 10
1968.299801651033
 20
2313.1669743158932
 40
97.271149932309925
 50
36.482933758848482
 51
53.514801144304911
  0
LINE
  8
_0-0_0
  6
CONTINUOUS
 62
    7
 10
2026.1386969351429
 20
2391.3739995851588
 11
2020.8875917104347
 21
2391.3792904610041
  0
LINE
  8
_0-0_0
  6
CONTINUOUS
 62
    7
 10
2020.8875917104347
 20
2391.3792904610041
 11
2019.385296080201
 21
2391.3792904610041
  0
LINE
  8
_0-0_0
  6
CONTINUOUS
 62
    7
 10
2019.385296080201
 20
2391.3792904610041
 11
1968.8803747770439
 21
2391.3792904610041
  0
LINE
  8
_0-0_0
  6
CONTINUOUS
 62
    7
 10
1968.8803747770439
 20
2391.3792904610041
 11
1967.38676293658
 21
2391.3792904610041
  0
LINE
  8
_0-0_0
  6
CONTINUOUS
 62
    7
 10
1967.38676293658
 20
2391.3792904610041
 11
1916.8861835283101
 21
2391.3792904610041
  0
LINE
  8
_0-0_0
  6
CONTINUOUS
 62
    7
 10
1916.8861835283101
 20
2391.3792904610041
 11
1915.383887898076
 21
2391.3792904610041
  0
LINE
  8
_0-0_0
  6
CONTINUOUS
 62
    7
 10
1915.383887898076
 20
2391.3792904610041
 11
1910.1397330184559
 21
2391.3792904610041
  0
LINE
  8
_0-0_0
  6
CONTINUOUS
 62
    7
 10
1910.1397330184559
 20
2391.3792904610041
 11
1910.1388788769079
 21
2391.3792904610041
  0
ARC
  8
_0-0_0
  6
CONTINUOUS
 62
    7
 10
1969.8605671433891
 20
2151.5427766770899
 40
99.911970487860572
 50
126.70842758518999
 51
143.2915724148115
  0
LINE
  8
_0-0_0
  6
CONTINUOUS
 62
    7
 10
1889.762366181267
 20
2211.2644649435701
 11
1889.7595043598619
 21
2095.2674895529221
  0
ARC
  8
_0-0_0
  6
CONTINUOUS
 62
    7
 10
1967.692373266467
 20
2152.8199525145269
 40
96.880431713329244
 50
216.44541070793443
 51
233.5490898472284
  0
LINE
  8
_0-0_0
  6
CONTINUOUS
 62
    7
 10
1910.1324303067377
 20
2074.8926080490969
 11
1915.383887898076
 21
2074.8855466034652
  0
LINE
  8
_0-0_0
  6
CONTINUOUS
 62
    7
 10
1915.383887898076
 20
2074.8855466034652
 11
1916.8861835283101
 21
2074.8855466034652
  0
LINE
  8
_0-0_0
  6
CONTINUOUS
 62
    7
 10
1916.8861835283101
 20
2074.8855466034652
 11
1967.38676293658
 21
2074.8855466034652
  0
LINE
  8
_0-0_0
  6
CONTINUOUS
 62
    7
 10
1967.38676293658
 20
2074.8855466034652
 11
1968.8803747770439
 21
2074.8855466034652
  0
LINE
  8
_0-0_0
  6
CONTINUOUS
 62
    7
 10
1968.8803747770439
 20
2074.8855466034652
 11
2019.385296080201
 21
2074.8855466034652
  0
LINE
  8
_0-0_0
  6
CONTINUOUS
 62
    7
 10
2019.385296080201
 20
2074.8855466034652
 11
2020.8875917104347
 21
2074.8855466034652
  0
LINE
  8
_0-0_0
  6
CONTINUOUS
 62
    7
 10
2020.8875917104347
 20
2074.8855466034652
 11
2026.132600731602
 21
2074.8855466034652
  0
ARC
  8
_0-0_0
  6
CONTINUOUS
 62
    7
 10
1968.94186987338
 20
2152.452790157326
 40
96.371453079434133
 50
306.40154413120041
 51
323.59845586880118
  0
LINE
  8
_0-0_0
  6
CONTINUOUS
 62
    7
 10
2046.5091134272429
 20
2095.2620592991061
 11
2046.5091134272429
 21
2211.2644649435701
  0
ARC
  8
_0-0_0
  6
CONTINUOUS
 62
    7
 10
1968.299801651033
 20
2153.428661494102
 40
97.271149932309925
 50
36.482933758848482
 51
53.514801144304911
  0
LINE
  8
_0-0_0
  6
CONTINUOUS
 62
    7
 10
2026.1386969351429
 20
2231.6356867633681
 11
2020.8875917104347
 21
2231.640977639212
  0
LINE
  8
_0-0_0
  6
CONTINUOUS
 62
    7
 10
2020.8875917104347
 20
2231.640977639212
 11
2019.385296080201
 21
2231.640977639212
  0
LINE
  8
_0-0_0
  6
CONTINUOUS
 62
    7
 10
2019.385296080201
 20
2231.640977639212
 11
1968.8803747770439
 21
2231.640977639212
  0
LINE
  8
_0-0_0
  6
CONTINUOUS
 62
    7
 10
1968.8803747770439
 20
2231.640977639212
 11
1967.38676293658
 21
2231.640977639212
  0
LINE
  8
_0-0_0
  6
CONTINUOUS
 62
    7
 10
1967.38676293658
 20
2231.640977639212
 11
1916.8861835283101
 21
2231.640977639212
  0
LINE
  8
_0-0_0
  6
CONTINUOUS
 62
    7
 10
1916.8861835283101
 20
2231.640977639212
 11
1915.383887898076
 21
2231.640977639212
  0
LINE
  8
_0-0_0
  6
CONTINUOUS
 62
    7
 10
1915.383887898076
 20
2231.640977639212
 11
1910.1397330184559
 21
2231.640977639212
  0
LINE
  8
_0-0_0
  6
CONTINUOUS
 62
    7
 10
1910.1397330184559
 20
2231.640977639212
 11
1910.1388788769079
 21
2231.640977639212
  0
ARC
  8
_0-0_0
  6
CONTINUOUS
 62
    7
 10
1808.6029496077949
 20
2151.5372064418252
 40
99.911970487863215
 50
126.70842758518852
 51
143.29157241480999
  0
LINE
  8
_0-0_0
  6
CONTINUOUS
 62
    7
 10
1728.504748645671
 20
2211.2588947083068
 11
1728.5018868242671
 21
2095.2619193176588
  0
ARC
  8
_0-0_0
  6
CONTINUOUS
 62
    7
 10
1806.434755730872
 20
2152.814382279264
 40
96.880431713328534
 50
216.44541070793409
 51
233.549089847228
  0
LINE
  8
_0-0_0
  6
CONTINUOUS
 62
    7
 10
1748.8748127711433
 20
2074.887037813834
 11
1754.1262703624809
 21
2074.8799763682018
  0
LINE
  8
_0-0_0
  6
CONTINUOUS
 62
    7
 10
1754.1262703624809
 20
2074.8799763682018
 11
1755.628565992715
 21
2074.8799763682018
  0
LINE
  8
_0-0_0
  6
CONTINUOUS
 62
    7
 10
1755.628565992715
 20
2074.8799763682018
 11
1806.129145400985
 21
2074.8799763682018
  0
LINE
  8
_0-0_0
  6
CONTINUOUS
 62
    7
 10
1806.129145400985
 20
2074.8799763682018
 11
1807.62275724145
 21
2074.8799763682018
  0
LINE
  8
_0-0_0
  6
CONTINUOUS
 62
    7
 10
1807.62275724145
 20
2074.8799763682018
 11
1858.127678544605
 21
2074.8799763682018
  0
LINE
  8
_0-0_0
  6
CONTINUOUS
 62
    7
 10
1858.127678544605
 20
2074.8799763682018
 11
1859.6299741748403
 21
2074.8799763682018
  0
LINE
  8
_0-0_0
  6
CONTINUOUS
 62
    7
 10
1859.6299741748403
 20
2074.8799763682018
 11
1864.874983196006
 21
2074.8799763682018
  0
ARC
  8
_0-0_0
  6
CONTINUOUS
 62
    7
 10
1807.684252337785
 20
2152.4472199220672
 40
96.371453079436776
 50
306.40154413119888
 51
323.59845586879959
  0
LINE
  8
_0-0_0
  6
CONTINUOUS
 62
    7
 10
1885.251495891649
 20
2095.2564890638441
 11
1885.251495891649
 21
2211.2588947083068
  0
ARC
  8
_0-0_0
  6
CONTINUOUS
 62
    7
 10
1807.0421841154389
 20
2153.4230912588359
 40
97.271149932311914
 50
36.482933758849619
 51
53.51480114430607
  0
LINE
  8
_0-0_0
  6
CONTINUOUS
 62
    7
 10
1864.8810793995481
 20
2231.6301165281061
 11
1859.6299741748403
 21
2231.6354074039491
  0
LINE
  8
_0-0_0
  6
CONTINUOUS
 62
    7
 10
1859.6299741748403
 20
2231.6354074039491
 11
1858.127678544605
 21
2231.6354074039491
  0
LINE
  8
_0-0_0
  6
CONTINUOUS
 62
    7
 10
1858.127678544605
 20
2231.6354074039491
 11
1807.62275724145
 21
2231.6354074039491
  0
LINE
  8
_0-0_0
  6
CONTINUOUS
 62
    7
 10
1807.62275724145
 20
2231.6354074039491
 11
1806.129145400985
 21
2231.6354074039491
  0
LINE
  8
_0-0_0
  6
CONTINUOUS
 62
    7
 10
1806.129145400985
 20
2231.6354074039491
 11
1755.628565992715
 21
2231.6354074039491
  0
LINE
  8
_0-0_0
  6
CONTINUOUS
 62
    7
 10
1755.628565992715
 20
2231.6354074039491
 11
1754.1262703624809
 21
2231.63540740395
  0
LINE
  8
_0-0_0
  6
CONTINUOUS
 62
    7
 10
1754.1262703624809
 20
2231.63540740395
 11
1748.8821154828611
 21
2231.6354074039491
  0
LINE
  8
_0-0_0
  6
CONTINUOUS
 62
    7
 10
1748.8821154828611
 20
2231.6354074039491
 11
1748.881261341314
 21
2231.6354074039491
  0
ARC
  8
_0-0_0
  6
CONTINUOUS
 62
    7
 10
1647.3576407649107
 20
2151.542776677089
 40
99.911970487861552
 50
126.70842758518938
 51
143.2915724148109
  0
LINE
  8
_0-0_0
  6
CONTINUOUS
 62
    7
 10
1567.2594398027879
 20
2211.2644649435701
 11
1567.256577981384
 21
2095.2674895529221
  0
ARC
  8
_0-0_0
  6
CONTINUOUS
 62
    7
 10
1645.1894468879891
 20
2152.819952514526
 40
96.88043171332825
 50
216.4454107079338
 51
233.5490898472278
  0
LINE
  8
_0-0_0
  6
CONTINUOUS
 62
    7
 10
1587.62950392826
 20
2074.8926080490969
 11
1592.8809615195969
 21
2074.8855466034652
  0
LINE
  8
_0-0_0
  6
CONTINUOUS
 62
    7
 10
1592.8809615195969
 20
2074.8855466034652
 11
1594.383257149831
 21
2074.8855466034652
  0
LINE
  8
_0-0_0
  6
CONTINUOUS
 62
    7
 10
1594.383257149831
 20
2074.8855466034652
 11
1644.8838365581018
 21
2074.8855466034652
  0
LINE
  8
_0-0_0
  6
CONTINUOUS
 62
    7
 10
1644.8838365581018
 20
2074.8855466034652
 11
1646.377448398566
 21
2074.8855466034652
  0
LINE
  8
_0-0_0
  6
CONTINUOUS
 62
    7
 10
1646.377448398566
 20
2074.8855466034652
 11
1696.882369701721
 21
2074.8855466034652
  0
LINE
  8
_0-0_0
  6
CONTINUOUS
 62
    7
 10
1696.882369701721
 20
2074.8855466034652
 11
1698.3846653319561
 21
2074.8855466034652
  0
LINE
  8
_0-0_0
  6
CONTINUOUS
 62
    7
 10
1698.3846653319561
 20
2074.8855466034652
 11
1703.6296743531229
 21
2074.8855466034652
  0
ARC
  8
_0-0_0
  6
CONTINUOUS
 62
    7
 10
1646.4389434949021
 20
2152.4527901573279
 40
96.37145307943544
 50
306.40154413119956
 51
323.59845586880033
  0
LINE
  8
_0-0_0
  6
CONTINUOUS
 62
    7
 10
1724.006187048765
 20
2095.2620592991061
 11
1724.006187048765
 21
2211.2644649435701
  0
ARC
  8
_0-0_0
  6
CONTINUOUS
 62
    7
 10
1645.7968752725551
 20
2153.4286614940988
 40
97.271149932312184
 50
36.482933758849832
 51
53.514801144306247
  0
LINE
  8
_0-0_0
  6
CONTINUOUS
 62
    7
 10
1703.6357705566641
 20
2231.6356867633681
 11
1698.3846653319561
 21
2231.640977639212
  0
LINE
  8
_0-0_0
  6
CONTINUOUS
 62
    7
 10
1698.3846653319561
 20
2231.640977639212
 11
1696.882369701721
 21
2231.640977639212
  0
LINE
  8
_0-0_0
  6
CONTINUOUS
 62
    7
 10
1696.882369701721
 20
2231.640977639212
 11
1646.377448398566
 21
2231.640977639212
  0
LINE
  8
_0-0_0
  6
CONTINUOUS
 62
    7
 10
1646.377448398566
 20
2231.640977639212
 11
1644.8838365581018
 21
2231.640977639212
  0
LINE
  8
_0-0_0
  6
CONTINUOUS
 62
    7
 10
1644.8838365581018
 20
2231.640977639212
 11
1594.383257149831
 21
2231.640977639212
  0
LINE
  8
_0-0_0
  6
CONTINUOUS
 62
    7
 10
1594.383257149831
 20
2231.640977639212
 11
1592.8809615195969
 21
2231.640977639212
  0
LINE
  8
_0-0_0
  6
CONTINUOUS
 62
    7
 10
1592.8809615195969
 20
2231.640977639212
 11
1587.6368066399773
 21
2231.640977639212
  0
LINE
  8
_0-0_0
  6
CONTINUOUS
 62
    7
 10
1587.6368066399773
 20
2231.640977639212
 11
1587.63595249843
 21
2231.640977639212
  0
ARC
  8
_0-0_0
  6
CONTINUOUS
 62
    7
 10
1486.1040066282289
 20
2151.5427766770899
 40
99.911970487860572
 50
126.70842758518999
 51
143.2915724148115
  0
LINE
  8
_0-0_0
  6
CONTINUOUS
 62
    7
 10
1406.005805666106
 20
2211.2644649435701
 11
1406.002943844702
 21
2095.2674895529221
  0
ARC
  8
_0-0_0
  6
CONTINUOUS
 62
    7
 10
1483.9358127513069
 20
2152.8199525145269
 40
96.880431713329244
 50
216.44541070793443
 51
233.5490898472284
  0
LINE
  8
_0-0_0
  6
CONTINUOUS
 62
    7
 10
1426.3758697915778
 20
2074.8926080490969
 11
1431.627327382914
 21
2074.8855466034652
  0
LINE
  8
_0-0_0
  6
CONTINUOUS
 62
    7
 10
1431.627327382914
 20
2074.8855466034652
 11
1433.12962301315
 21
2074.8855466034652
  0
LINE
  8
_0-0_0
  6
CONTINUOUS
 62
    7
 10
1433.12962301315
 20
2074.8855466034652
 11
1483.6302024214201
 21
2074.8855466034652
  0
LINE
  8
_0-0_0
  6
CONTINUOUS
 62
    7
 10
1483.6302024214201
 20
2074.8855466034652
 11
1485.123814261884
 21
2074.8855466034652
  0
LINE
  8
_0-0_0
  6
CONTINUOUS
 62
    7
 10
1485.123814261884
 20
2074.8855466034652
 11
1535.6287355650393
 21
2074.8855466034652
  0
LINE
  8
_0-0_0
  6
CONTINUOUS
 62
    7
 10
1535.6287355650393
 20
2074.8855466034652
 11
1537.1310311952741
 21
2074.8855466034652
  0
LINE
  8
_0-0_0
  6
CONTINUOUS
 62
    7
 10
1537.1310311952741
 20
2074.8855466034652
 11
1542.3760402164421
 21
2074.8855466034652
  0
ARC
  8
_0-0_0
  6
CONTINUOUS
 62
    7
 10
1485.1853093582199
 20
2152.452790157326
 40
96.371453079434133
 50
306.40154413120041
 51
323.59845586880118
  0
LINE
  8
_0-0_0
  6
CONTINUOUS
 62
    7
 10
1562.752552912083
 20
2095.2620592991061
 11
1562.752552912083
 21
2211.2644649435701
  0
ARC
  8
_0-0_0
  6
CONTINUOUS
 62
    7
 10
1484.5432411358729
 20
2153.4286614940988
 40
97.271149932312184
 50
36.482933758849832
 51
53.514801144306247
  0
LINE
  8
_0-0_0
  6
CONTINUOUS
 62
    7
 10
1542.3821364199821
 20
2231.6356867633681
 11
1537.1310311952741
 21
2231.640977639212
  0
LINE
  8
_0-0_0
  6
CONTINUOUS
 62
    7
 10
1537.1310311952741
 20
2231.640977639212
 11
1535.6287355650393
 21
2231.640977639212
  0
LINE
  8
_0-0_0
  6
CONTINUOUS
 62
    7
 10
1535.6287355650393
 20
2231.640977639212
 11
1485.123814261884
 21
2231.640977639212
  0
LINE
  8
_0-0_0
  6
CONTINUOUS
 62
    7
 10
1485.123814261884
 20
2231.640977639212
 11
1483.6302024214201
 21
2231.640977639212
  0
LINE
  8
_0-0_0
  6
CONTINUOUS
 62
    7
 10
1483.6302024214201
 20
2231.640977639212
 11
1433.12962301315
 21
2231.640977639212
  0
LINE
  8
_0-0_0
  6
CONTINUOUS
 62
    7
 10
1433.12962301315
 20
2231.640977639212
 11
1431.627327382914
 21
2231.640977639212
  0
LINE
  8
_0-0_0
  6
CONTINUOUS
 62
    7
 10
1431.627327382914
 20
2231.640977639212
 11
1426.383172503296
 21
2231.640977639212
  0
LINE
  8
_0-0_0
  6
CONTINUOUS
 62
    7
 10
1426.383172503296
 20
2231.640977639212
 11
1426.382318361748
 21
2231.640977639212
  0
ARC
  8
_0-0_0
  6
CONTINUOUS
 62
    7
 10
1324.8526077111469
 20
2151.5368124380661
 40
99.911970487861893
 50
126.70842758518918
 51
143.2915724148107
  0
LINE
  8
_0-0_0
  6
CONTINUOUS
 62
    7
 10
1244.7544067490239
 20
2211.2585007045468
 11
1244.7515449276198
 21
2095.2615253138988
  0
ARC
  8
_0-0_0
  6
CONTINUOUS
 62
    7
 10
1322.6844138342249
 20
2152.8139882755049
 40
96.880431713329529
 50
216.44541070793463
 51
233.54908984722863
  0
LINE
  8
_0-0_0
  6
CONTINUOUS
 62
    7
 10
1265.124470874496
 20
2074.886643810074
 11
1270.3759284658329
 21
2074.8795823644418
  0
LINE
  8
_0-0_0
  6
CONTINUOUS
 62
    7
 10
1270.3759284658329
 20
2074.8795823644418
 11
1271.8782240960677
 21
2074.8795823644409
  0
LINE
  8
_0-0_0
  6
CONTINUOUS
 62
    7
 10
1271.8782240960677
 20
2074.8795823644409
 11
1322.3788035043381
 21
2074.8795823644409
  0
LINE
  8
_0-0_0
  6
CONTINUOUS
 62
    7
 10
1322.3788035043381
 20
2074.8795823644409
 11
1323.8724153448029
 21
2074.8795823644409
  0
LINE
  8
_0-0_0
  6
CONTINUOUS
 62
    7
 10
1323.8724153448029
 20
2074.8795823644409
 11
1374.3773366479579
 21
2074.8795823644409
  0
LINE
  8
_0-0_0
  6
CONTINUOUS
 62
    7
 10
1374.3773366479579
 20
2074.8795823644409
 11
1375.879632278193
 21
2074.8795823644409
  0
LINE
  8
_0-0_0
  6
CONTINUOUS
 62
    7
 10
1375.879632278193
 20
2074.8795823644409
 11
1381.1246412993589
 21
2074.8795823644409
  0
ARC
  8
_0-0_0
  6
CONTINUOUS
 62
    7
 10
1323.9339104411379
 20
2152.446825918305
 40
96.37145307943581
 50
306.40154413119939
 51
323.59845586880022
  0
LINE
  8
_0-0_0
  6
CONTINUOUS
 62
    7
 10
1401.501153995001
 20
2095.2560950600841
 11
1401.501153995001
 21
2211.2585007045468
  0
ARC
  8
_0-0_0
  6
CONTINUOUS
 62
    7
 10
1323.2918422187911
 20
2153.422697255075
 40
97.271149932312895
 50
36.482933758850187
 51
53.514801144306666
  0
LINE
  8
_0-0_0
  6
CONTINUOUS
 62
    7
 10
1381.1307375029
 20
2231.6297225243452
 11
1375.879632278193
 21
2231.6350134001882
  0
LINE
  8
_0-0_0
  6
CONTINUOUS
 62
    7
 10
1375.879632278193
 20
2231.6350134001882
 11
1374.3773366479579
 21
2231.6350134001882
  0
LINE
  8
_0-0_0
  6
CONTINUOUS
 62
    7
 10
1374.3773366479579
 20
2231.6350134001882
 11
1323.8724153448029
 21
2231.6350134001882
  0
LINE
  8
_0-0_0
  6
CONTINUOUS
 62
    7
 10
1323.8724153448029
 20
2231.6350134001882
 11
1322.3788035043381
 21
2231.6350134001882
  0
LINE
  8
_0-0_0
  6
CONTINUOUS
 62
    7
 10
1322.3788035043381
 20
2231.6350134001882
 11
1271.8782240960677
 21
2231.6350134001882
  0
LINE
  8
_0-0_0
  6
CONTINUOUS
 62
    7
 10
1271.8782240960677
 20
2231.6350134001882
 11
1270.3759284658329
 21
2231.6350134001891
  0
LINE
  8
_0-0_0
  6
CONTINUOUS
 62
    7
 10
1270.3759284658329
 20
2231.6350134001891
 11
1265.131773586214
 21
2231.6350134001882
  0
LINE
  8
_0-0_0
  6
CONTINUOUS
 62
    7
 10
1265.131773586214
 20
2231.6350134001882
 11
1265.130919444666
 21
2231.6350134001882
  0
ARC
  8
_0-0_0
  6
CONTINUOUS
 62
    7
 10
1324.8573464457791
 20
1991.781116403075
 40
99.911970487862078
 50
126.70842758518918
 51
143.29157241481056
  0
LINE
  8
_0-0_0
  6
CONTINUOUS
 62
    7
 10
1244.7591454836561
 20
2051.502804669557
 11
1244.756283662251
 21
1935.5058292789081
  0
ARC
  8
_0-0_0
  6
CONTINUOUS
 62
    7
 10
1322.6891525688557
 20
1993.058292240514
 40
96.880431713329415
 50
216.44541070793454
 51
233.54908984722852
  0
LINE
  8
_0-0_0
  6
CONTINUOUS
 62
    7
 10
1265.129209609127
 20
1915.130947775084
 11
1270.3806672004639
 21
1915.1238863294511
  0
LINE
  8
_0-0_0
  6
CONTINUOUS
 62
    7
 10
1270.3806672004639
 20
1915.1238863294511
 11
1271.8829628306989
 21
1915.1238863294511
  0
LINE
  8
_0-0_0
  6
CONTINUOUS
 62
    7
 10
1271.8829628306989
 20
1915.1238863294511
 11
1322.3835422389693
 21
1915.1238863294511
  0
LINE
  8
_0-0_0
  6
CONTINUOUS
 62
    7
 10
1322.3835422389693
 20
1915.1238863294511
 11
1323.8771540794341
 21
1915.1238863294511
  0
LINE
  8
_0-0_0
  6
CONTINUOUS
 62
    7
 10
1323.8771540794341
 20
1915.1238863294511
 11
1374.3820753825889
 21
1915.1238863294511
  0
LINE
  8
_0-0_0
  6
CONTINUOUS
 62
    7
 10
1374.3820753825889
 20
1915.1238863294511
 11
1375.884371012824
 21
1915.1238863294511
  0
LINE
  8
_0-0_0
  6
CONTINUOUS
 62
    7
 10
1375.884371012824
 20
1915.1238863294511
 11
1381.1293800339911
 21
1915.1238863294511
  0
ARC
  8
_0-0_0
  6
CONTINUOUS
 62
    7
 10
1323.9386491757687
 20
1992.6911298833143
 40
96.37145307943544
 50
306.40154413119956
 51
323.59845586880033
  0
LINE
  8
_0-0_0
  6
CONTINUOUS
 62
    7
 10
1401.5058927296329
 20
1935.500399025093
 11
1401.5058927296329
 21
2051.502804669557
  0
ARC
  8
_0-0_0
  6
CONTINUOUS
 62
    7
 10
1323.2965809534221
 20
1993.6670012200841
 40
97.271149932313037
 50
36.482933758850287
 51
53.514801144306738
  0
LINE
  8
_0-0_0
  6
CONTINUOUS
 62
    7
 10
1381.1354762375311
 20
2071.8740264893549
 11
1375.884371012824
 21
2071.8793173651979
  0
LINE
  8
_0-0_0
  6
CONTINUOUS
 62
    7
 10
1375.884371012824
 20
2071.8793173651979
 11
1374.3820753825889
 21
2071.8793173651979
  0
LINE
  8
_0-0_0
  6
CONTINUOUS
 62
    7
 10
1374.3820753825889
 20
2071.8793173651979
 11
1323.8771540794341
 21
2071.8793173651979
  0
LINE
  8
_0-0_0
  6
CONTINUOUS
 62
    7
 10
1323.8771540794341
 20
2071.8793173651979
 11
1322.3835422389693
 21
2071.8793173651979
  0
LINE
  8
_0-0_0
  6
CONTINUOUS
 62
    7
 10
1322.3835422389693
 20
2071.8793173651979
 11
1271.8829628306989
 21
2071.8793173651979
  0
LINE
  8
_0-0_0
  6
CONTINUOUS
 62
    7
 10
1271.8829628306989
 20
2071.8793173651979
 11
1270.3806672004639
 21
2071.8793173651989
  0
LINE
  8
_0-0_0
  6
CONTINUOUS
 62
    7
 10
1270.3806672004639
 20
2071.8793173651989
 11
1265.136512320845
 21
2071.8793173651979
  0
LINE
  8
_0-0_0
  6
CONTINUOUS
 62
    7
 10
1265.136512320845
 20
2071.8793173651979
 11
1265.135658179297
 21
2071.8793173651979
  0
ARC
  8
_0-0_0
  6
CONTINUOUS
 62
    7
 10
1486.1073644631199
 20
1991.7849904544987
 40
99.911970487863044
 50
126.7084275851886
 51
143.29157241480999
  0
LINE
  8
_0-0_0
  6
CONTINUOUS
 62
    7
 10
1406.0091635009967
 20
2051.5066787209821
 11
1406.0063016795921
 21
1935.5097033303341
  0
ARC
  8
_0-0_0
  6
CONTINUOUS
 62
    7
 10
1483.9391705861972
 20
1993.062166291938
 40
96.88043171332825
 50
216.4454107079338
 51
233.5490898472278
  0
LINE
  8
_0-0_0
  6
CONTINUOUS
 62
    7
 10
1426.379227626468
 20
1915.1348218265091
 11
1431.6306852178061
 21
1915.1277603808767
  0
LINE
  8
_0-0_0
  6
CONTINUOUS
 62
    7
 10
1431.6306852178061
 20
1915.1277603808767
 11
1433.13298084804
 21
1915.1277603808767
  0
LINE
  8
_0-0_0
  6
CONTINUOUS
 62
    7
 10
1433.13298084804
 20
1915.1277603808767
 11
1483.6335602563099
 21
1915.1277603808767
  0
LINE
  8
_0-0_0
  6
CONTINUOUS
 62
    7
 10
1483.6335602563099
 20
1915.1277603808767
 11
1485.127172096775
 21
1915.1277603808767
  0
LINE
  8
_0-0_0
  6
CONTINUOUS
 62
    7
 10
1485.127172096775
 20
1915.1277603808767
 11
1535.63209339993
 21
1915.1277603808767
  0
LINE
  8
_0-0_0
  6
CONTINUOUS
 62
    7
 10
1535.63209339993
 20
1915.1277603808767
 11
1537.134389030165
 21
1915.1277603808767
  0
LINE
  8
_0-0_0
  6
CONTINUOUS
 62
    7
 10
1537.134389030165
 20
1915.1277603808767
 11
1542.3793980513319
 21
1915.1277603808767
  0
ARC
  8
_0-0_0
  6
CONTINUOUS
 62
    7
 10
1485.1886671931111
 20
1992.695003934741
 40
96.371453079436606
 50
306.40154413119888
 51
323.5984558687997
  0
LINE
  8
_0-0_0
  6
CONTINUOUS
 62
    7
 10
1562.7559107469738
 20
1935.5042730765181
 11
1562.7559107469738
 21
2051.5066787209821
  0
ARC
  8
_0-0_0
  6
CONTINUOUS
 62
    7
 10
1484.5465989707627
 20
1993.6708752715099
 40
97.271149932313037
 50
36.482933758850287
 51
53.514801144306738
  0
LINE
  8
_0-0_0
  6
CONTINUOUS
 62
    7
 10
1542.3854942548728
 20
2071.877900540781
 11
1537.134389030165
 21
2071.883191416624
  0
LINE
  8
_0-0_0
  6
CONTINUOUS
 62
    7
 10
1537.134389030165
 20
2071.883191416624
 11
1535.63209339993
 21
2071.883191416624
  0
LINE
  8
_0-0_0
  6
CONTINUOUS
 62
    7
 10
1535.63209339993
 20
2071.883191416624
 11
1485.127172096775
 21
2071.883191416624
  0
LINE
  8
_0-0_0
  6
CONTINUOUS
 62
    7
 10
1485.127172096775
 20
2071.883191416624
 11
1483.6335602563099
 21
2071.883191416624
  0
LINE
  8
_0-0_0
  6
CONTINUOUS
 62
    7
 10
1483.6335602563099
 20
2071.883191416624
 11
1433.13298084804
 21
2071.883191416624
  0
LINE
  8
_0-0_0
  6
CONTINUOUS
 62
    7
 10
1433.13298084804
 20
2071.883191416624
 11
1431.6306852178061
 21
2071.8831914166249
  0
LINE
  8
_0-0_0
  6
CONTINUOUS
 62
    7
 10
1431.6306852178061
 20
2071.8831914166249
 11
1426.386530338186
 21
2071.883191416624
  0
LINE
  8
_0-0_0
  6
CONTINUOUS
 62
    7
 10
1426.386530338186
 20
2071.883191416624
 11
1426.385676196639
 21
2071.883191416624
  0
ARC
  8
_0-0_0
  6
CONTINUOUS
 62
    7
 10
1647.3576407649107
 20
1991.791438170641
 40
99.911970487862078
 50
126.70842758518918
 51
143.29157241481056
  0
LINE
  8
_0-0_0
  6
CONTINUOUS
 62
    7
 10
1567.2594398027879
 20
2051.513126437123
 11
1567.256577981384
 21
1935.5161510464741
  0
ARC
  8
_0-0_0
  6
CONTINUOUS
 62
    7
 10
1645.1894468879891
 20
1993.0686140080793
 40
96.88043171332825
 50
216.4454107079338
 51
233.5490898472278
  0
LINE
  8
_0-0_0
  6
CONTINUOUS
 62
    7
 10
1587.62950392826
 20
1915.1412695426502
 11
1592.8809615195969
 21
1915.1342080970171
  0
LINE
  8
_0-0_0
  6
CONTINUOUS
 62
    7
 10
1592.8809615195969
 20
1915.1342080970171
 11
1594.383257149831
 21
1915.1342080970171
  0
LINE
  8
_0-0_0
  6
CONTINUOUS
 62
    7
 10
1594.383257149831
 20
1915.1342080970171
 11
1644.8838365581018
 21
1915.1342080970171
  0
LINE
  8
_0-0_0
  6
CONTINUOUS
 62
    7
 10
1644.8838365581018
 20
1915.1342080970171
 11
1646.377448398566
 21
1915.1342080970171
  0
LINE
  8
_0-0_0
  6
CONTINUOUS
 62
    7
 10
1646.377448398566
 20
1915.1342080970171
 11
1696.882369701721
 21
1915.1342080970171
  0
LINE
  8
_0-0_0
  6
CONTINUOUS
 62
    7
 10
1696.882369701721
 20
1915.1342080970171
 11
1698.3846653319561
 21
1915.1342080970171
  0
LINE
  8
_0-0_0
  6
CONTINUOUS
 62
    7
 10
1698.3846653319561
 20
1915.1342080970171
 11
1703.6296743531229
 21
1915.1342080970171
  0
ARC
  8
_0-0_0
  6
CONTINUOUS
 62
    7
 10
1646.4389434949021
 20
1992.70145165088
 40
96.37145307943544
 50
306.40154413119956
 51
323.59845586880033
  0
LINE
  8
_0-0_0
  6
CONTINUOUS
 62
    7
 10
1724.006187048765
 20
1935.510720792659
 11
1724.006187048765
 21
2051.513126437123
  0
ARC
  8
_0-0_0
  6
CONTINUOUS
 62
    7
 10
1645.7968752725551
 20
1993.6773229876519
 40
97.271149932311914
 50
36.482933758849619
 51
53.51480114430607
  0
LINE
  8
_0-0_0
  6
CONTINUOUS
 62
    7
 10
1703.6357705566641
 20
2071.8843482569209
 11
1698.3846653319561
 21
2071.8896391327639
  0
LINE
  8
_0-0_0
  6
CONTINUOUS
 62
    7
 10
1698.3846653319561
 20
2071.8896391327639
 11
1696.882369701721
 21
2071.8896391327639
  0
LINE
  8
_0-0_0
  6
CONTINUOUS
 62
    7
 10
1696.882369701721
 20
2071.8896391327639
 11
1646.377448398566
 21
2071.8896391327639
  0
LINE
  8
_0-0_0
  6
CONTINUOUS
 62
    7
 10
1646.377448398566
 20
2071.8896391327639
 11
1644.8838365581018
 21
2071.8896391327639
  0
LINE
  8
_0-0_0
  6
CONTINUOUS
 62
    7
 10
1644.8838365581018
 20
2071.8896391327639
 11
1594.383257149831
 21
2071.8896391327639
  0
LINE
  8
_0-0_0
  6
CONTINUOUS
 62
    7
 10
1594.383257149831
 20
2071.8896391327639
 11
1592.8809615195969
 21
2071.8896391327648
  0
LINE
  8
_0-0_0
  6
CONTINUOUS
 62
    7
 10
1592.8809615195969
 20
2071.8896391327648
 11
1587.6368066399773
 21
2071.8896391327639
  0
LINE
  8
_0-0_0
  6
CONTINUOUS
 62
    7
 10
1587.6368066399773
 20
2071.8896391327639
 11
1587.63595249843
 21
2071.8896391327639
  0
ARC
  8
_0-0_0
  6
CONTINUOUS
 62
    7
 10
1808.606933006708
 20
1991.79143817064
 40
99.911970487863044
 50
126.7084275851886
 51
143.29157241480999
  0
LINE
  8
_0-0_0
  6
CONTINUOUS
 62
    7
 10
1728.5087320445839
 20
2051.513126437123
 11
1728.50587022318
 21
1935.5161510464741
  0
ARC
  8
_0-0_0
  6
CONTINUOUS
 62
    7
 10
1806.4387391297851
 20
1993.0686140080793
 40
96.88043171332825
 50
216.4454107079338
 51
233.5490898472278
  0
LINE
  8
_0-0_0
  6
CONTINUOUS
 62
    7
 10
1748.8787961700559
 20
1915.1412695426502
 11
1754.1302537613938
 21
1915.1342080970171
  0
LINE
  8
_0-0_0
  6
CONTINUOUS
 62
    7
 10
1754.1302537613938
 20
1915.1342080970171
 11
1755.6325493916279
 21
1915.1342080970171
  0
LINE
  8
_0-0_0
  6
CONTINUOUS
 62
    7
 10
1755.6325493916279
 20
1915.1342080970171
 11
1806.1331287998978
 21
1915.1342080970171
  0
LINE
  8
_0-0_0
  6
CONTINUOUS
 62
    7
 10
1806.1331287998978
 20
1915.1342080970171
 11
1807.6267406403631
 21
1915.1342080970171
  0
LINE
  8
_0-0_0
  6
CONTINUOUS
 62
    7
 10
1807.6267406403631
 20
1915.1342080970171
 11
1858.1316619435179
 21
1915.1342080970171
  0
LINE
  8
_0-0_0
  6
CONTINUOUS
 62
    7
 10
1858.1316619435179
 20
1915.1342080970171
 11
1859.6339575737529
 21
1915.1342080970171
  0
LINE
  8
_0-0_0
  6
CONTINUOUS
 62
    7
 10
1859.6339575737529
 20
1915.1342080970171
 11
1864.87896659492
 21
1915.1342080970171
  0
ARC
  8
_0-0_0
  6
CONTINUOUS
 62
    7
 10
1807.688235736699
 20
1992.7014516508821
 40
96.371453079436606
 50
306.40154413119888
 51
323.5984558687997
  0
LINE
  8
_0-0_0
  6
CONTINUOUS
 62
    7
 10
1885.2554792905621
 20
1935.510720792659
 11
1885.2554792905621
 21
2051.513126437123
  0
ARC
  8
_0-0_0
  6
CONTINUOUS
 62
    7
 10
1807.0461675143511
 20
1993.677322987648
 40
97.271149932314174
 50
36.482933758850969
 51
53.514801144307398
  0
LINE
  8
_0-0_0
  6
CONTINUOUS
 62
    7
 10
1864.88506279846
 20
2071.8843482569209
 11
1859.6339575737529
 21
2071.8896391327639
  0
LINE
  8
_0-0_0
  6
CONTINUOUS
 62
    7
 10
1859.6339575737529
 20
2071.8896391327639
 11
1858.1316619435179
 21
2071.8896391327639
  0
LINE
  8
_0-0_0
  6
CONTINUOUS
 62
    7
 10
1858.1316619435179
 20
2071.8896391327639
 11
1807.6267406403631
 21
2071.8896391327639
  0
LINE
  8
_0-0_0
  6
CONTINUOUS
 62
    7
 10
1807.6267406403631
 20
2071.8896391327639
 11
1806.1331287998978
 21
2071.8896391327639
  0
LINE
  8
_0-0_0
  6
CONTINUOUS
 62
    7
 10
1806.1331287998978
 20
2071.8896391327639
 11
1755.6325493916279
 21
2071.8896391327639
  0
LINE
  8
_0-0_0
  6
CONTINUOUS
 62
    7
 10
1755.6325493916279
 20
2071.8896391327639
 11
1754.1302537613938
 21
2071.8896391327648
  0
LINE
  8
_0-0_0
  6
CONTINUOUS
 62
    7
 10
1754.1302537613938
 20
2071.8896391327648
 11
1748.8860988817739
 21
2071.8896391327639
  0
LINE
  8
_0-0_0
  6
CONTINUOUS
 62
    7
 10
1748.8860988817739
 20
2071.8896391327639
 11
1748.8852447402271
 21
2071.8896391327639
  0
ARC
  8
_0-0_0
  6
CONTINUOUS
 62
    7
 10
1969.8548633098353
 20
1991.787014312989
 40
99.911970487862675
 50
126.7084275851888
 51
143.29157241481019
  0
LINE
  8
_0-0_0
  6
CONTINUOUS
 62
    7
 10
1889.756662347711
 20
2051.5087025794719
 11
1889.7538005263077
 21
1935.5117271888241
  0
ARC
  8
_0-0_0
  6
CONTINUOUS
 62
    7
 10
1967.6866694329119
 20
1993.0641901504259
 40
96.880431713327155
 50
216.44541070793323
 51
233.54908984722721
  0
LINE
  8
_0-0_0
  6
CONTINUOUS
 62
    7
 10
1910.1267264731832
 20
1915.1368456849991
 11
1915.3781840645211
 21
1915.1297842393669
  0
LINE
  8
_0-0_0
  6
CONTINUOUS
 62
    7
 10
1915.3781840645211
 20
1915.1297842393669
 11
1916.880479694755
 21
1915.129784239366
  0
LINE
  8
_0-0_0
  6
CONTINUOUS
 62
    7
 10
1916.880479694755
 20
1915.129784239366
 11
1967.381059103026
 21
1915.129784239366
  0
LINE
  8
_0-0_0
  6
CONTINUOUS
 62
    7
 10
1967.381059103026
 20
1915.129784239366
 11
1968.8746709434899
 21
1915.129784239366
  0
LINE
  8
_0-0_0
  6
CONTINUOUS
 62
    7
 10
1968.8746709434899
 20
1915.129784239366
 11
2019.379592246645
 21
1915.129784239366
  0
LINE
  8
_0-0_0
  6
CONTINUOUS
 62
    7
 10
2019.379592246645
 20
1915.129784239366
 11
2020.8818878768809
 21
1915.129784239366
  0
LINE
  8
_0-0_0
  6
CONTINUOUS
 62
    7
 10
2020.8818878768809
 20
1915.129784239366
 11
2026.1268968980471
 21
1915.129784239366
  0
ARC
  8
_0-0_0
  6
CONTINUOUS
 62
    7
 10
1968.9361660398258
 20
1992.697027793231
 40
96.371453079436606
 50
306.40154413119888
 51
323.5984558687997
  0
LINE
  8
_0-0_0
  6
CONTINUOUS
 62
    7
 10
2046.503409593689
 20
1935.5062969350081
 11
2046.503409593689
 21
2051.5087025794719
  0
ARC
  8
_0-0_0
  6
CONTINUOUS
 62
    7
 10
1968.2940978174779
 20
1993.6728991299969
 40
97.271149932314444
 50
36.482933758851168
 51
53.514801144307562
  0
LINE
  8
_0-0_0
  6
CONTINUOUS
 62
    7
 10
2026.1329931015871
 20
2071.8799243992698
 11
2020.8818878768809
 21
2071.8852152751142
  0
LINE
  8
_0-0_0
  6
CONTINUOUS
 62
    7
 10
2020.8818878768809
 20
2071.8852152751142
 11
2019.379592246645
 21
2071.8852152751142
  0
LINE
  8
_0-0_0
  6
CONTINUOUS
 62
    7
 10
2019.379592246645
 20
2071.8852152751142
 11
1968.8746709434899
 21
2071.8852152751142
  0
LINE
  8
_0-0_0
  6
CONTINUOUS
 62
    7
 10
1968.8746709434899
 20
2071.8852152751142
 11
1967.381059103026
 21
2071.8852152751142
  0
LINE
  8
_0-0_0
  6
CONTINUOUS
 62
    7
 10
1967.381059103026
 20
2071.8852152751142
 11
1916.880479694755
 21
2071.8852152751142
  0
LINE
  8
_0-0_0
  6
CONTINUOUS
 62
    7
 10
1916.880479694755
 20
2071.8852152751142
 11
1915.3781840645211
 21
2071.8852152751142
  0
LINE
  8
_0-0_0
  6
CONTINUOUS
 62
    7
 10
1915.3781840645211
 20
2071.8852152751142
 11
1910.134029184901
 21
2071.8852152751142
  0
LINE
  8
_0-0_0
  6
CONTINUOUS
 62
    7
 10
1910.134029184901
 20
2071.8852152751142
 11
1910.133175043353
 21
2071.8852152751142
  0
ARC
  8
_0-0_0
  6
CONTINUOUS
 62
    7
 10
1969.8605671433891
 20
1832.0314158744261
 40
99.911970487860771
 50
126.7084275851899
 51
143.29157241481141
  0
LINE
  8
_0-0_0
  6
CONTINUOUS
 62
    7
 10
1889.762366181267
 20
1891.753104140905
 11
1889.7595043598619
 21
1775.7561287502567
  0
ARC
  8
_0-0_0
  6
CONTINUOUS
 62
    7
 10
1967.692373266467
 20
1833.308591711864
 40
96.880431713329415
 50
216.44541070793454
 51
233.54908984722852
  0
LINE
  8
_0-0_0
  6
CONTINUOUS
 62
    7
 10
1910.1324303067377
 20
1755.3812472464328
 11
1915.383887898076
 21
1755.3741858007998
  0
LINE
  8
_0-0_0
  6
CONTINUOUS
 62
    7
 10
1915.383887898076
 20
1755.3741858007998
 11
1916.8861835283101
 21
1755.3741858007998
  0
LINE
  8
_0-0_0
  6
CONTINUOUS
 62
    7
 10
1916.8861835283101
 20
1755.3741858007998
 11
1967.38676293658
 21
1755.3741858007998
  0
LINE
  8
_0-0_0
  6
CONTINUOUS
 62
    7
 10
1967.38676293658
 20
1755.3741858007998
 11
1968.8803747770439
 21
1755.3741858007998
  0
LINE
  8
_0-0_0
  6
CONTINUOUS
 62
    7
 10
1968.8803747770439
 20
1755.3741858007998
 11
2019.385296080201
 21
1755.3741858007998
  0
LINE
  8
_0-0_0
  6
CONTINUOUS
 62
    7
 10
2019.385296080201
 20
1755.3741858007998
 11
2020.8875917104347
 21
1755.3741858007998
  0
LINE
  8
_0-0_0
  6
CONTINUOUS
 62
    7
 10
2020.8875917104347
 20
1755.3741858007998
 11
2026.132600731602
 21
1755.3741858007998
  0
ARC
  8
_0-0_0
  6
CONTINUOUS
 62
    7
 10
1968.94186987338
 20
1832.941429354662
 40
96.371453079434289
 50
306.4015441312003
 51
323.59845586880112
  0
LINE
  8
_0-0_0
  6
CONTINUOUS
 62
    7
 10
2046.5091134272429
 20
1775.7506984964421
 11
2046.5091134272429
 21
1891.753104140905
  0
ARC
  8
_0-0_0
  6
CONTINUOUS
 62
    7
 10
1968.299801651033
 20
1833.917300691437
 40
97.271149932309925
 50
36.482933758848482
 51
53.514801144304911
  0
LINE
  8
_0-0_0
  6
CONTINUOUS
 62
    7
 10
2026.1386969351429
 20
1912.124325960704
 11
2020.8875917104347
 21
1912.129616836547
  0
LINE
  8
_0-0_0
  6
CONTINUOUS
 62
    7
 10
2020.8875917104347
 20
1912.129616836547
 11
2019.385296080201
 21
1912.129616836547
  0
LINE
  8
_0-0_0
  6
CONTINUOUS
 62
    7
 10
2019.385296080201
 20
1912.129616836547
 11
1968.8803747770439
 21
1912.129616836547
  0
LINE
  8
_0-0_0
  6
CONTINUOUS
 62
    7
 10
1968.8803747770439
 20
1912.129616836547
 11
1967.38676293658
 21
1912.129616836547
  0
LINE
  8
_0-0_0
  6
CONTINUOUS
 62
    7
 10
1967.38676293658
 20
1912.129616836547
 11
1916.8861835283101
 21
1912.129616836547
  0
LINE
  8
_0-0_0
  6
CONTINUOUS
 62
    7
 10
1916.8861835283101
 20
1912.129616836547
 11
1915.383887898076
 21
1912.1296168365479
  0
LINE
  8
_0-0_0
  6
CONTINUOUS
 62
    7
 10
1915.383887898076
 20
1912.1296168365479
 11
1910.1397330184559
 21
1912.129616836547
  0
LINE
  8
_0-0_0
  6
CONTINUOUS
 62
    7
 10
1910.1397330184559
 20
1912.129616836547
 11
1910.1388788769079
 21
1912.129616836547
  0
ARC
  8
_0-0_0
  6
CONTINUOUS
 62
    7
 10
1808.606933006708
 20
1832.0314158744231
 40
99.911970487862874
 50
126.7084275851887
 51
143.29157241481019
  0
LINE
  8
_0-0_0
  6
CONTINUOUS
 62
    7
 10
1728.5087320445839
 20
1891.753104140905
 11
1728.50587022318
 21
1775.7561287502567
  0
ARC
  8
_0-0_0
  6
CONTINUOUS
 62
    7
 10
1806.4387391297851
 20
1833.3085917118619
 40
96.88043171332825
 50
216.4454107079338
 51
233.5490898472278
  0
LINE
  8
_0-0_0
  6
CONTINUOUS
 62
    7
 10
1748.8787961700559
 20
1755.3812472464328
 11
1754.1302537613938
 21
1755.3741858007998
  0
LINE
  8
_0-0_0
  6
CONTINUOUS
 62
    7
 10
1754.1302537613938
 20
1755.3741858007998
 11
1755.6325493916279
 21
1755.3741858007998
  0
LINE
  8
_0-0_0
  6
CONTINUOUS
 62
    7
 10
1755.6325493916279
 20
1755.3741858007998
 11
1806.1331287998978
 21
1755.3741858007998
  0
LINE
  8
_0-0_0
  6
CONTINUOUS
 62
    7
 10
1806.1331287998978
 20
1755.3741858007998
 11
1807.6267406403631
 21
1755.3741858007998
  0
LINE
  8
_0-0_0
  6
CONTINUOUS
 62
    7
 10
1807.6267406403631
 20
1755.3741858007998
 11
1858.1316619435179
 21
1755.3741858007998
  0
LINE
  8
_0-0_0
  6
CONTINUOUS
 62
    7
 10
1858.1316619435179
 20
1755.3741858007998
 11
1859.6339575737529
 21
1755.3741858007998
  0
LINE
  8
_0-0_0
  6
CONTINUOUS
 62
    7
 10
1859.6339575737529
 20
1755.3741858007998
 11
1864.87896659492
 21
1755.3741858007998
  0
ARC
  8
_0-0_0
  6
CONTINUOUS
 62
    7
 10
1807.688235736699
 20
1832.9414293546647
 40
96.371453079436606
 50
306.40154413119888
 51
323.5984558687997
  0
LINE
  8
_0-0_0
  6
CONTINUOUS
 62
    7
 10
1885.2554792905621
 20
1775.7506984964421
 11
1885.2554792905621
 21
1891.753104140905
  0
ARC
  8
_0-0_0
  6
CONTINUOUS
 62
    7
 10
1807.0461675143511
 20
1833.9173006914307
 40
97.271149932314316
 50
36.482933758851068
 51
53.514801144307476
  0
LINE
  8
_0-0_0
  6
CONTINUOUS
 62
    7
 10
1864.88506279846
 20
1912.124325960704
 11
1859.6339575737529
 21
1912.129616836547
  0
LINE
  8
_0-0_0
  6
CONTINUOUS
 62
    7
 10
1859.6339575737529
 20
1912.129616836547
 11
1858.1316619435179
 21
1912.129616836547
  0
LINE
  8
_0-0_0
  6
CONTINUOUS
 62
    7
 10
1858.1316619435179
 20
1912.129616836547
 11
1807.6267406403631
 21
1912.129616836547
  0
LINE
  8
_0-0_0
  6
CONTINUOUS
 62
    7
 10
1807.6267406403631
 20
1912.129616836547
 11
1806.1331287998978
 21
1912.129616836547
  0
LINE
  8
_0-0_0
  6
CONTINUOUS
 62
    7
 10
1806.1331287998978
 20
1912.129616836547
 11
1755.6325493916279
 21
1912.129616836547
  0
LINE
  8
_0-0_0
  6
CONTINUOUS
 62
    7
 10
1755.6325493916279
 20
1912.129616836547
 11
1754.1302537613938
 21
1912.1296168365479
  0
LINE
  8
_0-0_0
  6
CONTINUOUS
 62
    7
 10
1754.1302537613938
 20
1912.1296168365479
 11
1748.8860988817739
 21
1912.129616836547
  0
LINE
  8
_0-0_0
  6
CONTINUOUS
 62
    7
 10
1748.8860988817739
 20
1912.129616836547
 11
1748.8852447402271
 21
1912.129616836547
  0
ARC
  8
_0-0_0
  6
CONTINUOUS
 62
    7
 10
1647.3576407649107
 20
1832.0314158744241
 40
99.911970487861893
 50
126.70842758518918
 51
143.2915724148107
  0
LINE
  8
_0-0_0
  6
CONTINUOUS
 62
    7
 10
1567.2594398027879
 20
1891.753104140905
 11
1567.256577981384
 21
1775.7561287502567
  0
ARC
  8
_0-0_0
  6
CONTINUOUS
 62
    7
 10
1645.1894468879891
 20
1833.3085917118619
 40
96.88043171332825
 50
216.4454107079338
 51
233.5490898472278
  0
LINE
  8
_0-0_0
  6
CONTINUOUS
 62
    7
 10
1587.62950392826
 20
1755.3812472464328
 11
1592.8809615195969
 21
1755.3741858007998
  0
LINE
  8
_0-0_0
  6
CONTINUOUS
 62
    7
 10
1592.8809615195969
 20
1755.3741858007998
 11
1594.383257149831
 21
1755.3741858007998
  0
LINE
  8
_0-0_0
  6
CONTINUOUS
 62
    7
 10
1594.383257149831
 20
1755.3741858007998
 11
1644.8838365581018
 21
1755.3741858007998
  0
LINE
  8
_0-0_0
  6
CONTINUOUS
 62
    7
 10
1644.8838365581018
 20
1755.3741858007998
 11
1646.377448398566
 21
1755.3741858007998
  0
LINE
  8
_0-0_0
  6
CONTINUOUS
 62
    7
 10
1646.377448398566
 20
1755.3741858007998
 11
1696.882369701721
 21
1755.3741858007998
  0
LINE
  8
_0-0_0
  6
CONTINUOUS
 62
    7
 10
1696.882369701721
 20
1755.3741858007998
 11
1698.3846653319561
 21
1755.3741858007998
  0
LINE
  8
_0-0_0
  6
CONTINUOUS
 62
    7
 10
1698.3846653319561
 20
1755.3741858007998
 11
1703.6296743531229
 21
1755.3741858007998
  0
ARC
  8
_0-0_0
  6
CONTINUOUS
 62
    7
 10
1646.4389434949021
 20
1832.9414293546631
 40
96.37145307943544
 50
306.40154413119956
 51
323.59845586880033
  0
LINE
  8
_0-0_0
  6
CONTINUOUS
 62
    7
 10
1724.006187048765
 20
1775.7506984964421
 11
1724.006187048765
 21
1891.753104140905
  0
ARC
  8
_0-0_0
  6
CONTINUOUS
 62
    7
 10
1645.7968752725551
 20
1833.9173006914343
 40
97.271149932312056
 50
36.482933758849718
 51
53.514801144306148
  0
LINE
  8
_0-0_0
  6
CONTINUOUS
 62
    7
 10
1703.6357705566641
 20
1912.124325960704
 11
1698.3846653319561
 21
1912.129616836547
  0
LINE
  8
_0-0_0
  6
CONTINUOUS
 62
    7
 10
1698.3846653319561
 20
1912.129616836547
 11
1696.882369701721
 21
1912.129616836547
  0
LINE
  8
_0-0_0
  6
CONTINUOUS
 62
    7
 10
1696.882369701721
 20
1912.129616836547
 11
1646.377448398566
 21
1912.129616836547
  0
LINE
  8
_0-0_0
  6
CONTINUOUS
 62
    7
 10
1646.377448398566
 20
1912.129616836547
 11
1644.8838365581018
 21
1912.129616836547
  0
LINE
  8
_0-0_0
  6
CONTINUOUS
 62
    7
 10
1644.8838365581018
 20
1912.129616836547
 11
1594.383257149831
 21
1912.129616836547
  0
LINE
  8
_0-0_0
  6
CONTINUOUS
 62
    7
 10
1594.383257149831
 20
1912.129616836547
 11
1592.8809615195969
 21
1912.1296168365479
  0
LINE
  8
_0-0_0
  6
CONTINUOUS
 62
    7
 10
1592.8809615195969
 20
1912.1296168365479
 11
1587.6368066399773
 21
1912.129616836547
  0
LINE
  8
_0-0_0
  6
CONTINUOUS
 62
    7
 10
1587.6368066399773
 20
1912.129616836547
 11
1587.63595249843
 21
1912.129616836547
  0
ARC
  8
_0-0_0
  6
CONTINUOUS
 62
    7
 10
1486.1040066282289
 20
1832.0314158744261
 40
99.911970487860771
 50
126.7084275851899
 51
143.29157241481141
  0
LINE
  8
_0-0_0
  6
CONTINUOUS
 62
    7
 10
1406.005805666106
 20
1891.753104140905
 11
1406.002943844702
 21
1775.7561287502567
  0
ARC
  8
_0-0_0
  6
CONTINUOUS
 62
    7
 10
1483.9358127513069
 20
1833.308591711864
 40
96.880431713329415
 50
216.44541070793454
 51
233.54908984722852
  0
LINE
  8
_0-0_0
  6
CONTINUOUS
 62
    7
 10
1426.3758697915778
 20
1755.3812472464328
 11
1431.627327382914
 21
1755.3741858007998
  0
LINE
  8
_0-0_0
  6
CONTINUOUS
 62
    7
 10
1431.627327382914
 20
1755.3741858007998
 11
1433.12962301315
 21
1755.3741858007998
  0
LINE
  8
_0-0_0
  6
CONTINUOUS
 62
    7
 10
1433.12962301315
 20
1755.3741858007998
 11
1483.6302024214201
 21
1755.3741858007998
  0
LINE
  8
_0-0_0
  6
CONTINUOUS
 62
    7
 10
1483.6302024214201
 20
1755.3741858007998
 11
1485.123814261884
 21
1755.3741858007998
  0
LINE
  8
_0-0_0
  6
CONTINUOUS
 62
    7
 10
1485.123814261884
 20
1755.3741858007998
 11
1535.6287355650393
 21
1755.3741858007998
  0
LINE
  8
_0-0_0
  6
CONTINUOUS
 62
    7
 10
1535.6287355650393
 20
1755.3741858007998
 11
1537.1310311952741
 21
1755.3741858007998
  0
LINE
  8
_0-0_0
  6
CONTINUOUS
 62
    7
 10
1537.1310311952741
 20
1755.3741858007998
 11
1542.3760402164421
 21
1755.3741858007998
  0
ARC
  8
_0-0_0
  6
CONTINUOUS
 62
    7
 10
1485.1853093582199
 20
1832.941429354662
 40
96.371453079434289
 50
306.4015441312003
 51
323.59845586880112
  0
LINE
  8
_0-0_0
  6
CONTINUOUS
 62
    7
 10
1562.752552912083
 20
1775.7506984964421
 11
1562.752552912083
 21
1891.753104140905
  0
ARC
  8
_0-0_0
  6
CONTINUOUS
 62
    7
 10
1484.5432411358729
 20
1833.9173006914343
 40
97.271149932312056
 50
36.482933758849718
 51
53.514801144306148
  0
LINE
  8
_0-0_0
  6
CONTINUOUS
 62
    7
 10
1542.3821364199821
 20
1912.124325960704
 11
1537.1310311952741
 21
1912.129616836547
  0
LINE
  8
_0-0_0
  6
CONTINUOUS
 62
    7
 10
1537.1310311952741
 20
1912.129616836547
 11
1535.6287355650393
 21
1912.129616836547
  0
LINE
  8
_0-0_0
  6
CONTINUOUS
 62
    7
 10
1535.6287355650393
 20
1912.129616836547
 11
1485.123814261884
 21
1912.129616836547
  0
LINE
  8
_0-0_0
  6
CONTINUOUS
 62
    7
 10
1485.123814261884
 20
1912.129616836547
 11
1483.6302024214201
 21
1912.129616836547
  0
LINE
  8
_0-0_0
  6
CONTINUOUS
 62
    7
 10
1483.6302024214201
 20
1912.129616836547
 11
1433.12962301315
 21
1912.129616836547
  0
LINE
  8
_0-0_0
  6
CONTINUOUS
 62
    7
 10
1433.12962301315
 20
1912.129616836547
 11
1431.627327382914
 21
1912.1296168365479
  0
LINE
  8
_0-0_0
  6
CONTINUOUS
 62
    7
 10
1431.627327382914
 20
1912.1296168365479
 11
1426.383172503296
 21
1912.129616836547
  0
LINE
  8
_0-0_0
  6
CONTINUOUS
 62
    7
 10
1426.383172503296
 20
1912.129616836547
 11
1426.382318361748
 21
1912.129616836547
  0
ARC
  8
_0-0_0
  6
CONTINUOUS
 62
    7
 10
1324.8503724915468
 20
1832.0314158744231
 40
99.911970487862874
 50
126.7084275851887
 51
143.29157241481019
  0
LINE
  8
_0-0_0
  6
CONTINUOUS
 62
    7
 10
1244.752171529424
 20
1891.753104140905
 11
1244.7493097080201
 21
1775.7561287502567
  0
ARC
  8
_0-0_0
  6
CONTINUOUS
 62
    7
 10
1322.6821786146249
 20
1833.3085917118619
 40
96.88043171332825
 50
216.4454107079338
 51
233.5490898472278
  0
LINE
  8
_0-0_0
  6
CONTINUOUS
 62
    7
 10
1265.122235654896
 20
1755.3812472464328
 11
1270.373693246233
 21
1755.3741858007998
  0
LINE
  8
_0-0_0
  6
CONTINUOUS
 62
    7
 10
1270.373693246233
 20
1755.3741858007998
 11
1271.875988876468
 21
1755.3741858007998
  0
LINE
  8
_0-0_0
  6
CONTINUOUS
 62
    7
 10
1271.875988876468
 20
1755.3741858007998
 11
1322.3765682847379
 21
1755.3741858007998
  0
LINE
  8
_0-0_0
  6
CONTINUOUS
 62
    7
 10
1322.3765682847379
 20
1755.3741858007998
 11
1323.8701801252028
 21
1755.3741858007998
  0
LINE
  8
_0-0_0
  6
CONTINUOUS
 62
    7
 10
1323.8701801252028
 20
1755.3741858007998
 11
1374.375101428358
 21
1755.3741858007998
  0
LINE
  8
_0-0_0
  6
CONTINUOUS
 62
    7
 10
1374.375101428358
 20
1755.3741858007998
 11
1375.8773970585917
 21
1755.3741858007998
  0
LINE
  8
_0-0_0
  6
CONTINUOUS
 62
    7
 10
1375.8773970585917
 20
1755.3741858007998
 11
1381.122406079759
 21
1755.3741858007998
  0
ARC
  8
_0-0_0
  6
CONTINUOUS
 62
    7
 10
1323.9316752215379
 20
1832.9414293546647
 40
96.371453079436606
 50
306.40154413119888
 51
323.5984558687997
  0
LINE
  8
_0-0_0
  6
CONTINUOUS
 62
    7
 10
1401.498918775402
 20
1775.7506984964421
 11
1401.498918775402
 21
1891.753104140905
  0
ARC
  8
_0-0_0
  6
CONTINUOUS
 62
    7
 10
1323.2896069991909
 20
1833.917300691433
 40
97.271149932313165
 50
36.482933758850393
 51
53.514801144306823
  0
LINE
  8
_0-0_0
  6
CONTINUOUS
 62
    7
 10
1381.1285022832999
 20
1912.124325960704
 11
1375.8773970585917
 21
1912.129616836547
  0
LINE
  8
_0-0_0
  6
CONTINUOUS
 62
    7
 10
1375.8773970585917
 20
1912.129616836547
 11
1374.375101428358
 21
1912.129616836547
  0
LINE
  8
_0-0_0
  6
CONTINUOUS
 62
    7
 10
1374.375101428358
 20
1912.129616836547
 11
1323.8701801252028
 21
1912.129616836547
  0
LINE
  8
_0-0_0
  6
CONTINUOUS
 62
    7
 10
1323.8701801252028
 20
1912.129616836547
 11
1322.3765682847379
 21
1912.129616836547
  0
LINE
  8
_0-0_0
  6
CONTINUOUS
 62
    7
 10
1322.3765682847379
 20
1912.129616836547
 11
1271.875988876468
 21
1912.129616836547
  0
LINE
  8
_0-0_0
  6
CONTINUOUS
 62
    7
 10
1271.875988876468
 20
1912.129616836547
 11
1270.373693246233
 21
1912.1296168365479
  0
LINE
  8
_0-0_0
  6
CONTINUOUS
 62
    7
 10
1270.373693246233
 20
1912.1296168365479
 11
1265.129538366614
 21
1912.129616836547
  0
LINE
  8
_0-0_0
  6
CONTINUOUS
 62
    7
 10
1265.129538366614
 20
1912.129616836547
 11
1265.1286842250661
 21
1912.129616836547
  0
ARC
  8
_0-0_0
  6
CONTINUOUS
 62
    7
 10
1324.8503724915468
 20
1672.288761157746
 40
99.911970487862874
 50
126.7084275851887
 51
143.29157241481019
  0
LINE
  8
_0-0_0
  6
CONTINUOUS
 62
    7
 10
1244.752171529424
 20
1732.0104494242282
 11
1244.7493097080201
 21
1616.01347403358
  0
ARC
  8
_0-0_0
  6
CONTINUOUS
 62
    7
 10
1322.6821786146249
 20
1673.565936995185
 40
96.88043171332825
 50
216.4454107079338
 51
233.5490898472278
  0
LINE
  8
_0-0_0
  6
CONTINUOUS
 62
    7
 10
1265.122235654896
 20
1595.6385925297561
 11
1270.373693246233
 21
1595.6315310841239
  0
LINE
  8
_0-0_0
  6
CONTINUOUS
 62
    7
 10
1270.373693246233
 20
1595.6315310841239
 11
1271.875988876468
 21
1595.631531084123
  0
LINE
  8
_0-0_0
  6
CONTINUOUS
 62
    7
 10
1271.875988876468
 20
1595.631531084123
 11
1322.3765682847379
 21
1595.631531084123
  0
LINE
  8
_0-0_0
  6
CONTINUOUS
 62
    7
 10
1322.3765682847379
 20
1595.631531084123
 11
1323.8701801252028
 21
1595.631531084123
  0
LINE
  8
_0-0_0
  6
CONTINUOUS
 62
    7
 10
1323.8701801252028
 20
1595.631531084123
 11
1374.375101428358
 21
1595.631531084123
  0
LINE
  8
_0-0_0
  6
CONTINUOUS
 62
    7
 10
1374.375101428358
 20
1595.631531084123
 11
1375.8773970585917
 21
1595.631531084123
  0
LINE
  8
_0-0_0
  6
CONTINUOUS
 62
    7
 10
1375.8773970585917
 20
1595.631531084123
 11
1381.122406079759
 21
1595.631531084123
  0
ARC
  8
_0-0_0
  6
CONTINUOUS
 62
    7
 10
1323.9316752215379
 20
1673.198774637988
 40
96.371453079436606
 50
306.40154413119888
 51
323.5984558687997
  0
LINE
  8
_0-0_0
  6
CONTINUOUS
 62
    7
 10
1401.498918775402
 20
1616.0080437797651
 11
1401.498918775402
 21
1732.0104494242282
  0
ARC
  8
_0-0_0
  6
CONTINUOUS
 62
    7
 10
1323.2896069991909
 20
1674.174645974756
 40
97.271149932313165
 50
36.482933758850393
 51
53.514801144306823
  0
LINE
  8
_0-0_0
  6
CONTINUOUS
 62
    7
 10
1381.1285022832999
 20
1752.3816712440271
 11
1375.8773970585917
 21
1752.3869621198701
  0
LINE
  8
_0-0_0
  6
CONTINUOUS
 62
    7
 10
1375.8773970585917
 20
1752.3869621198701
 11
1374.375101428358
 21
1752.3869621198701
  0
LINE
  8
_0-0_0
  6
CONTINUOUS
 62
    7
 10
1374.375101428358
 20
1752.3869621198701
 11
1323.8701801252028
 21
1752.3869621198701
  0
LINE
  8
_0-0_0
  6
CONTINUOUS
 62
    7
 10
1323.8701801252028
 20
1752.3869621198701
 11
1322.3765682847379
 21
1752.3869621198701
  0
LINE
  8
_0-0_0
  6
CONTINUOUS
 62
    7
 10
1322.3765682847379
 20
1752.3869621198701
 11
1271.875988876468
 21
1752.3869621198701
  0
LINE
  8
_0-0_0
  6
CONTINUOUS
 62
    7
 10
1271.875988876468
 20
1752.3869621198701
 11
1270.373693246233
 21
1752.386962119871
  0
LINE
  8
_0-0_0
  6
CONTINUOUS
 62
    7
 10
1270.373693246233
 20
1752.386962119871
 11
1265.129538366614
 21
1752.3869621198701
  0
LINE
  8
_0-0_0
  6
CONTINUOUS
 62
    7
 10
1265.129538366614
 20
1752.3869621198701
 11
1265.1286842250661
 21
1752.3869621198701
  0
ARC
  8
_0-0_0
  6
CONTINUOUS
 62
    7
 10
1486.1040066282289
 20
1672.2887611577489
 40
99.911970487860771
 50
126.7084275851899
 51
143.29157241481141
  0
LINE
  8
_0-0_0
  6
CONTINUOUS
 62
    7
 10
1406.005805666106
 20
1732.0104494242282
 11
1406.002943844702
 21
1616.01347403358
  0
ARC
  8
_0-0_0
  6
CONTINUOUS
 62
    7
 10
1483.9358127513069
 20
1673.5659369951861
 40
96.880431713329415
 50
216.44541070793454
 51
233.54908984722852
  0
LINE
  8
_0-0_0
  6
CONTINUOUS
 62
    7
 10
1426.3758697915778
 20
1595.6385925297561
 11
1431.627327382914
 21
1595.6315310841239
  0
LINE
  8
_0-0_0
  6
CONTINUOUS
 62
    7
 10
1431.627327382914
 20
1595.6315310841239
 11
1433.12962301315
 21
1595.631531084123
  0
LINE
  8
_0-0_0
  6
CONTINUOUS
 62
    7
 10
1433.12962301315
 20
1595.631531084123
 11
1483.6302024214201
 21
1595.631531084123
  0
LINE
  8
_0-0_0
  6
CONTINUOUS
 62
    7
 10
1483.6302024214201
 20
1595.631531084123
 11
1485.123814261884
 21
1595.631531084123
  0
LINE
  8
_0-0_0
  6
CONTINUOUS
 62
    7
 10
1485.123814261884
 20
1595.631531084123
 11
1535.6287355650393
 21
1595.631531084123
  0
LINE
  8
_0-0_0
  6
CONTINUOUS
 62
    7
 10
1535.6287355650393
 20
1595.631531084123
 11
1537.1310311952741
 21
1595.631531084123
  0
LINE
  8
_0-0_0
  6
CONTINUOUS
 62
    7
 10
1537.1310311952741
 20
1595.631531084123
 11
1542.3760402164421
 21
1595.631531084123
  0
ARC
  8
_0-0_0
  6
CONTINUOUS
 62
    7
 10
1485.1853093582199
 20
1673.198774637985
 40
96.371453079434289
 50
306.4015441312003
 51
323.59845586880112
  0
LINE
  8
_0-0_0
  6
CONTINUOUS
 62
    7
 10
1562.752552912083
 20
1616.0080437797651
 11
1562.752552912083
 21
1732.0104494242282
  0
ARC
  8
_0-0_0
  6
CONTINUOUS
 62
    7
 10
1484.5432411358729
 20
1674.1746459747569
 40
97.271149932312056
 50
36.482933758849718
 51
53.514801144306148
  0
LINE
  8
_0-0_0
  6
CONTINUOUS
 62
    7
 10
1542.3821364199821
 20
1752.3816712440271
 11
1537.1310311952741
 21
1752.3869621198701
  0
LINE
  8
_0-0_0
  6
CONTINUOUS
 62
    7
 10
1537.1310311952741
 20
1752.3869621198701
 11
1535.6287355650393
 21
1752.3869621198701
  0
LINE
  8
_0-0_0
  6
CONTINUOUS
 62
    7
 10
1535.6287355650393
 20
1752.3869621198701
 11
1485.123814261884
 21
1752.3869621198701
  0
LINE
  8
_0-0_0
  6
CONTINUOUS
 62
    7
 10
1485.123814261884
 20
1752.3869621198701
 11
1483.6302024214201
 21
1752.3869621198701
  0
LINE
  8
_0-0_0
  6
CONTINUOUS
 62
    7
 10
1483.6302024214201
 20
1752.3869621198701
 11
1433.12962301315
 21
1752.3869621198701
  0
LINE
  8
_0-0_0
  6
CONTINUOUS
 62
    7
 10
1433.12962301315
 20
1752.3869621198701
 11
1431.627327382914
 21
1752.386962119871
  0
LINE
  8
_0-0_0
  6
CONTINUOUS
 62
    7
 10
1431.627327382914
 20
1752.386962119871
 11
1426.383172503296
 21
1752.3869621198701
  0
LINE
  8
_0-0_0
  6
CONTINUOUS
 62
    7
 10
1426.383172503296
 20
1752.3869621198701
 11
1426.382318361748
 21
1752.3869621198701
  0
ARC
  8
_0-0_0
  6
CONTINUOUS
 62
    7
 10
1647.3531126656201
 20
1672.3047430398501
 40
99.911970487861893
 50
126.70842758518918
 51
143.2915724148107
  0
LINE
  8
_0-0_0
  6
CONTINUOUS
 62
    7
 10
1567.2549117034969
 20
1732.0264313063319
 11
1567.2520498820929
 21
1616.029455915683
  0
ARC
  8
_0-0_0
  6
CONTINUOUS
 62
    7
 10
1645.1849187886969
 20
1673.581918877288
 40
96.88043171332825
 50
216.4454107079338
 51
233.5490898472278
  0
LINE
  8
_0-0_0
  6
CONTINUOUS
 62
    7
 10
1587.6249758289689
 20
1595.6545744118589
 11
1592.8764334203061
 21
1595.6475129662269
  0
LINE
  8
_0-0_0
  6
CONTINUOUS
 62
    7
 10
1592.8764334203061
 20
1595.6475129662269
 11
1594.3787290505411
 21
1595.647512966226
  0
LINE
  8
_0-0_0
  6
CONTINUOUS
 62
    7
 10
1594.3787290505411
 20
1595.647512966226
 11
1644.879308458811
 21
1595.647512966226
  0
LINE
  8
_0-0_0
  6
CONTINUOUS
 62
    7
 10
1644.879308458811
 20
1595.647512966226
 11
1646.3729202992749
 21
1595.647512966226
  0
LINE
  8
_0-0_0
  6
CONTINUOUS
 62
    7
 10
1646.3729202992749
 20
1595.647512966226
 11
1696.8778416024297
 21
1595.647512966226
  0
LINE
  8
_0-0_0
  6
CONTINUOUS
 62
    7
 10
1696.8778416024297
 20
1595.647512966226
 11
1698.3801372326659
 21
1595.647512966226
  0
LINE
  8
_0-0_0
  6
CONTINUOUS
 62
    7
 10
1698.3801372326659
 20
1595.647512966226
 11
1703.6251462538321
 21
1595.647512966226
  0
ARC
  8
_0-0_0
  6
CONTINUOUS
 62
    7
 10
1646.434415395611
 20
1673.2147565200889
 40
96.37145307943544
 50
306.40154413119956
 51
323.59845586880033
  0
LINE
  8
_0-0_0
  6
CONTINUOUS
 62
    7
 10
1724.0016589494739
 20
1616.0240256618681
 11
1724.0016589494739
 21
1732.0264313063319
  0
ARC
  8
_0-0_0
  6
CONTINUOUS
 62
    7
 10
1645.7923471732643
 20
1674.1906278568599
 40
97.271149932312056
 50
36.482933758849718
 51
53.514801144306148
  0
LINE
  8
_0-0_0
  6
CONTINUOUS
 62
    7
 10
1703.631242457373
 20
1752.3976531261301
 11
1698.3801372326659
 21
1752.4029440019731
  0
LINE
  8
_0-0_0
  6
CONTINUOUS
 62
    7
 10
1698.3801372326659
 20
1752.4029440019731
 11
1696.8778416024297
 21
1752.4029440019731
  0
LINE
  8
_0-0_0
  6
CONTINUOUS
 62
    7
 10
1696.8778416024297
 20
1752.4029440019731
 11
1646.3729202992749
 21
1752.4029440019731
  0
LINE
  8
_0-0_0
  6
CONTINUOUS
 62
    7
 10
1646.3729202992749
 20
1752.4029440019731
 11
1644.879308458811
 21
1752.4029440019731
  0
LINE
  8
_0-0_0
  6
CONTINUOUS
 62
    7
 10
1644.879308458811
 20
1752.4029440019731
 11
1594.3787290505411
 21
1752.4029440019731
  0
LINE
  8
_0-0_0
  6
CONTINUOUS
 62
    7
 10
1594.3787290505411
 20
1752.4029440019731
 11
1592.8764334203061
 21
1752.402944001974
  0
LINE
  8
_0-0_0
  6
CONTINUOUS
 62
    7
 10
1592.8764334203061
 20
1752.402944001974
 11
1587.632278540686
 21
1752.4029440019731
  0
LINE
  8
_0-0_0
  6
CONTINUOUS
 62
    7
 10
1587.632278540686
 20
1752.4029440019731
 11
1587.6314243991392
 21
1752.4029440019731
  0
ARC
  8
_0-0_0
  6
CONTINUOUS
 62
    7
 10
1808.6083251009609
 20
1672.2995401505632
 40
99.911970487860771
 50
126.7084275851899
 51
143.29157241481141
  0
LINE
  8
_0-0_0
  6
CONTINUOUS
 62
    7
 10
1728.5101241388379
 20
1732.0212284170429
 11
1728.5072623174342
 21
1616.0242530263949
  0
ARC
  8
_0-0_0
  6
CONTINUOUS
 62
    7
 10
1806.4401312240393
 20
1673.5767159880011
 40
96.880431713329415
 50
216.44541070793454
 51
233.54908984722852
  0
LINE
  8
_0-0_0
  6
CONTINUOUS
 62
    7
 10
1748.8801882643099
 20
1595.6493715225699
 11
1754.1316458556471
 21
1595.642310076938
  0
LINE
  8
_0-0_0
  6
CONTINUOUS
 62
    7
 10
1754.1316458556471
 20
1595.642310076938
 11
1755.6339414858821
 21
1595.6423100769371
  0
LINE
  8
_0-0_0
  6
CONTINUOUS
 62
    7
 10
1755.6339414858821
 20
1595.6423100769371
 11
1806.134520894152
 21
1595.6423100769371
  0
LINE
  8
_0-0_0
  6
CONTINUOUS
 62
    7
 10
1806.134520894152
 20
1595.6423100769371
 11
1807.6281327346169
 21
1595.6423100769371
  0
LINE
  8
_0-0_0
  6
CONTINUOUS
 62
    7
 10
1807.6281327346169
 20
1595.6423100769371
 11
1858.1330540377717
 21
1595.6423100769371
  0
LINE
  8
_0-0_0
  6
CONTINUOUS
 62
    7
 10
1858.1330540377717
 20
1595.6423100769371
 11
1859.6353496680069
 21
1595.6423100769371
  0
LINE
  8
_0-0_0
  6
CONTINUOUS
 62
    7
 10
1859.6353496680069
 20
1595.6423100769371
 11
1864.880358689174
 21
1595.6423100769371
  0
ARC
  8
_0-0_0
  6
CONTINUOUS
 62
    7
 10
1807.6896278309523
 20
1673.2095536307993
 40
96.371453079434289
 50
306.4015441312003
 51
323.59845586880112
  0
LINE
  8
_0-0_0
  6
CONTINUOUS
 62
    7
 10
1885.256871384815
 20
1616.0188227725789
 11
1885.256871384815
 21
1732.0212284170429
  0
ARC
  8
_0-0_0
  6
CONTINUOUS
 62
    7
 10
1807.0475596086048
 20
1674.1854249675721
 40
97.271149932312056
 50
36.482933758849718
 51
53.514801144306148
  0
LINE
  8
_0-0_0
  6
CONTINUOUS
 62
    7
 10
1864.886454892714
 20
1752.3924502368411
 11
1859.6353496680069
 21
1752.397741112685
  0
LINE
  8
_0-0_0
  6
CONTINUOUS
 62
    7
 10
1859.6353496680069
 20
1752.397741112685
 11
1858.1330540377717
 21
1752.397741112685
  0
LINE
  8
_0-0_0
  6
CONTINUOUS
 62
    7
 10
1858.1330540377717
 20
1752.397741112685
 11
1807.6281327346169
 21
1752.397741112685
  0
LINE
  8
_0-0_0
  6
CONTINUOUS
 62
    7
 10
1807.6281327346169
 20
1752.397741112685
 11
1806.134520894152
 21
1752.397741112685
  0
LINE
  8
_0-0_0
  6
CONTINUOUS
 62
    7
 10
1806.134520894152
 20
1752.397741112685
 11
1755.6339414858821
 21
1752.397741112685
  0
LINE
  8
_0-0_0
  6
CONTINUOUS
 62
    7
 10
1755.6339414858821
 20
1752.397741112685
 11
1754.1316458556471
 21
1752.397741112685
  0
LINE
  8
_0-0_0
  6
CONTINUOUS
 62
    7
 10
1754.1316458556471
 20
1752.397741112685
 11
1748.8874909760279
 21
1752.397741112685
  0
LINE
  8
_0-0_0
  6
CONTINUOUS
 62
    7
 10
1748.8874909760279
 20
1752.397741112685
 11
1748.8866368344791
 21
1752.397741112685
  0
ARC
  8
_0-0_0
  6
CONTINUOUS
 62
    7
 10
1969.8605671433891
 20
1672.2887611577489
 40
99.911970487860771
 50
126.7084275851899
 51
143.29157241481141
  0
LINE
  8
_0-0_0
  6
CONTINUOUS
 62
    7
 10
1889.762366181267
 20
1732.0104494242282
 11
1889.7595043598619
 21
1616.01347403358
  0
ARC
  8
_0-0_0
  6
CONTINUOUS
 62
    7
 10
1967.692373266467
 20
1673.5659369951861
 40
96.880431713329415
 50
216.44541070793454
 51
233.54908984722852
  0
LINE
  8
_0-0_0
  6
CONTINUOUS
 62
    7
 10
1910.1324303067377
 20
1595.6385925297561
 11
1915.383887898076
 21
1595.6315310841239
  0
LINE
  8
_0-0_0
  6
CONTINUOUS
 62
    7
 10
1915.383887898076
 20
1595.6315310841239
 11
1916.8861835283101
 21
1595.631531084123
  0
LINE
  8
_0-0_0
  6
CONTINUOUS
 62
    7
 10
1916.8861835283101
 20
1595.631531084123
 11
1967.38676293658
 21
1595.631531084123
  0
LINE
  8
_0-0_0
  6
CONTINUOUS
 62
    7
 10
1967.38676293658
 20
1595.631531084123
 11
1968.8803747770439
 21
1595.631531084123
  0
LINE
  8
_0-0_0
  6
CONTINUOUS
 62
    7
 10
1968.8803747770439
 20
1595.631531084123
 11
2019.385296080201
 21
1595.631531084123
  0
LINE
  8
_0-0_0
  6
CONTINUOUS
 62
    7
 10
2019.385296080201
 20
1595.631531084123
 11
2020.8875917104347
 21
1595.631531084123
  0
LINE
  8
_0-0_0
  6
CONTINUOUS
 62
    7
 10
2020.8875917104347
 20
1595.631531084123
 11
2026.132600731602
 21
1595.631531084123
  0
ARC
  8
_0-0_0
  6
CONTINUOUS
 62
    7
 10
1968.94186987338
 20
1673.198774637985
 40
96.371453079434289
 50
306.4015441312003
 51
323.59845586880112
  0
LINE
  8
_0-0_0
  6
CONTINUOUS
 62
    7
 10
2046.5091134272429
 20
1616.0080437797651
 11
2046.5091134272429
 21
1732.0104494242282
  0
ARC
  8
_0-0_0
  6
CONTINUOUS
 62
    7
 10
1968.299801651033
 20
1674.1746459747601
 40
97.271149932309925
 50
36.482933758848482
 51
53.514801144304911
  0
LINE
  8
_0-0_0
  6
CONTINUOUS
 62
    7
 10
2026.1386969351429
 20
1752.3816712440271
 11
2020.8875917104347
 21
1752.3869621198701
  0
LINE
  8
_0-0_0
  6
CONTINUOUS
 62
    7
 10
2020.8875917104347
 20
1752.3869621198701
 11
2019.385296080201
 21
1752.3869621198701
  0
LINE
  8
_0-0_0
  6
CONTINUOUS
 62
    7
 10
2019.385296080201
 20
1752.3869621198701
 11
1968.8803747770439
 21
1752.3869621198701
  0
LINE
  8
_0-0_0
  6
CONTINUOUS
 62
    7
 10
1968.8803747770439
 20
1752.3869621198701
 11
1967.38676293658
 21
1752.3869621198701
  0
LINE
  8
_0-0_0
  6
CONTINUOUS
 62
    7
 10
1967.38676293658
 20
1752.3869621198701
 11
1916.8861835283101
 21
1752.3869621198701
  0
LINE
  8
_0-0_0
  6
CONTINUOUS
 62
    7
 10
1916.8861835283101
 20
1752.3869621198701
 11
1915.383887898076
 21
1752.386962119871
  0
LINE
  8
_0-0_0
  6
CONTINUOUS
 62
    7
 10
1915.383887898076
 20
1752.386962119871
 11
1910.1397330184559
 21
1752.3869621198701
  0
LINE
  8
_0-0_0
  6
CONTINUOUS
 62
    7
 10
1910.1397330184559
 20
1752.3869621198701
 11
1910.1388788769079
 21
1752.3869621198701
  0
ARC
  8
_0-0_0
  6
CONTINUOUS
 62
    7
 10
1969.8480758261753
 20
1512.5312486196531
 40
99.911970487860771
 50
126.7084275851899
 51
143.29157241481141
  0
LINE
  8
_0-0_0
  6
CONTINUOUS
 62
    7
 10
1889.749874864053
 20
1572.2529368861331
 11
1889.7470130426477
 21
1456.2559614954851
  0
ARC
  8
_0-0_0
  6
CONTINUOUS
 62
    7
 10
1967.6798819492528
 20
1513.808424457091
 40
96.880431713329415
 50
216.44541070793454
 51
233.54908984722852
  0
LINE
  8
_0-0_0
  6
CONTINUOUS
 62
    7
 10
1910.1199389895239
 20
1435.88107999166
 11
1915.3713965808611
 21
1435.8740185460281
  0
LINE
  8
_0-0_0
  6
CONTINUOUS
 62
    7
 10
1915.3713965808611
 20
1435.8740185460281
 11
1916.873692211095
 21
1435.8740185460269
  0
LINE
  8
_0-0_0
  6
CONTINUOUS
 62
    7
 10
1916.873692211095
 20
1435.8740185460269
 11
1967.374271619366
 21
1435.8740185460269
  0
LINE
  8
_0-0_0
  6
CONTINUOUS
 62
    7
 10
1967.374271619366
 20
1435.8740185460269
 11
1968.8678834598313
 21
1435.8740185460269
  0
LINE
  8
_0-0_0
  6
CONTINUOUS
 62
    7
 10
1968.8678834598313
 20
1435.8740185460269
 11
2019.3728047629861
 21
1435.8740185460269
  0
LINE
  8
_0-0_0
  6
CONTINUOUS
 62
    7
 10
2019.3728047629861
 20
1435.8740185460269
 11
2020.8751003932202
 21
1435.8740185460269
  0
LINE
  8
_0-0_0
  6
CONTINUOUS
 62
    7
 10
2020.8751003932202
 20
1435.8740185460269
 11
2026.120109414388
 21
1435.8740185460269
  0
ARC
  8
_0-0_0
  6
CONTINUOUS
 62
    7
 10
1968.9293785561672
 20
1513.4412620998919
 40
96.371453079436606
 50
306.40154413119888
 51
323.5984558687997
  0
LINE
  8
_0-0_0
  6
CONTINUOUS
 62
    7
 10
2046.4966221100301
 20
1456.250531241669
 11
2046.4966221100301
 21
1572.2529368861331
  0
ARC
  8
_0-0_0
  6
CONTINUOUS
 62
    7
 10
1968.2873103338191
 20
1514.4171334366581
 40
97.271149932314316
 50
36.482933758851068
 51
53.514801144307476
  0
LINE
  8
_0-0_0
  6
CONTINUOUS
 62
    7
 10
2026.126205617928
 20
1592.6241587059308
 11
2020.8751003932202
 21
1592.629449581774
  0
LINE
  8
_0-0_0
  6
CONTINUOUS
 62
    7
 10
2020.8751003932202
 20
1592.629449581774
 11
2019.3728047629861
 21
1592.629449581774
  0
LINE
  8
_0-0_0
  6
CONTINUOUS
 62
    7
 10
2019.3728047629861
 20
1592.629449581774
 11
1968.8678834598313
 21
1592.629449581774
  0
LINE
  8
_0-0_0
  6
CONTINUOUS
 62
    7
 10
1968.8678834598313
 20
1592.629449581774
 11
1967.374271619366
 21
1592.629449581774
  0
LINE
  8
_0-0_0
  6
CONTINUOUS
 62
    7
 10
1967.374271619366
 20
1592.629449581774
 11
1916.873692211095
 21
1592.629449581774
  0
LINE
  8
_0-0_0
  6
CONTINUOUS
 62
    7
 10
1916.873692211095
 20
1592.629449581774
 11
1915.3713965808611
 21
1592.6294495817749
  0
LINE
  8
_0-0_0
  6
CONTINUOUS
 62
    7
 10
1915.3713965808611
 20
1592.6294495817749
 11
1910.127241701241
 21
1592.629449581774
  0
LINE
  8
_0-0_0
  6
CONTINUOUS
 62
    7
 10
1910.127241701241
 20
1592.629449581774
 11
1910.126387559694
 21
1592.629449581774
  0
ARC
  8
_0-0_0
  6
CONTINUOUS
 62
    7
 10
1808.606933006708
 20
1512.524396966644
 40
99.911970487862874
 50
126.7084275851887
 51
143.29157241481019
  0
LINE
  8
_0-0_0
  6
CONTINUOUS
 62
    7
 10
1728.5087320445839
 20
1572.246085233126
 11
1728.50587022318
 21
1456.249109842478
  0
ARC
  8
_0-0_0
  6
CONTINUOUS
 62
    7
 10
1806.4387391297851
 20
1513.801572804083
 40
96.88043171332825
 50
216.4454107079338
 51
233.5490898472278
  0
LINE
  8
_0-0_0
  6
CONTINUOUS
 62
    7
 10
1748.8787961700559
 20
1435.874228338653
 11
1754.1302537613938
 21
1435.867166893021
  0
LINE
  8
_0-0_0
  6
CONTINUOUS
 62
    7
 10
1754.1302537613938
 20
1435.867166893021
 11
1755.6325493916279
 21
1435.867166893021
  0
LINE
  8
_0-0_0
  6
CONTINUOUS
 62
    7
 10
1755.6325493916279
 20
1435.867166893021
 11
1806.1331287998978
 21
1435.867166893021
  0
LINE
  8
_0-0_0
  6
CONTINUOUS
 62
    7
 10
1806.1331287998978
 20
1435.867166893021
 11
1807.6267406403631
 21
1435.867166893021
  0
LINE
  8
_0-0_0
  6
CONTINUOUS
 62
    7
 10
1807.6267406403631
 20
1435.867166893021
 11
1858.1316619435179
 21
1435.867166893021
  0
LINE
  8
_0-0_0
  6
CONTINUOUS
 62
    7
 10
1858.1316619435179
 20
1435.867166893021
 11
1859.6339575737529
 21
1435.867166893021
  0
LINE
  8
_0-0_0
  6
CONTINUOUS
 62
    7
 10
1859.6339575737529
 20
1435.867166893021
 11
1864.87896659492
 21
1435.867166893021
  0
ARC
  8
_0-0_0
  6
CONTINUOUS
 62
    7
 10
1807.688235736699
 20
1513.434410446886
 40
96.371453079436606
 50
306.40154413119888
 51
323.5984558687997
  0
LINE
  8
_0-0_0
  6
CONTINUOUS
 62
    7
 10
1885.2554792905621
 20
1456.2436795886631
 11
1885.2554792905621
 21
1572.246085233126
  0
ARC
  8
_0-0_0
  6
CONTINUOUS
 62
    7
 10
1807.0461675143511
 20
1514.410281783652
 40
97.271149932314316
 50
36.482933758851068
 51
53.514801144307476
  0
LINE
  8
_0-0_0
  6
CONTINUOUS
 62
    7
 10
1864.88506279846
 20
1592.6173070529239
 11
1859.6339575737529
 21
1592.6225979287683
  0
LINE
  8
_0-0_0
  6
CONTINUOUS
 62
    7
 10
1859.6339575737529
 20
1592.6225979287683
 11
1858.1316619435179
 21
1592.6225979287683
  0
LINE
  8
_0-0_0
  6
CONTINUOUS
 62
    7
 10
1858.1316619435179
 20
1592.6225979287683
 11
1807.6267406403631
 21
1592.6225979287683
  0
LINE
  8
_0-0_0
  6
CONTINUOUS
 62
    7
 10
1807.6267406403631
 20
1592.6225979287683
 11
1806.1331287998978
 21
1592.6225979287683
  0
LINE
  8
_0-0_0
  6
CONTINUOUS
 62
    7
 10
1806.1331287998978
 20
1592.6225979287683
 11
1755.6325493916279
 21
1592.6225979287683
  0
LINE
  8
_0-0_0
  6
CONTINUOUS
 62
    7
 10
1755.6325493916279
 20
1592.6225979287683
 11
1754.1302537613938
 21
1592.622597928769
  0
LINE
  8
_0-0_0
  6
CONTINUOUS
 62
    7
 10
1754.1302537613938
 20
1592.622597928769
 11
1748.8860988817739
 21
1592.6225979287683
  0
LINE
  8
_0-0_0
  6
CONTINUOUS
 62
    7
 10
1748.8860988817739
 20
1592.6225979287683
 11
1748.8852447402271
 21
1592.6225979287683
  0
ARC
  8
_0-0_0
  6
CONTINUOUS
 62
    7
 10
1647.3576407649107
 20
1512.5243969666451
 40
99.911970487861893
 50
126.70842758518918
 51
143.2915724148107
  0
LINE
  8
_0-0_0
  6
CONTINUOUS
 62
    7
 10
1567.2594398027879
 20
1572.246085233126
 11
1567.256577981384
 21
1456.249109842478
  0
ARC
  8
_0-0_0
  6
CONTINUOUS
 62
    7
 10
1645.1894468879891
 20
1513.801572804083
 40
96.88043171332825
 50
216.4454107079338
 51
233.5490898472278
  0
LINE
  8
_0-0_0
  6
CONTINUOUS
 62
    7
 10
1587.62950392826
 20
1435.874228338653
 11
1592.8809615195969
 21
1435.867166893021
  0
LINE
  8
_0-0_0
  6
CONTINUOUS
 62
    7
 10
1592.8809615195969
 20
1435.867166893021
 11
1594.383257149831
 21
1435.867166893021
  0
LINE
  8
_0-0_0
  6
CONTINUOUS
 62
    7
 10
1594.383257149831
 20
1435.867166893021
 11
1644.8838365581018
 21
1435.867166893021
  0
LINE
  8
_0-0_0
  6
CONTINUOUS
 62
    7
 10
1644.8838365581018
 20
1435.867166893021
 11
1646.377448398566
 21
1435.867166893021
  0
LINE
  8
_0-0_0
  6
CONTINUOUS
 62
    7
 10
1646.377448398566
 20
1435.867166893021
 11
1696.882369701721
 21
1435.867166893021
  0
LINE
  8
_0-0_0
  6
CONTINUOUS
 62
    7
 10
1696.882369701721
 20
1435.867166893021
 11
1698.3846653319561
 21
1435.867166893021
  0
LINE
  8
_0-0_0
  6
CONTINUOUS
 62
    7
 10
1698.3846653319561
 20
1435.867166893021
 11
1703.6296743531229
 21
1435.867166893021
  0
ARC
  8
_0-0_0
  6
CONTINUOUS
 62
    7
 10
1646.4389434949021
 20
1513.4344104468842
 40
96.37145307943544
 50
306.40154413119956
 51
323.59845586880033
  0
LINE
  8
_0-0_0
  6
CONTINUOUS
 62
    7
 10
1724.006187048765
 20
1456.2436795886631
 11
1724.006187048765
 21
1572.246085233126
  0
ARC
  8
_0-0_0
  6
CONTINUOUS
 62
    7
 10
1645.7968752725551
 20
1514.4102817836549
 40
97.271149932312056
 50
36.482933758849718
 51
53.514801144306148
  0
LINE
  8
_0-0_0
  6
CONTINUOUS
 62
    7
 10
1703.6357705566641
 20
1592.6173070529239
 11
1698.3846653319561
 21
1592.6225979287683
  0
LINE
  8
_0-0_0
  6
CONTINUOUS
 62
    7
 10
1698.3846653319561
 20
1592.6225979287683
 11
1696.882369701721
 21
1592.6225979287683
  0
LINE
  8
_0-0_0
  6
CONTINUOUS
 62
    7
 10
1696.882369701721
 20
1592.6225979287683
 11
1646.377448398566
 21
1592.6225979287683
  0
LINE
  8
_0-0_0
  6
CONTINUOUS
 62
    7
 10
1646.377448398566
 20
1592.6225979287683
 11
1644.8838365581018
 21
1592.6225979287683
  0
LINE
  8
_0-0_0
  6
CONTINUOUS
 62
    7
 10
1644.8838365581018
 20
1592.6225979287683
 11
1594.383257149831
 21
1592.6225979287683
  0
LINE
  8
_0-0_0
  6
CONTINUOUS
 62
    7
 10
1594.383257149831
 20
1592.6225979287683
 11
1592.8809615195969
 21
1592.622597928769
  0
LINE
  8
_0-0_0
  6
CONTINUOUS
 62
    7
 10
1592.8809615195969
 20
1592.622597928769
 11
1587.6368066399773
 21
1592.6225979287683
  0
LINE
  8
_0-0_0
  6
CONTINUOUS
 62
    7
 10
1587.6368066399773
 20
1592.6225979287683
 11
1587.63595249843
 21
1592.6225979287683
  0
ARC
  8
_0-0_0
  6
CONTINUOUS
 62
    7
 10
1486.1040066282289
 20
1512.5243969666467
 40
99.911970487860771
 50
126.7084275851899
 51
143.29157241481141
  0
LINE
  8
_0-0_0
  6
CONTINUOUS
 62
    7
 10
1406.005805666106
 20
1572.246085233126
 11
1406.002943844702
 21
1456.249109842478
  0
ARC
  8
_0-0_0
  6
CONTINUOUS
 62
    7
 10
1483.9358127513069
 20
1513.8015728040841
 40
96.880431713329415
 50
216.44541070793454
 51
233.54908984722852
  0
LINE
  8
_0-0_0
  6
CONTINUOUS
 62
    7
 10
1426.3758697915778
 20
1435.874228338653
 11
1431.627327382914
 21
1435.867166893021
  0
LINE
  8
_0-0_0
  6
CONTINUOUS
 62
    7
 10
1431.627327382914
 20
1435.867166893021
 11
1433.12962301315
 21
1435.867166893021
  0
LINE
  8
_0-0_0
  6
CONTINUOUS
 62
    7
 10
1433.12962301315
 20
1435.867166893021
 11
1483.6302024214201
 21
1435.867166893021
  0
LINE
  8
_0-0_0
  6
CONTINUOUS
 62
    7
 10
1483.6302024214201
 20
1435.867166893021
 11
1485.123814261884
 21
1435.867166893021
  0
LINE
  8
_0-0_0
  6
CONTINUOUS
 62
    7
 10
1485.123814261884
 20
1435.867166893021
 11
1535.6287355650393
 21
1435.867166893021
  0
LINE
  8
_0-0_0
  6
CONTINUOUS
 62
    7
 10
1535.6287355650393
 20
1435.867166893021
 11
1537.1310311952741
 21
1435.867166893021
  0
LINE
  8
_0-0_0
  6
CONTINUOUS
 62
    7
 10
1537.1310311952741
 20
1435.867166893021
 11
1542.3760402164421
 21
1435.867166893021
  0
ARC
  8
_0-0_0
  6
CONTINUOUS
 62
    7
 10
1485.1853093582199
 20
1513.4344104468821
 40
96.371453079434289
 50
306.4015441312003
 51
323.59845586880112
  0
LINE
  8
_0-0_0
  6
CONTINUOUS
 62
    7
 10
1562.752552912083
 20
1456.2436795886631
 11
1562.752552912083
 21
1572.246085233126
  0
ARC
  8
_0-0_0
  6
CONTINUOUS
 62
    7
 10
1484.5432411358729
 20
1514.4102817836549
 40
97.271149932312056
 50
36.482933758849718
 51
53.514801144306148
  0
LINE
  8
_0-0_0
  6
CONTINUOUS
 62
    7
 10
1542.3821364199821
 20
1592.6173070529239
 11
1537.1310311952741
 21
1592.6225979287683
  0
LINE
  8
_0-0_0
  6
CONTINUOUS
 62
    7
 10
1537.1310311952741
 20
1592.6225979287683
 11
1535.6287355650393
 21
1592.6225979287683
  0
LINE
  8
_0-0_0
  6
CONTINUOUS
 62
    7
 10
1535.6287355650393
 20
1592.6225979287683
 11
1485.123814261884
 21
1592.6225979287683
  0
LINE
  8
_0-0_0
  6
CONTINUOUS
 62
    7
 10
1485.123814261884
 20
1592.6225979287683
 11
1483.6302024214201
 21
1592.6225979287683
  0
LINE
  8
_0-0_0
  6
CONTINUOUS
 62
    7
 10
1483.6302024214201
 20
1592.6225979287683
 11
1433.12962301315
 21
1592.6225979287683
  0
LINE
  8
_0-0_0
  6
CONTINUOUS
 62
    7
 10
1433.12962301315
 20
1592.6225979287683
 11
1431.627327382914
 21
1592.622597928769
  0
LINE
  8
_0-0_0
  6
CONTINUOUS
 62
    7
 10
1431.627327382914
 20
1592.622597928769
 11
1426.383172503296
 21
1592.6225979287683
  0
LINE
  8
_0-0_0
  6
CONTINUOUS
 62
    7
 10
1426.383172503296
 20
1592.6225979287683
 11
1426.382318361748
 21
1592.6225979287683
  0
ARC
  8
_0-0_0
  6
CONTINUOUS
 62
    7
 10
1324.8503724915468
 20
1512.524396966644
 40
99.911970487862874
 50
126.7084275851887
 51
143.29157241481019
  0
LINE
  8
_0-0_0
  6
CONTINUOUS
 62
    7
 10
1244.752171529424
 20
1572.246085233126
 11
1244.7493097080201
 21
1456.249109842478
  0
ARC
  8
_0-0_0
  6
CONTINUOUS
 62
    7
 10
1322.6821786146249
 20
1513.801572804083
 40
96.88043171332825
 50
216.4454107079338
 51
233.5490898472278
  0
LINE
  8
_0-0_0
  6
CONTINUOUS
 62
    7
 10
1265.122235654896
 20
1435.874228338653
 11
1270.373693246233
 21
1435.867166893021
  0
LINE
  8
_0-0_0
  6
CONTINUOUS
 62
    7
 10
1270.373693246233
 20
1435.867166893021
 11
1271.875988876468
 21
1435.867166893021
  0
LINE
  8
_0-0_0
  6
CONTINUOUS
 62
    7
 10
1271.875988876468
 20
1435.867166893021
 11
1322.3765682847379
 21
1435.867166893021
  0
LINE
  8
_0-0_0
  6
CONTINUOUS
 62
    7
 10
1322.3765682847379
 20
1435.867166893021
 11
1323.8701801252028
 21
1435.867166893021
  0
LINE
  8
_0-0_0
  6
CONTINUOUS
 62
    7
 10
1323.8701801252028
 20
1435.867166893021
 11
1374.375101428358
 21
1435.867166893021
  0
LINE
  8
_0-0_0
  6
CONTINUOUS
 62
    7
 10
1374.375101428358
 20
1435.867166893021
 11
1375.8773970585917
 21
1435.867166893021
  0
LINE
  8
_0-0_0
  6
CONTINUOUS
 62
    7
 10
1375.8773970585917
 20
1435.867166893021
 11
1381.122406079759
 21
1435.867166893021
  0
ARC
  8
_0-0_0
  6
CONTINUOUS
 62
    7
 10
1323.9316752215379
 20
1513.434410446886
 40
96.371453079436606
 50
306.40154413119888
 51
323.5984558687997
  0
LINE
  8
_0-0_0
  6
CONTINUOUS
 62
    7
 10
1401.498918775402
 20
1456.2436795886631
 11
1401.498918775402
 21
1572.246085233126
  0
ARC
  8
_0-0_0
  6
CONTINUOUS
 62
    7
 10
1323.2896069991909
 20
1514.4102817836531
 40
97.271149932313165
 50
36.482933758850393
 51
53.514801144306823
  0
LINE
  8
_0-0_0
  6
CONTINUOUS
 62
    7
 10
1381.1285022832999
 20
1592.6173070529239
 11
1375.8773970585917
 21
1592.6225979287683
  0
LINE
  8
_0-0_0
  6
CONTINUOUS
 62
    7
 10
1375.8773970585917
 20
1592.6225979287683
 11
1374.375101428358
 21
1592.6225979287683
  0
LINE
  8
_0-0_0
  6
CONTINUOUS
 62
    7
 10
1374.375101428358
 20
1592.6225979287683
 11
1323.8701801252028
 21
1592.6225979287683
  0
LINE
  8
_0-0_0
  6
CONTINUOUS
 62
    7
 10
1323.8701801252028
 20
1592.6225979287683
 11
1322.3765682847379
 21
1592.6225979287683
  0
LINE
  8
_0-0_0
  6
CONTINUOUS
 62
    7
 10
1322.3765682847379
 20
1592.6225979287683
 11
1271.875988876468
 21
1592.6225979287683
  0
LINE
  8
_0-0_0
  6
CONTINUOUS
 62
    7
 10
1271.875988876468
 20
1592.6225979287683
 11
1270.373693246233
 21
1592.622597928769
  0
LINE
  8
_0-0_0
  6
CONTINUOUS
 62
    7
 10
1270.373693246233
 20
1592.622597928769
 11
1265.129538366614
 21
1592.6225979287683
  0
LINE
  8
_0-0_0
  6
CONTINUOUS
 62
    7
 10
1265.129538366614
 20
1592.6225979287683
 11
1265.1286842250661
 21
1592.6225979287683
  0
ARC
  8
_0-0_0
  6
CONTINUOUS
 62
    7
 10
1969.8605671433891
 20
1352.877263937442
 40
99.911970487860771
 50
126.7084275851899
 51
143.29157241481141
  0
LINE
  8
_0-0_0
  6
CONTINUOUS
 62
    7
 10
1889.762366181267
 20
1412.598952203921
 11
1889.7595043598619
 21
1296.601976813273
  0
ARC
  8
_0-0_0
  6
CONTINUOUS
 62
    7
 10
1967.692373266467
 20
1354.1544397748789
 40
96.880431713329415
 50
216.44541070793454
 51
233.54908984722852
  0
LINE
  8
_0-0_0
  6
CONTINUOUS
 62
    7
 10
1910.1324303067377
 20
1276.227095309448
 11
1915.383887898076
 21
1276.2200338638161
  0
LINE
  8
_0-0_0
  6
CONTINUOUS
 62
    7
 10
1915.383887898076
 20
1276.2200338638161
 11
1916.8861835283101
 21
1276.2200338638161
  0
LINE
  8
_0-0_0
  6
CONTINUOUS
 62
    7
 10
1916.8861835283101
 20
1276.2200338638161
 11
1967.38676293658
 21
1276.2200338638161
  0
LINE
  8
_0-0_0
  6
CONTINUOUS
 62
    7
 10
1967.38676293658
 20
1276.2200338638161
 11
1968.8803747770439
 21
1276.2200338638161
  0
LINE
  8
_0-0_0
  6
CONTINUOUS
 62
    7
 10
1968.8803747770439
 20
1276.2200338638161
 11
2019.385296080201
 21
1276.2200338638161
  0
LINE
  8
_0-0_0
  6
CONTINUOUS
 62
    7
 10
2019.385296080201
 20
1276.2200338638161
 11
2020.8875917104347
 21
1276.2200338638161
  0
LINE
  8
_0-0_0
  6
CONTINUOUS
 62
    7
 10
2020.8875917104347
 20
1276.2200338638161
 11
2026.132600731602
 21
1276.2200338638161
  0
ARC
  8
_0-0_0
  6
CONTINUOUS
 62
    7
 10
1968.94186987338
 20
1353.7872774176772
 40
96.371453079434289
 50
306.4015441312003
 51
323.59845586880112
  0
LINE
  8
_0-0_0
  6
CONTINUOUS
 62
    7
 10
2046.5091134272429
 20
1296.596546559457
 11
2046.5091134272429
 21
1412.598952203921
  0
ARC
  8
_0-0_0
  6
CONTINUOUS
 62
    7
 10
1968.299801651033
 20
1354.7631487544529
 40
97.271149932309925
 50
36.482933758848482
 51
53.514801144304911
  0
LINE
  8
_0-0_0
  6
CONTINUOUS
 62
    7
 10
2026.1386969351429
 20
1432.970174023719
 11
2020.8875917104347
 21
1432.9754648995631
  0
LINE
  8
_0-0_0
  6
CONTINUOUS
 62
    7
 10
2020.8875917104347
 20
1432.9754648995631
 11
2019.385296080201
 21
1432.9754648995631
  0
LINE
  8
_0-0_0
  6
CONTINUOUS
 62
    7
 10
2019.385296080201
 20
1432.9754648995631
 11
1968.8803747770439
 21
1432.9754648995631
  0
LINE
  8
_0-0_0
  6
CONTINUOUS
 62
    7
 10
1968.8803747770439
 20
1432.9754648995631
 11
1967.38676293658
 21
1432.9754648995631
  0
LINE
  8
_0-0_0
  6
CONTINUOUS
 62
    7
 10
1967.38676293658
 20
1432.9754648995631
 11
1916.8861835283101
 21
1432.9754648995631
  0
LINE
  8
_0-0_0
  6
CONTINUOUS
 62
    7
 10
1916.8861835283101
 20
1432.9754648995631
 11
1915.383887898076
 21
1432.975464899564
  0
LINE
  8
_0-0_0
  6
CONTINUOUS
 62
    7
 10
1915.383887898076
 20
1432.975464899564
 11
1910.1397330184559
 21
1432.9754648995631
  0
LINE
  8
_0-0_0
  6
CONTINUOUS
 62
    7
 10
1910.1397330184559
 20
1432.9754648995631
 11
1910.1388788769079
 21
1432.9754648995631
  0
ARC
  8
_0-0_0
  6
CONTINUOUS
 62
    7
 10
1808.606933006708
 20
1352.877263937439
 40
99.911970487862874
 50
126.7084275851887
 51
143.29157241481019
  0
LINE
  8
_0-0_0
  6
CONTINUOUS
 62
    7
 10
1728.5087320445839
 20
1412.598952203921
 11
1728.50587022318
 21
1296.601976813273
  0
ARC
  8
_0-0_0
  6
CONTINUOUS
 62
    7
 10
1806.4387391297851
 20
1354.1544397748771
 40
96.88043171332825
 50
216.4454107079338
 51
233.5490898472278
  0
LINE
  8
_0-0_0
  6
CONTINUOUS
 62
    7
 10
1748.8787961700559
 20
1276.227095309448
 11
1754.1302537613938
 21
1276.2200338638161
  0
LINE
  8
_0-0_0
  6
CONTINUOUS
 62
    7
 10
1754.1302537613938
 20
1276.2200338638161
 11
1755.6325493916279
 21
1276.2200338638161
  0
LINE
  8
_0-0_0
  6
CONTINUOUS
 62
    7
 10
1755.6325493916279
 20
1276.2200338638161
 11
1806.1331287998978
 21
1276.2200338638161
  0
LINE
  8
_0-0_0
  6
CONTINUOUS
 62
    7
 10
1806.1331287998978
 20
1276.2200338638161
 11
1807.6267406403631
 21
1276.2200338638161
  0
LINE
  8
_0-0_0
  6
CONTINUOUS
 62
    7
 10
1807.6267406403631
 20
1276.2200338638161
 11
1858.1316619435179
 21
1276.2200338638161
  0
LINE
  8
_0-0_0
  6
CONTINUOUS
 62
    7
 10
1858.1316619435179
 20
1276.2200338638161
 11
1859.6339575737529
 21
1276.2200338638161
  0
LINE
  8
_0-0_0
  6
CONTINUOUS
 62
    7
 10
1859.6339575737529
 20
1276.2200338638161
 11
1864.87896659492
 21
1276.2200338638161
  0
ARC
  8
_0-0_0
  6
CONTINUOUS
 62
    7
 10
1807.688235736699
 20
1353.7872774176801
 40
96.371453079436606
 50
306.40154413119888
 51
323.5984558687997
  0
LINE
  8
_0-0_0
  6
CONTINUOUS
 62
    7
 10
1885.2554792905621
 20
1296.596546559457
 11
1885.2554792905621
 21
1412.598952203921
  0
ARC
  8
_0-0_0
  6
CONTINUOUS
 62
    7
 10
1807.0461675143511
 20
1354.763148754447
 40
97.271149932314316
 50
36.482933758851068
 51
53.514801144307476
  0
LINE
  8
_0-0_0
  6
CONTINUOUS
 62
    7
 10
1864.88506279846
 20
1432.970174023719
 11
1859.6339575737529
 21
1432.9754648995631
  0
LINE
  8
_0-0_0
  6
CONTINUOUS
 62
    7
 10
1859.6339575737529
 20
1432.9754648995631
 11
1858.1316619435179
 21
1432.9754648995631
  0
LINE
  8
_0-0_0
  6
CONTINUOUS
 62
    7
 10
1858.1316619435179
 20
1432.9754648995631
 11
1807.6267406403631
 21
1432.9754648995631
  0
LINE
  8
_0-0_0
  6
CONTINUOUS
 62
    7
 10
1807.6267406403631
 20
1432.9754648995631
 11
1806.1331287998978
 21
1432.9754648995631
  0
LINE
  8
_0-0_0
  6
CONTINUOUS
 62
    7
 10
1806.1331287998978
 20
1432.9754648995631
 11
1755.6325493916279
 21
1432.9754648995631
  0
LINE
  8
_0-0_0
  6
CONTINUOUS
 62
    7
 10
1755.6325493916279
 20
1432.9754648995631
 11
1754.1302537613938
 21
1432.975464899564
  0
LINE
  8
_0-0_0
  6
CONTINUOUS
 62
    7
 10
1754.1302537613938
 20
1432.975464899564
 11
1748.8860988817739
 21
1432.9754648995631
  0
LINE
  8
_0-0_0
  6
CONTINUOUS
 62
    7
 10
1748.8860988817739
 20
1432.9754648995631
 11
1748.8852447402271
 21
1432.9754648995631
  0
ARC
  8
_0-0_0
  6
CONTINUOUS
 62
    7
 10
1647.3576407649107
 20
1352.8772639374397
 40
99.911970487861893
 50
126.70842758518918
 51
143.2915724148107
  0
LINE
  8
_0-0_0
  6
CONTINUOUS
 62
    7
 10
1567.2594398027879
 20
1412.598952203921
 11
1567.256577981384
 21
1296.601976813273
  0
ARC
  8
_0-0_0
  6
CONTINUOUS
 62
    7
 10
1645.1894468879891
 20
1354.1544397748771
 40
96.88043171332825
 50
216.4454107079338
 51
233.5490898472278
  0
LINE
  8
_0-0_0
  6
CONTINUOUS
 62
    7
 10
1587.62950392826
 20
1276.227095309448
 11
1592.8809615195969
 21
1276.2200338638161
  0
LINE
  8
_0-0_0
  6
CONTINUOUS
 62
    7
 10
1592.8809615195969
 20
1276.2200338638161
 11
1594.383257149831
 21
1276.2200338638161
  0
LINE
  8
_0-0_0
  6
CONTINUOUS
 62
    7
 10
1594.383257149831
 20
1276.2200338638161
 11
1644.8838365581018
 21
1276.2200338638161
  0
LINE
  8
_0-0_0
  6
CONTINUOUS
 62
    7
 10
1644.8838365581018
 20
1276.2200338638161
 11
1646.377448398566
 21
1276.2200338638161
  0
LINE
  8
_0-0_0
  6
CONTINUOUS
 62
    7
 10
1646.377448398566
 20
1276.2200338638161
 11
1696.882369701721
 21
1276.2200338638161
  0
LINE
  8
_0-0_0
  6
CONTINUOUS
 62
    7
 10
1696.882369701721
 20
1276.2200338638161
 11
1698.3846653319561
 21
1276.2200338638161
  0
LINE
  8
_0-0_0
  6
CONTINUOUS
 62
    7
 10
1698.3846653319561
 20
1276.2200338638161
 11
1703.6296743531229
 21
1276.2200338638161
  0
ARC
  8
_0-0_0
  6
CONTINUOUS
 62
    7
 10
1646.4389434949021
 20
1353.787277417679
 40
96.37145307943544
 50
306.40154413119956
 51
323.59845586880033
  0
LINE
  8
_0-0_0
  6
CONTINUOUS
 62
    7
 10
1724.006187048765
 20
1296.596546559457
 11
1724.006187048765
 21
1412.598952203921
  0
ARC
  8
_0-0_0
  6
CONTINUOUS
 62
    7
 10
1645.7968752725551
 20
1354.76314875445
 40
97.271149932312056
 50
36.482933758849718
 51
53.514801144306148
  0
LINE
  8
_0-0_0
  6
CONTINUOUS
 62
    7
 10
1703.6357705566641
 20
1432.970174023719
 11
1698.3846653319561
 21
1432.9754648995631
  0
LINE
  8
_0-0_0
  6
CONTINUOUS
 62
    7
 10
1698.3846653319561
 20
1432.9754648995631
 11
1696.882369701721
 21
1432.9754648995631
  0
LINE
  8
_0-0_0
  6
CONTINUOUS
 62
    7
 10
1696.882369701721
 20
1432.9754648995631
 11
1646.377448398566
 21
1432.9754648995631
  0
LINE
  8
_0-0_0
  6
CONTINUOUS
 62
    7
 10
1646.377448398566
 20
1432.9754648995631
 11
1644.8838365581018
 21
1432.9754648995631
  0
LINE
  8
_0-0_0
  6
CONTINUOUS
 62
    7
 10
1644.8838365581018
 20
1432.9754648995631
 11
1594.383257149831
 21
1432.9754648995631
  0
LINE
  8
_0-0_0
  6
CONTINUOUS
 62
    7
 10
1594.383257149831
 20
1432.9754648995631
 11
1592.8809615195969
 21
1432.975464899564
  0
LINE
  8
_0-0_0
  6
CONTINUOUS
 62
    7
 10
1592.8809615195969
 20
1432.975464899564
 11
1587.6368066399773
 21
1432.9754648995631
  0
LINE
  8
_0-0_0
  6
CONTINUOUS
 62
    7
 10
1587.6368066399773
 20
1432.9754648995631
 11
1587.63595249843
 21
1432.9754648995631
  0
ARC
  8
_0-0_0
  6
CONTINUOUS
 62
    7
 10
1486.110562577916
 20
1352.886800798261
 40
99.911970487860771
 50
126.7084275851899
 51
143.29157241481141
  0
LINE
  8
_0-0_0
  6
CONTINUOUS
 62
    7
 10
1406.012361615793
 20
1412.6084890647412
 11
1406.0094997943888
 21
1296.611513674093
  0
ARC
  8
_0-0_0
  6
CONTINUOUS
 62
    7
 10
1483.9423687009939
 20
1354.1639766356991
 40
96.880431713329415
 50
216.44541070793454
 51
233.54908984722852
  0
LINE
  8
_0-0_0
  6
CONTINUOUS
 62
    7
 10
1426.382425741265
 20
1276.236632170268
 11
1431.633883332602
 21
1276.229570724636
  0
LINE
  8
_0-0_0
  6
CONTINUOUS
 62
    7
 10
1431.633883332602
 20
1276.229570724636
 11
1433.1361789628368
 21
1276.229570724636
  0
LINE
  8
_0-0_0
  6
CONTINUOUS
 62
    7
 10
1433.1361789628368
 20
1276.229570724636
 11
1483.6367583711069
 21
1276.229570724636
  0
LINE
  8
_0-0_0
  6
CONTINUOUS
 62
    7
 10
1483.6367583711069
 20
1276.229570724636
 11
1485.1303702115711
 21
1276.229570724636
  0
LINE
  8
_0-0_0
  6
CONTINUOUS
 62
    7
 10
1485.1303702115711
 20
1276.229570724636
 11
1535.635291514727
 21
1276.229570724636
  0
LINE
  8
_0-0_0
  6
CONTINUOUS
 62
    7
 10
1535.635291514727
 20
1276.229570724636
 11
1537.137587144962
 21
1276.229570724636
  0
LINE
  8
_0-0_0
  6
CONTINUOUS
 62
    7
 10
1537.137587144962
 20
1276.229570724636
 11
1542.3825961661287
 21
1276.229570724636
  0
ARC
  8
_0-0_0
  6
CONTINUOUS
 62
    7
 10
1485.1918653079069
 20
1353.7968142784971
 40
96.371453079434289
 50
306.4015441312003
 51
323.59845586880112
  0
LINE
  8
_0-0_0
  6
CONTINUOUS
 62
    7
 10
1562.7591088617701
 20
1296.6060834202769
 11
1562.7591088617701
 21
1412.6084890647412
  0
ARC
  8
_0-0_0
  6
CONTINUOUS
 62
    7
 10
1484.5497970855599
 20
1354.7726856152701
 40
97.271149932312056
 50
36.482933758849718
 51
53.514801144306148
  0
LINE
  8
_0-0_0
  6
CONTINUOUS
 62
    7
 10
1542.3886923696687
 20
1432.9797108845389
 11
1537.137587144962
 21
1432.9850017603831
  0
LINE
  8
_0-0_0
  6
CONTINUOUS
 62
    7
 10
1537.137587144962
 20
1432.9850017603831
 11
1535.635291514727
 21
1432.9850017603831
  0
LINE
  8
_0-0_0
  6
CONTINUOUS
 62
    7
 10
1535.635291514727
 20
1432.9850017603831
 11
1485.1303702115711
 21
1432.9850017603831
  0
LINE
  8
_0-0_0
  6
CONTINUOUS
 62
    7
 10
1485.1303702115711
 20
1432.9850017603831
 11
1483.6367583711069
 21
1432.9850017603831
  0
LINE
  8
_0-0_0
  6
CONTINUOUS
 62
    7
 10
1483.6367583711069
 20
1432.9850017603831
 11
1433.1361789628368
 21
1432.9850017603831
  0
LINE
  8
_0-0_0
  6
CONTINUOUS
 62
    7
 10
1433.1361789628368
 20
1432.9850017603831
 11
1431.633883332602
 21
1432.9850017603831
  0
LINE
  8
_0-0_0
  6
CONTINUOUS
 62
    7
 10
1431.633883332602
 20
1432.9850017603831
 11
1426.3897284529819
 21
1432.9850017603831
  0
LINE
  8
_0-0_0
  6
CONTINUOUS
 62
    7
 10
1426.3897284529819
 20
1432.9850017603831
 11
1426.3888743114351
 21
1432.9850017603831
  0
ARC
  8
_0-0_0
  6
CONTINUOUS
 62
    7
 10
1324.8503724915468
 20
1352.877263937439
 40
99.911970487862874
 50
126.7084275851887
 51
143.29157241481019
  0
LINE
  8
_0-0_0
  6
CONTINUOUS
 62
    7
 10
1244.752171529424
 20
1412.598952203921
 11
1244.7493097080201
 21
1296.601976813273
  0
ARC
  8
_0-0_0
  6
CONTINUOUS
 62
    7
 10
1322.6821786146249
 20
1354.1544397748771
 40
96.88043171332825
 50
216.4454107079338
 51
233.5490898472278
  0
LINE
  8
_0-0_0
  6
CONTINUOUS
 62
    7
 10
1265.122235654896
 20
1276.227095309448
 11
1270.373693246233
 21
1276.2200338638161
  0
LINE
  8
_0-0_0
  6
CONTINUOUS
 62
    7
 10
1270.373693246233
 20
1276.2200338638161
 11
1271.875988876468
 21
1276.2200338638161
  0
LINE
  8
_0-0_0
  6
CONTINUOUS
 62
    7
 10
1271.875988876468
 20
1276.2200338638161
 11
1322.3765682847379
 21
1276.2200338638161
  0
LINE
  8
_0-0_0
  6
CONTINUOUS
 62
    7
 10
1322.3765682847379
 20
1276.2200338638161
 11
1323.8701801252028
 21
1276.2200338638161
  0
LINE
  8
_0-0_0
  6
CONTINUOUS
 62
    7
 10
1323.8701801252028
 20
1276.2200338638161
 11
1374.375101428358
 21
1276.2200338638161
  0
LINE
  8
_0-0_0
  6
CONTINUOUS
 62
    7
 10
1374.375101428358
 20
1276.2200338638161
 11
1375.8773970585917
 21
1276.2200338638161
  0
LINE
  8
_0-0_0
  6
CONTINUOUS
 62
    7
 10
1375.8773970585917
 20
1276.2200338638161
 11
1381.122406079759
 21
1276.2200338638161
  0
ARC
  8
_0-0_0
  6
CONTINUOUS
 62
    7
 10
1323.9316752215379
 20
1353.7872774176801
 40
96.371453079436606
 50
306.40154413119888
 51
323.5984558687997
  0
LINE
  8
_0-0_0
  6
CONTINUOUS
 62
    7
 10
1401.498918775402
 20
1296.596546559457
 11
1401.498918775402
 21
1412.598952203921
  0
ARC
  8
_0-0_0
  6
CONTINUOUS
 62
    7
 10
1323.2896069991909
 20
1354.7631487544479
 40
97.271149932313165
 50
36.482933758850393
 51
53.514801144306823
  0
LINE
  8
_0-0_0
  6
CONTINUOUS
 62
    7
 10
1381.1285022832999
 20
1432.970174023719
 11
1375.8773970585917
 21
1432.9754648995631
  0
LINE
  8
_0-0_0
  6
CONTINUOUS
 62
    7
 10
1375.8773970585917
 20
1432.9754648995631
 11
1374.375101428358
 21
1432.9754648995631
  0
LINE
  8
_0-0_0
  6
CONTINUOUS
 62
    7
 10
1374.375101428358
 20
1432.9754648995631
 11
1323.8701801252028
 21
1432.9754648995631
  0
LINE
  8
_0-0_0
  6
CONTINUOUS
 62
    7
 10
1323.8701801252028
 20
1432.9754648995631
 11
1322.3765682847379
 21
1432.9754648995631
  0
LINE
  8
_0-0_0
  6
CONTINUOUS
 62
    7
 10
1322.3765682847379
 20
1432.9754648995631
 11
1271.875988876468
 21
1432.9754648995631
  0
LINE
  8
_0-0_0
  6
CONTINUOUS
 62
    7
 10
1271.875988876468
 20
1432.9754648995631
 11
1270.373693246233
 21
1432.975464899564
  0
LINE
  8
_0-0_0
  6
CONTINUOUS
 62
    7
 10
1270.373693246233
 20
1432.975464899564
 11
1265.129538366614
 21
1432.9754648995631
  0
LINE
  8
_0-0_0
  6
CONTINUOUS
 62
    7
 10
1265.129538366614
 20
1432.9754648995631
 11
1265.1286842250661
 21
1432.9754648995631
  0
ARC
  8
_0-0_0
  6
CONTINUOUS
 62
    7
 10
1969.8605671433911
 20
2630.883630094133
 40
99.911970487861765
 50
126.70842758519041
 51
143.2915724148119
  0
LINE
  8
_0-0_0
  6
CONTINUOUS
 62
    7
 10
1889.762366181267
 20
2690.6053183606118
 11
1889.7595043598619
 21
2574.6083429699638
  0
ARC
  8
_0-0_0
  6
CONTINUOUS
 62
    7
 10
1967.692373266465
 20
2632.1608059315704
 40
96.88043171332825
 50
216.4454107079352
 51
233.5490898472292
  0
LINE
  8
_0-0_0
  6
CONTINUOUS
 62
    7
 10
1910.1324303067377
 20
2554.2334614661399
 11
1915.383887898076
 21
2554.2264000205068
  0
LINE
  8
_0-0_0
  6
CONTINUOUS
 62
    7
 10
1915.383887898076
 20
2554.2264000205068
 11
1916.8861835283101
 21
2554.2264000205068
  0
LINE
  8
_0-0_0
  6
CONTINUOUS
 62
    7
 10
1916.8861835283101
 20
2554.2264000205068
 11
1967.38676293658
 21
2554.2264000205068
  0
LINE
  8
_0-0_0
  6
CONTINUOUS
 62
    7
 10
1967.38676293658
 20
2554.2264000205068
 11
1968.8803747770439
 21
2554.2264000205068
  0
LINE
  8
_0-0_0
  6
CONTINUOUS
 62
    7
 10
1968.8803747770439
 20
2554.2264000205068
 11
2019.385296080201
 21
2554.2264000205068
  0
LINE
  8
_0-0_0
  6
CONTINUOUS
 62
    7
 10
2019.385296080201
 20
2554.2264000205068
 11
2020.8875917104347
 21
2554.2264000205068
  0
LINE
  8
_0-0_0
  6
CONTINUOUS
 62
    7
 10
2020.8875917104347
 20
2554.2264000205068
 11
2026.132600731602
 21
2554.2264000205068
  0
ARC
  8
_0-0_0
  6
CONTINUOUS
 62
    7
 10
1968.9418698733821
 20
2631.7936435743686
 40
96.371453079433167
 50
306.40154413119956
 51
323.59845586880033
  0
LINE
  8
_0-0_0
  6
CONTINUOUS
 62
    7
 10
2046.5091134272429
 20
2574.6029127161491
 11
2046.5091134272429
 21
2690.6053183606118
  0
ARC
  8
_0-0_0
  6
CONTINUOUS
 62
    7
 10
1968.2998016510319
 20
2632.7695149111441
 40
97.271149932310948
 50
36.482933758847707
 51
53.514801144304137
  0
LINE
  8
_0-0_0
  6
CONTINUOUS
 62
    7
 10
2026.1386969351429
 20
2710.9765401804111
 11
2020.8875917104347
 21
2710.9818310562541
  0
LINE
  8
_0-0_0
  6
CONTINUOUS
 62
    7
 10
2020.8875917104347
 20
2710.9818310562541
 11
2019.385296080201
 21
2710.9818310562541
  0
LINE
  8
_0-0_0
  6
CONTINUOUS
 62
    7
 10
2019.385296080201
 20
2710.9818310562541
 11
1968.8803747770439
 21
2710.9818310562541
  0
LINE
  8
_0-0_0
  6
CONTINUOUS
 62
    7
 10
1968.8803747770439
 20
2710.9818310562541
 11
1967.38676293658
 21
2710.9818310562541
  0
LINE
  8
_0-0_0
  6
CONTINUOUS
 62
    7
 10
1967.38676293658
 20
2710.9818310562541
 11
1916.8861835283101
 21
2710.9818310562541
  0
LINE
  8
_0-0_0
  6
CONTINUOUS
 62
    7
 10
1916.8861835283101
 20
2710.9818310562541
 11
1915.383887898076
 21
2710.9818310562541
  0
LINE
  8
_0-0_0
  6
CONTINUOUS
 62
    7
 10
1915.383887898076
 20
2710.9818310562541
 11
1910.1397330184559
 21
2710.9818310562541
  0
LINE
  8
_0-0_0
  6
CONTINUOUS
 62
    7
 10
1910.1397330184559
 20
2710.9818310562541
 11
1910.1388788769079
 21
2710.9818310562541
  0
ARC
  8
_0-0_0
  6
CONTINUOUS
 62
    7
 10
1808.6069330067089
 20
2630.8836300941289
 40
99.911970487864025
 50
126.70842758518918
 51
143.29157241481056
  0
LINE
  8
_0-0_0
  6
CONTINUOUS
 62
    7
 10
1728.5087320445839
 20
2690.6053183606118
 11
1728.50587022318
 21
2574.6083429699638
  0
ARC
  8
_0-0_0
  6
CONTINUOUS
 62
    7
 10
1806.438739129783
 20
2632.160805931569
 40
96.880431713327255
 50
216.44541070793463
 51
233.54908984722863
  0
LINE
  8
_0-0_0
  6
CONTINUOUS
 62
    7
 10
1748.8787961700559
 20
2554.2334614661399
 11
1754.1302537613938
 21
2554.2264000205068
  0
LINE
  8
_0-0_0
  6
CONTINUOUS
 62
    7
 10
1754.1302537613938
 20
2554.2264000205068
 11
1755.6325493916279
 21
2554.2264000205068
  0
LINE
  8
_0-0_0
  6
CONTINUOUS
 62
    7
 10
1755.6325493916279
 20
2554.2264000205068
 11
1806.1331287998978
 21
2554.2264000205068
  0
LINE
  8
_0-0_0
  6
CONTINUOUS
 62
    7
 10
1806.1331287998978
 20
2554.2264000205068
 11
1807.6267406403631
 21
2554.2264000205068
  0
LINE
  8
_0-0_0
  6
CONTINUOUS
 62
    7
 10
1807.6267406403631
 20
2554.2264000205068
 11
1858.1316619435179
 21
2554.2264000205068
  0
LINE
  8
_0-0_0
  6
CONTINUOUS
 62
    7
 10
1858.1316619435179
 20
2554.2264000205068
 11
1859.6339575737529
 21
2554.2264000205068
  0
LINE
  8
_0-0_0
  6
CONTINUOUS
 62
    7
 10
1859.6339575737529
 20
2554.2264000205068
 11
1864.87896659492
 21
2554.2264000205068
  0
ARC
  8
_0-0_0
  6
CONTINUOUS
 62
    7
 10
1807.6882357367001
 20
2631.7936435743704
 40
96.37145307943544
 50
306.40154413119819
 51
323.59845586879902
  0
LINE
  8
_0-0_0
  6
CONTINUOUS
 62
    7
 10
1885.2554792905621
 20
2574.6029127161491
 11
1885.2554792905621
 21
2690.6053183606118
  0
ARC
  8
_0-0_0
  6
CONTINUOUS
 62
    7
 10
1807.0461675143499
 20
2632.7695149111382
 40
97.271149932315453
 50
36.482933758850407
 51
53.514801144306794
  0
LINE
  8
_0-0_0
  6
CONTINUOUS
 62
    7
 10
1864.88506279846
 20
2710.9765401804111
 11
1859.6339575737529
 21
2710.9818310562541
  0
LINE
  8
_0-0_0
  6
CONTINUOUS
 62
    7
 10
1859.6339575737529
 20
2710.9818310562541
 11
1858.1316619435179
 21
2710.9818310562541
  0
LINE
  8
_0-0_0
  6
CONTINUOUS
 62
    7
 10
1858.1316619435179
 20
2710.9818310562541
 11
1807.6267406403631
 21
2710.9818310562541
  0
LINE
  8
_0-0_0
  6
CONTINUOUS
 62
    7
 10
1807.6267406403631
 20
2710.9818310562541
 11
1806.1331287998978
 21
2710.9818310562541
  0
LINE
  8
_0-0_0
  6
CONTINUOUS
 62
    7
 10
1806.1331287998978
 20
2710.9818310562541
 11
1755.6325493916279
 21
2710.9818310562541
  0
LINE
  8
_0-0_0
  6
CONTINUOUS
 62
    7
 10
1755.6325493916279
 20
2710.9818310562541
 11
1754.1302537613938
 21
2710.9818310562541
  0
LINE
  8
_0-0_0
  6
CONTINUOUS
 62
    7
 10
1754.1302537613938
 20
2710.9818310562541
 11
1748.8860988817739
 21
2710.9818310562541
  0
LINE
  8
_0-0_0
  6
CONTINUOUS
 62
    7
 10
1748.8860988817739
 20
2710.9818310562541
 11
1748.8852447402271
 21
2710.9818310562541
  0
ARC
  8
_0-0_0
  6
CONTINUOUS
 62
    7
 10
1647.357640764912
 20
2630.8836300941311
 40
99.911970487862703
 50
126.7084275851899
 51
143.29157241481141
  0
LINE
  8
_0-0_0
  6
CONTINUOUS
 62
    7
 10
1567.2594398027879
 20
2690.6053183606118
 11
1567.256577981384
 21
2574.6083429699638
  0
ARC
  8
_0-0_0
  6
CONTINUOUS
 62
    7
 10
1645.1894468879871
 20
2632.160805931569
 40
96.880431713327255
 50
216.44541070793463
 51
233.54908984722863
  0
LINE
  8
_0-0_0
  6
CONTINUOUS
 62
    7
 10
1587.62950392826
 20
2554.2334614661399
 11
1592.8809615195969
 21
2554.2264000205068
  0
LINE
  8
_0-0_0
  6
CONTINUOUS
 62
    7
 10
1592.8809615195969
 20
2554.2264000205068
 11
1594.383257149831
 21
2554.2264000205068
  0
LINE
  8
_0-0_0
  6
CONTINUOUS
 62
    7
 10
1594.383257149831
 20
2554.2264000205068
 11
1644.8838365581018
 21
2554.2264000205068
  0
LINE
  8
_0-0_0
  6
CONTINUOUS
 62
    7
 10
1644.8838365581018
 20
2554.2264000205068
 11
1646.377448398566
 21
2554.2264000205068
  0
LINE
  8
_0-0_0
  6
CONTINUOUS
 62
    7
 10
1646.377448398566
 20
2554.2264000205068
 11
1696.882369701721
 21
2554.2264000205068
  0
LINE
  8
_0-0_0
  6
CONTINUOUS
 62
    7
 10
1696.882369701721
 20
2554.2264000205068
 11
1698.3846653319561
 21
2554.2264000205068
  0
LINE
  8
_0-0_0
  6
CONTINUOUS
 62
    7
 10
1698.3846653319561
 20
2554.2264000205068
 11
1703.6296743531229
 21
2554.2264000205068
  0
ARC
  8
_0-0_0
  6
CONTINUOUS
 62
    7
 10
1646.438943494903
 20
2631.79364357437
 40
96.371453079434502
 50
306.40154413119888
 51
323.59845586879959
  0
LINE
  8
_0-0_0
  6
CONTINUOUS
 62
    7
 10
1724.006187048765
 20
2574.6029127161491
 11
1724.006187048765
 21
2690.6053183606118
  0
ARC
  8
_0-0_0
  6
CONTINUOUS
 62
    7
 10
1645.7968752725533
 20
2632.7695149111414
 40
97.271149932313193
 50
36.482933758849057
 51
53.514801144305473
  0
LINE
  8
_0-0_0
  6
CONTINUOUS
 62
    7
 10
1703.6357705566641
 20
2710.9765401804111
 11
1698.3846653319561
 21
2710.9818310562541
  0
LINE
  8
_0-0_0
  6
CONTINUOUS
 62
    7
 10
1698.3846653319561
 20
2710.9818310562541
 11
1696.882369701721
 21
2710.9818310562541
  0
LINE
  8
_0-0_0
  6
CONTINUOUS
 62
    7
 10
1696.882369701721
 20
2710.9818310562541
 11
1646.377448398566
 21
2710.9818310562541
  0
LINE
  8
_0-0_0
  6
CONTINUOUS
 62
    7
 10
1646.377448398566
 20
2710.9818310562541
 11
1644.8838365581018
 21
2710.9818310562541
  0
LINE
  8
_0-0_0
  6
CONTINUOUS
 62
    7
 10
1644.8838365581018
 20
2710.9818310562541
 11
1594.383257149831
 21
2710.9818310562541
  0
LINE
  8
_0-0_0
  6
CONTINUOUS
 62
    7
 10
1594.383257149831
 20
2710.9818310562541
 11
1592.8809615195969
 21
2710.9818310562541
  0
LINE
  8
_0-0_0
  6
CONTINUOUS
 62
    7
 10
1592.8809615195969
 20
2710.9818310562541
 11
1587.6368066399773
 21
2710.9818310562541
  0
LINE
  8
_0-0_0
  6
CONTINUOUS
 62
    7
 10
1587.6368066399773
 20
2710.9818310562541
 11
1587.63595249843
 21
2710.9818310562541
  0
ARC
  8
_0-0_0
  6
CONTINUOUS
 62
    7
 10
1486.1040066282299
 20
2630.883630094133
 40
99.911970487861765
 50
126.70842758519041
 51
143.2915724148119
  0
LINE
  8
_0-0_0
  6
CONTINUOUS
 62
    7
 10
1406.005805666106
 20
2690.6053183606118
 11
1406.002943844702
 21
2574.6083429699638
  0
ARC
  8
_0-0_0
  6
CONTINUOUS
 62
    7
 10
1483.9358127513051
 20
2632.1608059315704
 40
96.88043171332825
 50
216.4454107079352
 51
233.5490898472292
  0
LINE
  8
_0-0_0
  6
CONTINUOUS
 62
    7
 10
1426.3758697915778
 20
2554.2334614661399
 11
1431.627327382914
 21
2554.2264000205068
  0
LINE
  8
_0-0_0
  6
CONTINUOUS
 62
    7
 10
1431.627327382914
 20
2554.2264000205068
 11
1433.12962301315
 21
2554.2264000205068
  0
LINE
  8
_0-0_0
  6
CONTINUOUS
 62
    7
 10
1433.12962301315
 20
2554.2264000205068
 11
1483.6302024214201
 21
2554.2264000205068
  0
LINE
  8
_0-0_0
  6
CONTINUOUS
 62
    7
 10
1483.6302024214201
 20
2554.2264000205068
 11
1485.123814261884
 21
2554.2264000205068
  0
LINE
  8
_0-0_0
  6
CONTINUOUS
 62
    7
 10
1485.123814261884
 20
2554.2264000205068
 11
1535.6287355650393
 21
2554.2264000205068
  0
LINE
  8
_0-0_0
  6
CONTINUOUS
 62
    7
 10
1535.6287355650393
 20
2554.2264000205068
 11
1537.1310311952741
 21
2554.2264000205068
  0
LINE
  8
_0-0_0
  6
CONTINUOUS
 62
    7
 10
1537.1310311952741
 20
2554.2264000205068
 11
1542.3760402164421
 21
2554.2264000205068
  0
ARC
  8
_0-0_0
  6
CONTINUOUS
 62
    7
 10
1485.1853093582217
 20
2631.7936435743686
 40
96.371453079433167
 50
306.40154413119956
 51
323.59845586880033
  0
LINE
  8
_0-0_0
  6
CONTINUOUS
 62
    7
 10
1562.752552912083
 20
2574.6029127161491
 11
1562.752552912083
 21
2690.6053183606118
  0
ARC
  8
_0-0_0
  6
CONTINUOUS
 62
    7
 10
1484.5432411358711
 20
2632.7695149111414
 40
97.271149932313193
 50
36.482933758849057
 51
53.514801144305473
  0
LINE
  8
_0-0_0
  6
CONTINUOUS
 62
    7
 10
1542.3821364199821
 20
2710.9765401804111
 11
1537.1310311952741
 21
2710.9818310562541
  0
LINE
  8
_0-0_0
  6
CONTINUOUS
 62
    7
 10
1537.1310311952741
 20
2710.9818310562541
 11
1535.6287355650393
 21
2710.9818310562541
  0
LINE
  8
_0-0_0
  6
CONTINUOUS
 62
    7
 10
1535.6287355650393
 20
2710.9818310562541
 11
1485.123814261884
 21
2710.9818310562541
  0
LINE
  8
_0-0_0
  6
CONTINUOUS
 62
    7
 10
1485.123814261884
 20
2710.9818310562541
 11
1483.6302024214201
 21
2710.9818310562541
  0
LINE
  8
_0-0_0
  6
CONTINUOUS
 62
    7
 10
1483.6302024214201
 20
2710.9818310562541
 11
1433.12962301315
 21
2710.9818310562541
  0
LINE
  8
_0-0_0
  6
CONTINUOUS
 62
    7
 10
1433.12962301315
 20
2710.9818310562541
 11
1431.627327382914
 21
2710.9818310562541
  0
LINE
  8
_0-0_0
  6
CONTINUOUS
 62
    7
 10
1431.627327382914
 20
2710.9818310562541
 11
1426.383172503296
 21
2710.9818310562541
  0
LINE
  8
_0-0_0
  6
CONTINUOUS
 62
    7
 10
1426.383172503296
 20
2710.9818310562541
 11
1426.382318361748
 21
2710.9818310562541
  0
ARC
  8
_0-0_0
  6
CONTINUOUS
 62
    7
 10
1324.8503724915481
 20
2630.8836300941289
 40
99.911970487864025
 50
126.70842758518918
 51
143.29157241481056
  0
LINE
  8
_0-0_0
  6
CONTINUOUS
 62
    7
 10
1244.752171529424
 20
2690.6053183606118
 11
1244.7493097080201
 21
2574.6083429699638
  0
ARC
  8
_0-0_0
  6
CONTINUOUS
 62
    7
 10
1322.6821786146229
 20
2632.160805931569
 40
96.880431713327255
 50
216.44541070793463
 51
233.54908984722863
  0
LINE
  8
_0-0_0
  6
CONTINUOUS
 62
    7
 10
1265.122235654896
 20
2554.2334614661399
 11
1270.373693246233
 21
2554.2264000205068
  0
LINE
  8
_0-0_0
  6
CONTINUOUS
 62
    7
 10
1270.373693246233
 20
2554.2264000205068
 11
1271.875988876468
 21
2554.2264000205068
  0
LINE
  8
_0-0_0
  6
CONTINUOUS
 62
    7
 10
1271.875988876468
 20
2554.2264000205068
 11
1322.3765682847379
 21
2554.2264000205068
  0
LINE
  8
_0-0_0
  6
CONTINUOUS
 62
    7
 10
1322.3765682847379
 20
2554.2264000205068
 11
1323.8701801252028
 21
2554.2264000205068
  0
LINE
  8
_0-0_0
  6
CONTINUOUS
 62
    7
 10
1323.8701801252028
 20
2554.2264000205068
 11
1374.375101428358
 21
2554.2264000205068
  0
LINE
  8
_0-0_0
  6
CONTINUOUS
 62
    7
 10
1374.375101428358
 20
2554.2264000205068
 11
1375.8773970585917
 21
2554.2264000205068
  0
LINE
  8
_0-0_0
  6
CONTINUOUS
 62
    7
 10
1375.8773970585917
 20
2554.2264000205068
 11
1381.122406079759
 21
2554.2264000205068
  0
ARC
  8
_0-0_0
  6
CONTINUOUS
 62
    7
 10
1323.93167522154
 20
2631.7936435743704
 40
96.37145307943544
 50
306.40154413119819
 51
323.59845586879902
  0
LINE
  8
_0-0_0
  6
CONTINUOUS
 62
    7
 10
1401.498918775402
 20
2574.6029127161491
 11
1401.498918775402
 21
2690.6053183606118
  0
ARC
  8
_0-0_0
  6
CONTINUOUS
 62
    7
 10
1323.2896069991889
 20
2632.76951491114
 40
97.271149932314188
 50
36.482933758849633
 51
53.51480114430607
  0
LINE
  8
_0-0_0
  6
CONTINUOUS
 62
    7
 10
1381.1285022832999
 20
2710.9765401804111
 11
1375.8773970585917
 21
2710.9818310562541
  0
LINE
  8
_0-0_0
  6
CONTINUOUS
 62
    7
 10
1375.8773970585917
 20
2710.9818310562541
 11
1374.375101428358
 21
2710.9818310562541
  0
LINE
  8
_0-0_0
  6
CONTINUOUS
 62
    7
 10
1374.375101428358
 20
2710.9818310562541
 11
1323.8701801252028
 21
2710.9818310562541
  0
LINE
  8
_0-0_0
  6
CONTINUOUS
 62
    7
 10
1323.8701801252028
 20
2710.9818310562541
 11
1322.3765682847379
 21
2710.9818310562541
  0
LINE
  8
_0-0_0
  6
CONTINUOUS
 62
    7
 10
1322.3765682847379
 20
2710.9818310562541
 11
1271.875988876468
 21
2710.9818310562541
  0
LINE
  8
_0-0_0
  6
CONTINUOUS
 62
    7
 10
1271.875988876468
 20
2710.9818310562541
 11
1270.373693246233
 21
2710.9818310562541
  0
LINE
  8
_0-0_0
  6
CONTINUOUS
 62
    7
 10
1270.373693246233
 20
2710.9818310562541
 11
1265.129538366614
 21
2710.9818310562541
  0
LINE
  8
_0-0_0
  6
CONTINUOUS
 62
    7
 10
1265.129538366614
 20
2710.9818310562541
 11
1265.1286842250661
 21
2710.9818310562541
  0
ARC
  8
_0-0_0
  6
CONTINUOUS
 62
    7
 10
1163.5962228944709
 20
2630.8904451761
 40
99.911970487862703
 50
126.7084275851899
 51
143.29157241481141
  0
LINE
  8
_0-0_0
  6
CONTINUOUS
 62
    7
 10
1083.498021932347
 20
2690.6121334425816
 11
1083.4951601109419
 21
2574.6151580519331
  0
ARC
  8
_0-0_0
  6
CONTINUOUS
 62
    7
 10
1161.4280290175457
 20
2632.1676210135388
 40
96.88043171332825
 50
216.4454107079352
 51
233.5490898472292
  0
LINE
  8
_0-0_0
  6
CONTINUOUS
 62
    7
 10
1103.868086057819
 20
2554.2402765481088
 11
1109.119543649156
 21
2554.2332151024762
  0
LINE
  8
_0-0_0
  6
CONTINUOUS
 62
    7
 10
1109.119543649156
 20
2554.2332151024762
 11
1110.6218392793908
 21
2554.2332151024762
  0
LINE
  8
_0-0_0
  6
CONTINUOUS
 62
    7
 10
1110.6218392793908
 20
2554.2332151024762
 11
1161.12241868766
 21
2554.2332151024762
  0
LINE
  8
_0-0_0
  6
CONTINUOUS
 62
    7
 10
1161.12241868766
 20
2554.2332151024762
 11
1162.6160305281251
 21
2554.2332151024762
  0
LINE
  8
_0-0_0
  6
CONTINUOUS
 62
    7
 10
1162.6160305281251
 20
2554.2332151024762
 11
1213.120951831281
 21
2554.2332151024762
  0
LINE
  8
_0-0_0
  6
CONTINUOUS
 62
    7
 10
1213.120951831281
 20
2554.2332151024762
 11
1214.6232474615149
 21
2554.2332151024762
  0
LINE
  8
_0-0_0
  6
CONTINUOUS
 62
    7
 10
1214.6232474615149
 20
2554.2332151024762
 11
1219.868256482682
 21
2554.2332151024762
  0
ARC
  8
_0-0_0
  6
CONTINUOUS
 62
    7
 10
1162.6775256244623
 20
2631.8004586563388
 40
96.371453079434502
 50
306.40154413119888
 51
323.59845586879959
  0
LINE
  8
_0-0_0
  6
CONTINUOUS
 62
    7
 10
1240.2447691783241
 20
2574.6097277981171
 11
1240.2447691783241
 21
2690.6121334425816
  0
ARC
  8
_0-0_0
  6
CONTINUOUS
 62
    7
 10
1162.0354574021119
 20
2632.7763299931084
 40
97.271149932314188
 50
36.482933758849633
 51
53.51480114430607
  0
LINE
  8
_0-0_0
  6
CONTINUOUS
 62
    7
 10
1219.874352686222
 20
2710.9833552623795
 11
1214.6232474615149
 21
2710.988646138223
  0
LINE
  8
_0-0_0
  6
CONTINUOUS
 62
    7
 10
1214.6232474615149
 20
2710.988646138223
 11
1213.120951831281
 21
2710.988646138223
  0
LINE
  8
_0-0_0
  6
CONTINUOUS
 62
    7
 10
1213.120951831281
 20
2710.988646138223
 11
1162.6160305281251
 21
2710.988646138223
  0
LINE
  8
_0-0_0
  6
CONTINUOUS
 62
    7
 10
1162.6160305281251
 20
2710.988646138223
 11
1161.12241868766
 21
2710.988646138223
  0
LINE
  8
_0-0_0
  6
CONTINUOUS
 62
    7
 10
1161.12241868766
 20
2710.988646138223
 11
1110.6218392793908
 21
2710.988646138223
  0
LINE
  8
_0-0_0
  6
CONTINUOUS
 62
    7
 10
1110.6218392793908
 20
2710.988646138223
 11
1109.119543649156
 21
2710.988646138223
  0
LINE
  8
_0-0_0
  6
CONTINUOUS
 62
    7
 10
1109.119543649156
 20
2710.988646138223
 11
1103.8753887695359
 21
2710.988646138223
  0
LINE
  8
_0-0_0
  6
CONTINUOUS
 62
    7
 10
1103.8753887695359
 20
2710.988646138223
 11
1103.8745346279891
 21
2710.988646138223
  0
ARC
  8
_0-0_0
  6
CONTINUOUS
 62
    7
 10
1163.605422144635
 20
2471.1322915876849
 40
99.911970487861552
 50
126.70842758518938
 51
143.2915724148109
  0
LINE
  8
_0-0_0
  6
CONTINUOUS
 62
    7
 10
1083.5072211825122
 20
2530.8539798541651
 11
1083.5043593611081
 21
2414.8570044635171
  0
ARC
  8
_0-0_0
  6
CONTINUOUS
 62
    7
 10
1161.437228267713
 20
2472.4094674251232
 40
96.880431713329244
 50
216.44541070793443
 51
233.5490898472284
  0
LINE
  8
_0-0_0
  6
CONTINUOUS
 62
    7
 10
1103.877285307984
 20
2394.4821229596919
 11
1109.128742899321
 21
2394.4750615140601
  0
LINE
  8
_0-0_0
  6
CONTINUOUS
 62
    7
 10
1109.128742899321
 20
2394.4750615140601
 11
1110.631038529556
 21
2394.4750615140601
  0
LINE
  8
_0-0_0
  6
CONTINUOUS
 62
    7
 10
1110.631038529556
 20
2394.4750615140601
 11
1161.1316179378259
 21
2394.4750615140601
  0
LINE
  8
_0-0_0
  6
CONTINUOUS
 62
    7
 10
1161.1316179378259
 20
2394.4750615140601
 11
1162.625229778291
 21
2394.4750615140601
  0
LINE
  8
_0-0_0
  6
CONTINUOUS
 62
    7
 10
1162.625229778291
 20
2394.4750615140601
 11
1213.130151081446
 21
2394.4750615140601
  0
LINE
  8
_0-0_0
  6
CONTINUOUS
 62
    7
 10
1213.130151081446
 20
2394.4750615140601
 11
1214.632446711681
 21
2394.4750615140601
  0
LINE
  8
_0-0_0
  6
CONTINUOUS
 62
    7
 10
1214.632446711681
 20
2394.4750615140601
 11
1219.8774557328479
 21
2394.4750615140601
  0
ARC
  8
_0-0_0
  6
CONTINUOUS
 62
    7
 10
1162.686724874626
 20
2472.0423050679228
 40
96.37145307943544
 50
306.40154413119956
 51
323.59845586880033
  0
LINE
  8
_0-0_0
  6
CONTINUOUS
 62
    7
 10
1240.25396842849
 20
2414.8515742097011
 11
1240.25396842849
 21
2530.8539798541651
  0
ARC
  8
_0-0_0
  6
CONTINUOUS
 62
    7
 10
1162.0446566522789
 20
2473.0181764046929
 40
97.271149932313165
 50
36.482933758850393
 51
53.514801144306823
  0
LINE
  8
_0-0_0
  6
CONTINUOUS
 62
    7
 10
1219.8835519363879
 20
2551.225201673964
 11
1214.632446711681
 21
2551.230492549807
  0
LINE
  8
_0-0_0
  6
CONTINUOUS
 62
    7
 10
1214.632446711681
 20
2551.230492549807
 11
1213.130151081446
 21
2551.230492549807
  0
LINE
  8
_0-0_0
  6
CONTINUOUS
 62
    7
 10
1213.130151081446
 20
2551.230492549807
 11
1162.625229778291
 21
2551.230492549807
  0
LINE
  8
_0-0_0
  6
CONTINUOUS
 62
    7
 10
1162.625229778291
 20
2551.230492549807
 11
1161.1316179378259
 21
2551.230492549807
  0
LINE
  8
_0-0_0
  6
CONTINUOUS
 62
    7
 10
1161.1316179378259
 20
2551.230492549807
 11
1110.631038529556
 21
2551.230492549807
  0
LINE
  8
_0-0_0
  6
CONTINUOUS
 62
    7
 10
1110.631038529556
 20
2551.230492549807
 11
1109.128742899321
 21
2551.2304925498079
  0
LINE
  8
_0-0_0
  6
CONTINUOUS
 62
    7
 10
1109.128742899321
 20
2551.2304925498079
 11
1103.8845880197023
 21
2551.230492549807
  0
LINE
  8
_0-0_0
  6
CONTINUOUS
 62
    7
 10
1103.8845880197023
 20
2551.230492549807
 11
1103.8837338781541
 21
2551.230492549807
  0
ARC
  8
_0-0_0
  6
CONTINUOUS
 62
    7
 10
1163.605422144635
 20
2311.3809530812368
 40
99.911970487861893
 50
126.70842758518918
 51
143.2915724148107
  0
LINE
  8
_0-0_0
  6
CONTINUOUS
 62
    7
 10
1083.5072211825122
 20
2371.102641347718
 11
1083.5043593611081
 21
2255.10566595707
  0
ARC
  8
_0-0_0
  6
CONTINUOUS
 62
    7
 10
1161.437228267713
 20
2312.6581289186761
 40
96.880431713329529
 50
216.44541070793463
 51
233.54908984722863
  0
LINE
  8
_0-0_0
  6
CONTINUOUS
 62
    7
 10
1103.877285307984
 20
2234.7307844532452
 11
1109.128742899321
 21
2234.723723007613
  0
LINE
  8
_0-0_0
  6
CONTINUOUS
 62
    7
 10
1109.128742899321
 20
2234.723723007613
 11
1110.631038529556
 21
2234.7237230076121
  0
LINE
  8
_0-0_0
  6
CONTINUOUS
 62
    7
 10
1110.631038529556
 20
2234.7237230076121
 11
1161.1316179378259
 21
2234.7237230076121
  0
LINE
  8
_0-0_0
  6
CONTINUOUS
 62
    7
 10
1161.1316179378259
 20
2234.7237230076121
 11
1162.625229778291
 21
2234.7237230076121
  0
LINE
  8
_0-0_0
  6
CONTINUOUS
 62
    7
 10
1162.625229778291
 20
2234.7237230076121
 11
1213.130151081446
 21
2234.7237230076121
  0
LINE
  8
_0-0_0
  6
CONTINUOUS
 62
    7
 10
1213.130151081446
 20
2234.7237230076121
 11
1214.632446711681
 21
2234.7237230076121
  0
LINE
  8
_0-0_0
  6
CONTINUOUS
 62
    7
 10
1214.632446711681
 20
2234.7237230076121
 11
1219.8774557328479
 21
2234.7237230076121
  0
ARC
  8
_0-0_0
  6
CONTINUOUS
 62
    7
 10
1162.686724874626
 20
2312.2909665614761
 40
96.37145307943581
 50
306.40154413119939
 51
323.59845586880022
  0
LINE
  8
_0-0_0
  6
CONTINUOUS
 62
    7
 10
1240.25396842849
 20
2255.1002357032548
 11
1240.25396842849
 21
2371.102641347718
  0
ARC
  8
_0-0_0
  6
CONTINUOUS
 62
    7
 10
1162.0446566522789
 20
2313.2668378982462
 40
97.271149932312895
 50
36.482933758850187
 51
53.514801144306666
  0
LINE
  8
_0-0_0
  6
CONTINUOUS
 62
    7
 10
1219.8835519363879
 20
2391.4738631675159
 11
1214.632446711681
 21
2391.4791540433598
  0
LINE
  8
_0-0_0
  6
CONTINUOUS
 62
    7
 10
1214.632446711681
 20
2391.4791540433598
 11
1213.130151081446
 21
2391.4791540433598
  0
LINE
  8
_0-0_0
  6
CONTINUOUS
 62
    7
 10
1213.130151081446
 20
2391.4791540433598
 11
1162.625229778291
 21
2391.4791540433598
  0
LINE
  8
_0-0_0
  6
CONTINUOUS
 62
    7
 10
1162.625229778291
 20
2391.4791540433598
 11
1161.1316179378259
 21
2391.4791540433598
  0
LINE
  8
_0-0_0
  6
CONTINUOUS
 62
    7
 10
1161.1316179378259
 20
2391.4791540433598
 11
1110.631038529556
 21
2391.4791540433598
  0
LINE
  8
_0-0_0
  6
CONTINUOUS
 62
    7
 10
1110.631038529556
 20
2391.4791540433598
 11
1109.128742899321
 21
2391.4791540433598
  0
LINE
  8
_0-0_0
  6
CONTINUOUS
 62
    7
 10
1109.128742899321
 20
2391.4791540433598
 11
1103.8845880197023
 21
2391.4791540433598
  0
LINE
  8
_0-0_0
  6
CONTINUOUS
 62
    7
 10
1103.8845880197023
 20
2391.4791540433598
 11
1103.8837338781541
 21
2391.4791540433598
  0
ARC
  8
_0-0_0
  6
CONTINUOUS
 62
    7
 10
1163.6028305200171
 20
2151.636903716199
 40
99.911970487861893
 50
126.70842758518918
 51
143.2915724148107
  0
LINE
  8
_0-0_0
  6
CONTINUOUS
 62
    7
 10
1083.5046295578941
 20
2211.358591982681
 11
1083.501767736489
 21
2095.361616592033
  0
ARC
  8
_0-0_0
  6
CONTINUOUS
 62
    7
 10
1161.4346366430941
 20
2152.9140795536391
 40
96.880431713329529
 50
216.44541070793463
 51
233.54908984722863
  0
LINE
  8
_0-0_0
  6
CONTINUOUS
 62
    7
 10
1103.8746936833661
 20
2074.9867350882082
 11
1109.126151274703
 21
2074.979673642576
  0
LINE
  8
_0-0_0
  6
CONTINUOUS
 62
    7
 10
1109.126151274703
 20
2074.979673642576
 11
1110.6284469049383
 21
2074.9796736425751
  0
LINE
  8
_0-0_0
  6
CONTINUOUS
 62
    7
 10
1110.6284469049383
 20
2074.9796736425751
 11
1161.1290263132071
 21
2074.9796736425751
  0
LINE
  8
_0-0_0
  6
CONTINUOUS
 62
    7
 10
1161.1290263132071
 20
2074.9796736425751
 11
1162.6226381536719
 21
2074.9796736425751
  0
LINE
  8
_0-0_0
  6
CONTINUOUS
 62
    7
 10
1162.6226381536719
 20
2074.9796736425751
 11
1213.1275594568278
 21
2074.9796736425751
  0
LINE
  8
_0-0_0
  6
CONTINUOUS
 62
    7
 10
1213.1275594568278
 20
2074.9796736425751
 11
1214.629855087062
 21
2074.9796736425751
  0
LINE
  8
_0-0_0
  6
CONTINUOUS
 62
    7
 10
1214.629855087062
 20
2074.9796736425751
 11
1219.8748641082288
 21
2074.9796736425751
  0
ARC
  8
_0-0_0
  6
CONTINUOUS
 62
    7
 10
1162.684133250008
 20
2152.5469171964392
 40
96.37145307943581
 50
306.40154413119939
 51
323.59845586880022
  0
LINE
  8
_0-0_0
  6
CONTINUOUS
 62
    7
 10
1240.2513768038712
 20
2095.356186338217
 11
1240.2513768038712
 21
2211.358591982681
  0
ARC
  8
_0-0_0
  6
CONTINUOUS
 62
    7
 10
1162.0420650276601
 20
2153.5227885332079
 40
97.271149932312895
 50
36.482933758850187
 51
53.514801144306666
  0
LINE
  8
_0-0_0
  6
CONTINUOUS
 62
    7
 10
1219.8809603117702
 20
2231.7298138024789
 11
1214.629855087062
 21
2231.7351046783219
  0
LINE
  8
_0-0_0
  6
CONTINUOUS
 62
    7
 10
1214.629855087062
 20
2231.7351046783219
 11
1213.1275594568278
 21
2231.7351046783219
  0
LINE
  8
_0-0_0
  6
CONTINUOUS
 62
    7
 10
1213.1275594568278
 20
2231.7351046783219
 11
1162.6226381536719
 21
2231.7351046783219
  0
LINE
  8
_0-0_0
  6
CONTINUOUS
 62
    7
 10
1162.6226381536719
 20
2231.7351046783219
 11
1161.1290263132071
 21
2231.7351046783219
  0
LINE
  8
_0-0_0
  6
CONTINUOUS
 62
    7
 10
1161.1290263132071
 20
2231.7351046783219
 11
1110.6284469049383
 21
2231.7351046783219
  0
LINE
  8
_0-0_0
  6
CONTINUOUS
 62
    7
 10
1110.6284469049383
 20
2231.7351046783219
 11
1109.126151274703
 21
2231.7351046783228
  0
LINE
  8
_0-0_0
  6
CONTINUOUS
 62
    7
 10
1109.126151274703
 20
2231.7351046783228
 11
1103.8819963950828
 21
2231.7351046783219
  0
LINE
  8
_0-0_0
  6
CONTINUOUS
 62
    7
 10
1103.8819963950828
 20
2231.7351046783219
 11
1103.8811422535359
 21
2231.7351046783219
  0
ARC
  8
_0-0_0
  6
CONTINUOUS
 62
    7
 10
1163.605422144635
 20
1991.8913017529981
 40
99.911970487861737
 50
126.70842758518928
 51
143.29157241481076
  0
LINE
  8
_0-0_0
  6
CONTINUOUS
 62
    7
 10
1083.5072211825122
 20
2051.6129900194792
 11
1083.5043593611081
 21
1935.616014628831
  0
ARC
  8
_0-0_0
  6
CONTINUOUS
 62
    7
 10
1161.437228267713
 20
1993.1684775904369
 40
96.880431713329415
 50
216.44541070793454
 51
233.54908984722852
  0
LINE
  8
_0-0_0
  6
CONTINUOUS
 62
    7
 10
1103.877285307984
 20
1915.2411331250059
 11
1109.128742899321
 21
1915.234071679374
  0
LINE
  8
_0-0_0
  6
CONTINUOUS
 62
    7
 10
1109.128742899321
 20
1915.234071679374
 11
1110.631038529556
 21
1915.234071679374
  0
LINE
  8
_0-0_0
  6
CONTINUOUS
 62
    7
 10
1110.631038529556
 20
1915.234071679374
 11
1161.1316179378259
 21
1915.234071679374
  0
LINE
  8
_0-0_0
  6
CONTINUOUS
 62
    7
 10
1161.1316179378259
 20
1915.234071679374
 11
1162.625229778291
 21
1915.234071679374
  0
LINE
  8
_0-0_0
  6
CONTINUOUS
 62
    7
 10
1162.625229778291
 20
1915.234071679374
 11
1213.130151081446
 21
1915.234071679374
  0
LINE
  8
_0-0_0
  6
CONTINUOUS
 62
    7
 10
1213.130151081446
 20
1915.234071679374
 11
1214.632446711681
 21
1915.234071679374
  0
LINE
  8
_0-0_0
  6
CONTINUOUS
 62
    7
 10
1214.632446711681
 20
1915.234071679374
 11
1219.8774557328479
 21
1915.234071679374
  0
ARC
  8
_0-0_0
  6
CONTINUOUS
 62
    7
 10
1162.686724874626
 20
1992.8013152332371
 40
96.37145307943544
 50
306.40154413119956
 51
323.59845586880033
  0
LINE
  8
_0-0_0
  6
CONTINUOUS
 62
    7
 10
1240.25396842849
 20
1935.6105843750161
 11
1240.25396842849
 21
2051.6129900194792
  0
ARC
  8
_0-0_0
  6
CONTINUOUS
 62
    7
 10
1162.0446566522789
 20
1993.7771865700061
 40
97.271149932313321
 50
36.4829337588505
 51
53.514801144306887
  0
LINE
  8
_0-0_0
  6
CONTINUOUS
 62
    7
 10
1219.8835519363879
 20
2071.9842118392771
 11
1214.632446711681
 21
2071.989502715121
  0
LINE
  8
_0-0_0
  6
CONTINUOUS
 62
    7
 10
1214.632446711681
 20
2071.989502715121
 11
1213.130151081446
 21
2071.989502715121
  0
LINE
  8
_0-0_0
  6
CONTINUOUS
 62
    7
 10
1213.130151081446
 20
2071.989502715121
 11
1162.625229778291
 21
2071.989502715121
  0
LINE
  8
_0-0_0
  6
CONTINUOUS
 62
    7
 10
1162.625229778291
 20
2071.989502715121
 11
1161.1316179378259
 21
2071.989502715121
  0
LINE
  8
_0-0_0
  6
CONTINUOUS
 62
    7
 10
1161.1316179378259
 20
2071.989502715121
 11
1110.631038529556
 21
2071.989502715121
  0
LINE
  8
_0-0_0
  6
CONTINUOUS
 62
    7
 10
1110.631038529556
 20
2071.989502715121
 11
1109.128742899321
 21
2071.9895027151219
  0
LINE
  8
_0-0_0
  6
CONTINUOUS
 62
    7
 10
1109.128742899321
 20
2071.9895027151219
 11
1103.8845880197023
 21
2071.989502715121
  0
LINE
  8
_0-0_0
  6
CONTINUOUS
 62
    7
 10
1103.8845880197023
 20
2071.989502715121
 11
1103.8837338781541
 21
2071.989502715121
  0
ARC
  8
_0-0_0
  6
CONTINUOUS
 62
    7
 10
1163.5989735744661
 20
1832.1383409024131
 40
99.911970487861893
 50
126.70842758518918
 51
143.2915724148107
  0
LINE
  8
_0-0_0
  6
CONTINUOUS
 62
    7
 10
1083.500772612342
 20
1891.860029168894
 11
1083.497910790938
 21
1775.863053778246
  0
ARC
  8
_0-0_0
  6
CONTINUOUS
 62
    7
 10
1161.4307796975431
 20
1833.415516739851
 40
96.88043171332825
 50
216.4454107079338
 51
233.5490898472278
  0
LINE
  8
_0-0_0
  6
CONTINUOUS
 62
    7
 10
1103.870836737814
 20
1755.488172274421
 11
1109.1222943291509
 21
1755.481110828789
  0
LINE
  8
_0-0_0
  6
CONTINUOUS
 62
    7
 10
1109.1222943291509
 20
1755.481110828789
 11
1110.624589959386
 21
1755.481110828789
  0
LINE
  8
_0-0_0
  6
CONTINUOUS
 62
    7
 10
1110.624589959386
 20
1755.481110828789
 11
1161.1251693676561
 21
1755.481110828789
  0
LINE
  8
_0-0_0
  6
CONTINUOUS
 62
    7
 10
1161.1251693676561
 20
1755.481110828789
 11
1162.6187812081203
 21
1755.481110828789
  0
LINE
  8
_0-0_0
  6
CONTINUOUS
 62
    7
 10
1162.6187812081203
 20
1755.481110828789
 11
1213.123702511276
 21
1755.481110828789
  0
LINE
  8
_0-0_0
  6
CONTINUOUS
 62
    7
 10
1213.123702511276
 20
1755.481110828789
 11
1214.625998141511
 21
1755.481110828789
  0
LINE
  8
_0-0_0
  6
CONTINUOUS
 62
    7
 10
1214.625998141511
 20
1755.481110828789
 11
1219.8710071626781
 21
1755.481110828789
  0
ARC
  8
_0-0_0
  6
CONTINUOUS
 62
    7
 10
1162.6802763044561
 20
1833.048354382652
 40
96.37145307943544
 50
306.40154413119956
 51
323.59845586880033
  0
LINE
  8
_0-0_0
  6
CONTINUOUS
 62
    7
 10
1240.2475198583197
 20
1775.8576235244311
 11
1240.2475198583197
 21
1891.860029168894
  0
ARC
  8
_0-0_0
  6
CONTINUOUS
 62
    7
 10
1162.0382080821087
 20
1834.0242257194227
 40
97.271149932312056
 50
36.482933758849718
 51
53.514801144306148
  0
LINE
  8
_0-0_0
  6
CONTINUOUS
 62
    7
 10
1219.8771033662181
 20
1912.2312509886931
 11
1214.625998141511
 21
1912.2365418645361
  0
LINE
  8
_0-0_0
  6
CONTINUOUS
 62
    7
 10
1214.625998141511
 20
1912.2365418645361
 11
1213.123702511276
 21
1912.2365418645361
  0
LINE
  8
_0-0_0
  6
CONTINUOUS
 62
    7
 10
1213.123702511276
 20
1912.2365418645361
 11
1162.6187812081203
 21
1912.2365418645361
  0
LINE
  8
_0-0_0
  6
CONTINUOUS
 62
    7
 10
1162.6187812081203
 20
1912.2365418645361
 11
1161.1251693676561
 21
1912.2365418645361
  0
LINE
  8
_0-0_0
  6
CONTINUOUS
 62
    7
 10
1161.1251693676561
 20
1912.2365418645361
 11
1110.624589959386
 21
1912.2365418645361
  0
LINE
  8
_0-0_0
  6
CONTINUOUS
 62
    7
 10
1110.624589959386
 20
1912.2365418645361
 11
1109.1222943291509
 21
1912.236541864537
  0
LINE
  8
_0-0_0
  6
CONTINUOUS
 62
    7
 10
1109.1222943291509
 20
1912.236541864537
 11
1103.878139449532
 21
1912.2365418645361
  0
LINE
  8
_0-0_0
  6
CONTINUOUS
 62
    7
 10
1103.878139449532
 20
1912.2365418645361
 11
1103.877285307984
 21
1912.2365418645361
  0
ARC
  8
_0-0_0
  6
CONTINUOUS
 62
    7
 10
1163.59941651845
 20
1672.3911521724317
 40
99.911970487861893
 50
126.70842758518918
 51
143.2915724148107
  0
LINE
  8
_0-0_0
  6
CONTINUOUS
 62
    7
 10
1083.5012155563272
 20
1732.112840438914
 11
1083.4983537349231
 21
1616.115865048266
  0
ARC
  8
_0-0_0
  6
CONTINUOUS
 62
    7
 10
1161.4312226415279
 20
1673.66832800987
 40
96.88043171332825
 50
216.4454107079338
 51
233.5490898472278
  0
LINE
  8
_0-0_0
  6
CONTINUOUS
 62
    7
 10
1103.871279681799
 20
1595.740983544441
 11
1109.122737273136
 21
1595.7339220988081
  0
LINE
  8
_0-0_0
  6
CONTINUOUS
 62
    7
 10
1109.122737273136
 20
1595.7339220988081
 11
1110.625032903371
 21
1595.7339220988081
  0
LINE
  8
_0-0_0
  6
CONTINUOUS
 62
    7
 10
1110.625032903371
 20
1595.7339220988081
 11
1161.1256123116409
 21
1595.7339220988081
  0
LINE
  8
_0-0_0
  6
CONTINUOUS
 62
    7
 10
1161.1256123116409
 20
1595.7339220988081
 11
1162.619224152106
 21
1595.7339220988081
  0
LINE
  8
_0-0_0
  6
CONTINUOUS
 62
    7
 10
1162.619224152106
 20
1595.7339220988081
 11
1213.124145455261
 21
1595.7339220988081
  0
LINE
  8
_0-0_0
  6
CONTINUOUS
 62
    7
 10
1213.124145455261
 20
1595.7339220988081
 11
1214.626441085496
 21
1595.7339220988081
  0
LINE
  8
_0-0_0
  6
CONTINUOUS
 62
    7
 10
1214.626441085496
 20
1595.7339220988081
 11
1219.8714501066629
 21
1595.7339220988081
  0
ARC
  8
_0-0_0
  6
CONTINUOUS
 62
    7
 10
1162.6807192484409
 20
1673.301165652671
 40
96.37145307943544
 50
306.40154413119956
 51
323.59845586880033
  0
LINE
  8
_0-0_0
  6
CONTINUOUS
 62
    7
 10
1240.247962802305
 20
1616.1104347944499
 11
1240.247962802305
 21
1732.112840438914
  0
ARC
  8
_0-0_0
  6
CONTINUOUS
 62
    7
 10
1162.0386510260939
 20
1674.277036989442
 40
97.271149932312056
 50
36.482933758849718
 51
53.514801144306148
  0
LINE
  8
_0-0_0
  6
CONTINUOUS
 62
    7
 10
1219.877546310204
 20
1752.4840622587117
 11
1214.626441085496
 21
1752.4893531345549
  0
LINE
  8
_0-0_0
  6
CONTINUOUS
 62
    7
 10
1214.626441085496
 20
1752.4893531345549
 11
1213.124145455261
 21
1752.4893531345549
  0
LINE
  8
_0-0_0
  6
CONTINUOUS
 62
    7
 10
1213.124145455261
 20
1752.4893531345549
 11
1162.619224152106
 21
1752.4893531345549
  0
LINE
  8
_0-0_0
  6
CONTINUOUS
 62
    7
 10
1162.619224152106
 20
1752.4893531345549
 11
1161.1256123116409
 21
1752.4893531345549
  0
LINE
  8
_0-0_0
  6
CONTINUOUS
 62
    7
 10
1161.1256123116409
 20
1752.4893531345549
 11
1110.625032903371
 21
1752.4893531345549
  0
LINE
  8
_0-0_0
  6
CONTINUOUS
 62
    7
 10
1110.625032903371
 20
1752.4893531345549
 11
1109.122737273136
 21
1752.489353134556
  0
LINE
  8
_0-0_0
  6
CONTINUOUS
 62
    7
 10
1109.122737273136
 20
1752.489353134556
 11
1103.8785823935173
 21
1752.4893531345549
  0
LINE
  8
_0-0_0
  6
CONTINUOUS
 62
    7
 10
1103.8785823935173
 20
1752.4893531345549
 11
1103.8777282519691
 21
1752.4893531345549
  0
ARC
  8
_0-0_0
  6
CONTINUOUS
 62
    7
 10
1163.6018142298321
 20
1512.628605364788
 40
99.911970487861893
 50
126.70842758518918
 51
143.2915724148107
  0
LINE
  8
_0-0_0
  6
CONTINUOUS
 62
    7
 10
1083.5036132677101
 20
1572.3502936312702
 11
1083.500751446305
 21
1456.353318240622
  0
ARC
  8
_0-0_0
  6
CONTINUOUS
 62
    7
 10
1161.4336203529097
 20
1513.9057812022281
 40
96.880431713329415
 50
216.44541070793454
 51
233.54908984722852
  0
LINE
  8
_0-0_0
  6
CONTINUOUS
 62
    7
 10
1103.873677393181
 20
1435.978436736797
 11
1109.1251349845179
 21
1435.971375291165
  0
LINE
  8
_0-0_0
  6
CONTINUOUS
 62
    7
 10
1109.1251349845179
 20
1435.971375291165
 11
1110.6274306147529
 21
1435.9713752911643
  0
LINE
  8
_0-0_0
  6
CONTINUOUS
 62
    7
 10
1110.6274306147529
 20
1435.9713752911643
 11
1161.1280100230233
 21
1435.9713752911643
  0
LINE
  8
_0-0_0
  6
CONTINUOUS
 62
    7
 10
1161.1280100230233
 20
1435.9713752911643
 11
1162.6216218634881
 21
1435.9713752911643
  0
LINE
  8
_0-0_0
  6
CONTINUOUS
 62
    7
 10
1162.6216218634881
 20
1435.9713752911643
 11
1213.1265431666429
 21
1435.9713752911643
  0
LINE
  8
_0-0_0
  6
CONTINUOUS
 62
    7
 10
1213.1265431666429
 20
1435.9713752911643
 11
1214.628838796878
 21
1435.9713752911643
  0
LINE
  8
_0-0_0
  6
CONTINUOUS
 62
    7
 10
1214.628838796878
 20
1435.9713752911643
 11
1219.8738478180451
 21
1435.9713752911643
  0
ARC
  8
_0-0_0
  6
CONTINUOUS
 62
    7
 10
1162.6831169598227
 20
1513.538618845027
 40
96.37145307943544
 50
306.40154413119956
 51
323.59845586880033
  0
LINE
  8
_0-0_0
  6
CONTINUOUS
 62
    7
 10
1240.250360513686
 20
1456.347887986806
 11
1240.250360513686
 21
1572.3502936312702
  0
ARC
  8
_0-0_0
  6
CONTINUOUS
 62
    7
 10
1162.0410487374761
 20
1514.5144901817971
 40
97.271149932313165
 50
36.482933758850393
 51
53.514801144306823
  0
LINE
  8
_0-0_0
  6
CONTINUOUS
 62
    7
 10
1219.8799440215851
 20
1592.7215154510679
 11
1214.628838796878
 21
1592.7268063269112
  0
LINE
  8
_0-0_0
  6
CONTINUOUS
 62
    7
 10
1214.628838796878
 20
1592.7268063269112
 11
1213.1265431666429
 21
1592.7268063269112
  0
LINE
  8
_0-0_0
  6
CONTINUOUS
 62
    7
 10
1213.1265431666429
 20
1592.7268063269112
 11
1162.6216218634881
 21
1592.7268063269112
  0
LINE
  8
_0-0_0
  6
CONTINUOUS
 62
    7
 10
1162.6216218634881
 20
1592.7268063269112
 11
1161.1280100230233
 21
1592.7268063269112
  0
LINE
  8
_0-0_0
  6
CONTINUOUS
 62
    7
 10
1161.1280100230233
 20
1592.7268063269112
 11
1110.6274306147529
 21
1592.7268063269112
  0
LINE
  8
_0-0_0
  6
CONTINUOUS
 62
    7
 10
1110.6274306147529
 20
1592.7268063269112
 11
1109.1251349845179
 21
1592.7268063269121
  0
LINE
  8
_0-0_0
  6
CONTINUOUS
 62
    7
 10
1109.1251349845179
 20
1592.7268063269121
 11
1103.880980104899
 21
1592.7268063269112
  0
LINE
  8
_0-0_0
  6
CONTINUOUS
 62
    7
 10
1103.880980104899
 20
1592.7268063269112
 11
1103.880125963351
 21
1592.7268063269112
  0
LINE
  8
_0-0_0
  6
CONTINUOUS
 62
    7
 10
1902.503720993667
 20
2718.9910047750745
 11
1902.503720993667
 21
2713.9934837623559
  0
LINE
  8
_0-0_0
  6
CONTINUOUS
 62
    7
 10
1902.503720993667
 20
2713.9934837623559
 11
2024.502283474415
 21
2713.9934837623559
  0
LINE
  8
_0-0_0
  6
CONTINUOUS
 62
    7
 10
2024.502283474415
 20
2713.9934837623559
 11
2024.502283474415
 21
2718.9910047750745
  0
LINE
  8
_0-0_0
  6
CONTINUOUS
 62
    7
 10
2024.502283474415
 20
2718.9910047750745
 11
1902.503720993667
 21
2718.9910047750745
  0
LINE
  8
_0-0_0
  6
CONTINUOUS
 62
    7
 10
1568.494773169748
 20
2718.9910047750745
 11
1568.494773169748
 21
2713.9934837623559
  0
LINE
  8
_0-0_0
  6
CONTINUOUS
 62
    7
 10
1568.494773169748
 20
2713.9934837623559
 11
1862.501843417501
 21
2713.9934837623559
  0
LINE
  8
_0-0_0
  6
CONTINUOUS
 62
    7
 10
1862.501843417501
 20
2713.9934837623559
 11
1862.501843417501
 21
2718.9910047750745
  0
LINE
  8
_0-0_0
  6
CONTINUOUS
 62
    7
 10
1862.501843417501
 20
2718.9910047750745
 11
1568.494773169748
 21
2718.9910047750745
  0
LINE
  8
_0-0_0
  6
CONTINUOUS
 62
    7
 10
1267.5015940519161
 20
2718.9910047750745
 11
1267.5015940519161
 21
2713.9934837623559
  0
LINE
  8
_0-0_0
  6
CONTINUOUS
 62
    7
 10
1267.5015940519161
 20
2713.9934837623559
 11
1561.499980509898
 21
2713.9934837623559
  0
LINE
  8
_0-0_0
  6
CONTINUOUS
 62
    7
 10
1561.499980509898
 20
2713.9934837623559
 11
1561.499980509898
 21
2718.9910047750745
  0
LINE
  8
_0-0_0
  6
CONTINUOUS
 62
    7
 10
1561.499980509898
 20
2718.9910047750745
 11
1267.5015940519161
 21
2718.9910047750745
  0
LINE
  8
_0-0_0
  6
CONTINUOUS
 62
    7
 10
1105.501153995001
 20
2718.9910047750745
 11
1105.501153995001
 21
2713.9934837623559
  0
LINE
  8
_0-0_0
  6
CONTINUOUS
 62
    7
 10
1105.501153995001
 20
2713.9934837623559
 11
1227.4997164757492
 21
2713.9934837623559
  0
LINE
  8
_0-0_0
  6
CONTINUOUS
 62
    7
 10
1227.4997164757492
 20
2713.9934837623559
 11
1227.4997164757492
 21
2718.9910047750745
  0
LINE
  8
_0-0_0
  6
CONTINUOUS
 62
    7
 10
1227.4997164757492
 20
2718.9910047750745
 11
1105.501153995001
 21
2718.9910047750745
  0
LINE
  8
_0-0_0
  6
CONTINUOUS
 62
    7
 10
1701.0007212723699
 20
1267.986178817582
 11
1701.0007212723699
 21
1272.979357935415
  0
LINE
  8
_0-0_0
  6
CONTINUOUS
 62
    7
 10
1701.0007212723699
 20
1272.979357935415
 11
1428.9983743021612
 21
1272.979357935415
  0
LINE
  8
_0-0_0
  6
CONTINUOUS
 62
    7
 10
1428.9983743021612
 20
1272.979357935415
 11
1428.9983743021612
 21
1267.986178817582
  0
LINE
  8
_0-0_0
  6
CONTINUOUS
 62
    7
 10
1428.9983743021612
 20
1267.986178817582
 11
1701.0007212723699
 21
1267.986178817582
  0
LINE
  8
_0-0_0
  6
CONTINUOUS
 62
    7
 10
2023.503647650849
 20
1272.979357935415
 11
2023.503647650849
 21
1267.986178817582
  0
LINE
  8
_0-0_0
  6
CONTINUOUS
 62
    7
 10
2023.503647650849
 20
1267.986178817582
 11
1751.5013006806389
 21
1267.986178817582
  0
LINE
  8
_0-0_0
  6
CONTINUOUS
 62
    7
 10
1751.5013006806389
 20
1267.986178817582
 11
1751.5013006806389
 21
1272.979357935415
  0
LINE
  8
_0-0_0
  6
CONTINUOUS
 62
    7
 10
1751.5013006806389
 20
1272.979357935415
 11
2023.503647650849
 21
1272.979357935415
  0
LINE
  8
_0-0_0
  6
CONTINUOUS
 62
    7
 10
1106.4997898185679
 20
1272.979357935415
 11
1106.4997898185679
 21
1267.986178817582
  0
LINE
  8
_0-0_0
  6
CONTINUOUS
 62
    7
 10
1106.4997898185679
 20
1267.986178817582
 11
1378.5021367887759
 21
1267.986178817582
  0
LINE
  8
_0-0_0
  6
CONTINUOUS
 62
    7
 10
1378.5021367887759
 20
1267.986178817582
 11
1378.5021367887759
 21
1272.979357935415
  0
LINE
  8
_0-0_0
  6
CONTINUOUS
 62
    7
 10
1378.5021367887759
 20
1272.979357935415
 11
1106.4997898185679
 21
1272.979357935415
  0
ARC
  8
_0-0_0
  6
CONTINUOUS
 62
    7
 10
1163.5989735744661
 20
1352.7844618007159
 40
99.911970487861893
 50
126.70842758518918
 51
143.2915724148107
  0
LINE
  8
_0-0_0
  6
CONTINUOUS
 62
    7
 10
1083.500772612342
 20
1412.506150067197
 11
1083.497910790938
 21
1296.5091746765488
  0
ARC
  8
_0-0_0
  6
CONTINUOUS
 62
    7
 10
1161.4307796975431
 20
1354.0616376381531
 40
96.88043171332825
 50
216.4454107079338
 51
233.5490898472278
  0
LINE
  8
_0-0_0
  6
CONTINUOUS
 62
    7
 10
1103.870836737814
 20
1276.134293172724
 11
1109.1222943291509
 21
1276.1272317270921
  0
LINE
  8
_0-0_0
  6
CONTINUOUS
 62
    7
 10
1109.1222943291509
 20
1276.1272317270921
 11
1110.624589959386
 21
1276.1272317270921
  0
LINE
  8
_0-0_0
  6
CONTINUOUS
 62
    7
 10
1110.624589959386
 20
1276.1272317270921
 11
1161.1251693676561
 21
1276.1272317270921
  0
LINE
  8
_0-0_0
  6
CONTINUOUS
 62
    7
 10
1161.1251693676561
 20
1276.1272317270921
 11
1162.6187812081203
 21
1276.1272317270921
  0
LINE
  8
_0-0_0
  6
CONTINUOUS
 62
    7
 10
1162.6187812081203
 20
1276.1272317270921
 11
1213.123702511276
 21
1276.1272317270921
  0
LINE
  8
_0-0_0
  6
CONTINUOUS
 62
    7
 10
1213.123702511276
 20
1276.1272317270921
 11
1214.625998141511
 21
1276.1272317270921
  0
LINE
  8
_0-0_0
  6
CONTINUOUS
 62
    7
 10
1214.625998141511
 20
1276.1272317270921
 11
1219.8710071626781
 21
1276.1272317270921
  0
ARC
  8
_0-0_0
  6
CONTINUOUS
 62
    7
 10
1162.6802763044561
 20
1353.694475280955
 40
96.37145307943544
 50
306.40154413119956
 51
323.59845586880033
  0
LINE
  8
_0-0_0
  6
CONTINUOUS
 62
    7
 10
1240.2475198583197
 20
1296.5037444227341
 11
1240.2475198583197
 21
1412.506150067197
  0
ARC
  8
_0-0_0
  6
CONTINUOUS
 62
    7
 10
1162.0382080821087
 20
1354.670346617726
 40
97.271149932312056
 50
36.482933758849718
 51
53.514801144306148
  0
LINE
  8
_0-0_0
  6
CONTINUOUS
 62
    7
 10
1219.8771033662181
 20
1432.8773718869961
 11
1214.625998141511
 21
1432.8826627628391
  0
LINE
  8
_0-0_0
  6
CONTINUOUS
 62
    7
 10
1214.625998141511
 20
1432.8826627628391
 11
1213.123702511276
 21
1432.8826627628391
  0
LINE
  8
_0-0_0
  6
CONTINUOUS
 62
    7
 10
1213.123702511276
 20
1432.8826627628391
 11
1162.6187812081203
 21
1432.8826627628391
  0
LINE
  8
_0-0_0
  6
CONTINUOUS
 62
    7
 10
1162.6187812081203
 20
1432.8826627628391
 11
1161.1251693676561
 21
1432.8826627628391
  0
LINE
  8
_0-0_0
  6
CONTINUOUS
 62
    7
 10
1161.1251693676561
 20
1432.8826627628391
 11
1110.624589959386
 21
1432.8826627628391
  0
LINE
  8
_0-0_0
  6
CONTINUOUS
 62
    7
 10
1110.624589959386
 20
1432.8826627628391
 11
1109.1222943291509
 21
1432.8826627628391
  0
LINE
  8
_0-0_0
  6
CONTINUOUS
 62
    7
 10
1109.1222943291509
 20
1432.8826627628391
 11
1103.878139449532
 21
1432.8826627628391
  0
LINE
  8
_0-0_0
  6
CONTINUOUS
 62
    7
 10
1103.878139449532
 20
1432.8826627628391
 11
1103.877285307984
 21
1432.8826627628391
  0
LINE
  8
_0-0_0
  6
CONTINUOUS
 62
    7
 10
3654.99995850705
 20
2543.3887282139722
 11
5154.99995850705
 21
2543.3887282139722
  0
LINE
  8
_0-0_0
  6
CONTINUOUS
 62
    7
 10
3654.99995850705
 20
2443.3887282139722
 11
5154.99995850705
 21
2443.3887282139722
  0
LINE
  8
_0-0_0
  6
CONTINUOUS
 62
    7
 10
3654.99995850705
 20
2343.3887282139722
 11
5154.99995850705
 21
2343.3887282139722
  0
LINE
  8
_0-0_0
  6
CONTINUOUS
 62
    7
 10
3654.99995850705
 20
2243.3887282139708
 11
5154.99995850705
 21
2243.3887282139708
  0
LINE
  8
_0-0_0
  6
CONTINUOUS
 62
    7
 10
3654.99995850705
 20
2143.3887282139708
 11
5154.99995850705
 21
2143.3887282139708
  0
LINE
  8
_0-0_0
  6
CONTINUOUS
 62
    7
 10
3654.99995850705
 20
2043.388728213971
 11
5154.99995850705
 21
2043.388728213971
  0
LINE
  8
_0-0_0
  6
CONTINUOUS
 62
    7
 10
3654.99995850705
 20
1943.388728213971
 11
5154.99995850705
 21
1943.388728213971
  0
LINE
  8
_0-0_0
  6
CONTINUOUS
 62
    7
 10
3654.99995850705
 20
1843.388728213971
 11
5154.99995850705
 21
1843.388728213971
  0
LINE
  8
_0-0_0
  6
CONTINUOUS
 62
    7
 10
3654.99995850705
 20
1743.388728213971
 11
5154.99995850705
 21
1743.388728213971
  0
LINE
  8
_0-0_0
  6
CONTINUOUS
 62
    7
 10
3654.99995850705
 20
1643.388728213971
 11
5154.99995850705
 21
1643.388728213971
  0
LINE
  8
_0-0_0
  6
CONTINUOUS
 62
    7
 10
3654.99995850705
 20
1543.388728213971
 11
5154.99995850705
 21
1543.388728213971
  0
LINE
  8
_0-0_0
  6
CONTINUOUS
 62
    7
 10
3654.99995850705
 20
1443.388728213971
 11
5154.99995850705
 21
1443.388728213971
  0
LINE
  8
_0-0_0
  6
CONTINUOUS
 62
    7
 10
3654.99995850705
 20
2543.3887282139722
 11
3654.99995850705
 21
1443.388728213971
  0
LINE
  8
_0-0_0
  6
CONTINUOUS
 62
    7
 10
4354.99995850705
 20
2543.3887282139722
 11
4354.99995850705
 21
1443.388728213971
  0
LINE
  8
_0-0_0
  6
CONTINUOUS
 62
    7
 10
5154.99995850705
 20
2543.3887282139722
 11
5154.99995850705
 21
1443.388728213971
  0
LINE
  8
_0-3_図面枠
  6
CONTINUOUS
 62
    7
 10
5739.99995850705
 20
199.9999706615489
 11
5739.99995850705
 21
3999.999970661549
  0
LINE
  8
_0-3_図面枠
  6
CONTINUOUS
 62
    7
 10
5739.99995850705
 20
3999.999970661549
 11
399.99995850704977
 21
3999.999970661549
  0
LINE
  8
_0-3_図面枠
  6
CONTINUOUS
 62
    7
 10
399.99995850704977
 20
3999.999970661549
 11
399.99995850704977
 21
199.9999706615489
  0
LINE
  8
_0-3_図面枠
  6
CONTINUOUS
 62
    7
 10
399.99995850704977
 20
199.9999706615489
 11
5739.99995850705
 21
199.9999706615489
  0
LINE
  8
_0-2_用紙枠
  6
CONTINUOUS
 62
    7
 10
-0.0000414929502312
 20
-0.0000293384510996
 11
5939.99995850705
 21
-0.0000293384510996
  0
LINE
  8
_0-2_用紙枠
  6
CONTINUOUS
 62
    7
 10
5939.99995850705
 20
-0.0000293384510996
 11
5939.99995850705
 21
4199.999970661549
  0
LINE
  8
_0-2_用紙枠
  6
CONTINUOUS
 62
    7
 10
5939.99995850705
 20
4199.999970661549
 11
-0.0000414929502312
 21
4199.999970661549
  0
LINE
  8
_0-2_用紙枠
  6
CONTINUOUS
 62
    7
 10
-0.0000414929502312
 20
4199.999970661549
 11
-0.0000414929502312
 21
-0.0000293384510996
  0
TEXT
  8
_0-0_0
 62
    7
 10
2144.9999585070509
 20
1887.9910009412442
 40
70
 41
1
 50
90
  1
1480
  0
LINE
  8
_0-0_0
  6
CONTINUOUS
 62
    7
 10
2153.3332918403848
 20
2663.3887282139722
 11
2164.9999585070518
 21
2733.3887282139731
  0
LINE
  8
_0-0_0
  6
CONTINUOUS
 62
    7
 10
2176.6666251737179
 20
2663.3887282139722
 11
2164.9999585070518
 21
2733.3887282139731
  0
LINE
  8
_0-0_0
  6
CONTINUOUS
 62
    7
 10
2164.9999585070518
 20
2733.3887282139731
 11
2164.9999585070518
 21
2663.3887282139722
  0
LINE
  8
_0-0_0
  6
CONTINUOUS
 62
    7
 10
2176.6666251737179
 20
1323.388728213971
 11
2164.9999585070518
 21
1253.388728213971
  0
LINE
  8
_0-0_0
  6
CONTINUOUS
 62
    7
 10
2153.3332918403848
 20
1323.388728213971
 11
2164.9999585070518
 21
1253.388728213971
  0
LINE
  8
_0-0_0
  6
CONTINUOUS
 62
    7
 10
2164.9999585070518
 20
1253.388728213971
 11
2164.9999585070518
 21
1323.388728213971
  0
TEXT
  8
_0-0_0
 62
    7
 10
1459.6022312343252
 20
2953.3887282139722
 40
70
 41
1
 50
0
  1
1000
  0
LINE
  8
_0-0_0
  6
CONTINUOUS
 62
    7
 10
1994.999958507052
 20
2945.0553948806391
 11
2064.9999585070518
 21
2933.3887282139722
  0
LINE
  8
_0-0_0
  6
CONTINUOUS
 62
    7
 10
1994.999958507052
 20
2921.7220615473052
 11
2064.9999585070518
 21
2933.3887282139722
  0
LINE
  8
_0-0_0
  6
CONTINUOUS
 62
    7
 10
2064.9999585070518
 20
2933.3887282139722
 11
1994.999958507052
 21
2933.3887282139722
  0
LINE
  8
_0-0_0
  6
CONTINUOUS
 62
    7
 10
1134.999958507052
 20
2921.7220615473052
 11
1064.999958507052
 21
2933.3887282139722
  0
LINE
  8
_0-0_0
  6
CONTINUOUS
 62
    7
 10
1134.999958507052
 20
2945.0553948806391
 11
1064.999958507052
 21
2933.3887282139722
  0
LINE
  8
_0-0_0
  6
CONTINUOUS
 62
    7
 10
1064.999958507052
 20
2933.3887282139722
 11
1134.999958507052
 21
2933.3887282139722
  0
TEXT
  8
_0-0_0
 62
    7
 10
2561.4204130525031
 20
2953.3887282139722
 40
70
 41
1
 50
0
  1
40
  0
LINE
  8
_0-0_0
  6
CONTINUOUS
 62
    7
 10
2474.9999585070482
 20
2921.7220615473052
 11
2404.9999585070482
 21
2933.3887282139722
  0
LINE
  8
_0-0_0
  6
CONTINUOUS
 62
    7
 10
2474.9999585070482
 20
2945.0553948806391
 11
2404.9999585070482
 21
2933.3887282139722
  0
LINE
  8
_0-0_0
  6
CONTINUOUS
 62
    7
 10
2404.9999585070482
 20
2933.3887282139722
 11
2474.9999585070482
 21
2933.3887282139722
  0
LINE
  8
_0-0_0
  6
CONTINUOUS
 62
    7
 10
2294.9999585070518
 20
2945.0553948806391
 11
2364.9999585070518
 21
2933.3887282139722
  0
LINE
  8
_0-0_0
  6
CONTINUOUS
 62
    7
 10
2294.9999585070518
 20
2921.7220615473052
 11
2364.9999585070518
 21
2933.3887282139722
  0
LINE
  8
_0-0_0
  6
CONTINUOUS
 62
    7
 10
2364.9999585070518
 20
2933.3887282139722
 11
2294.9999585070518
 21
2933.3887282139722
  0
TEXT
  8
_0-3_図面枠
 62
    7
 10
499.99995850705005
 20
3816.7774857663935
 40
140
 41
1
 50
0
  1
太陽電池モジュール　TML-270N-WHT-J
  0
TEXT
  8
_0-0_0
 62
    7
 10
3657.99995850705
 20
2466.9114554866978
 40
50
 41
1
 50
0
  1
  型式
  0
TEXT
  8
_0-0_0
 62
    7
 10
3657.99995850705
 20
2367.9341827594262
 40
50
 41
1
 50
0
  1
  セル種類
  0
TEXT
  8
_0-0_0
 62
    7
 10
3657.9999585070505
 20
2167.4796373048798
 40
50
 41
1
 50
0
  1
  公称最大出力
  0
TEXT
  8
_0-0_0
 62
    7
 10
3657.99995850705
 20
2267.2523645776082
 40
50
 41
1
 50
0
  1
  最大モジュール変換効率
  0
TEXT
  8
_0-0_0
 62
    7
 10
3657.99995850705
 20
2067.5932736685172
 40
50
 41
1
 50
0
  1
  公称最大出力動作電圧
  0
TEXT
  8
_0-0_0
 62
    7
 10
3657.99995850705
 20
1967.593273668517
 40
50
 41
1
 50
0
  1
  公称最大出力動作電流
  0
TEXT
  8
_0-0_0
 62
    7
 10
3657.99995850705
 20
1867.47963730488
 40
50
 41
1
 50
0
  1
  公称開放電圧
  0
TEXT
  8
_0-0_0
 62
    7
 10
3657.99995850705
 20
1767.2523645776073
 40
50
 41
1
 50
0
  1
  公称短絡電流
  0
TEXT
  8
_0-0_0
 62
    7
 10
3657.99995850705
 20
1667.9341827594251
 40
50
 41
1
 50
0
  1
  最大システム電圧
  0
TEXT
  8
_0-0_0
 62
    7
 10
3657.99995850705
 20
1568.047819123062
 40
50
 41
1
 50
0
  1
  外形寸法（WxHxD）
  0
TEXT
  8
_0-0_0
 62
    7
 10
3657.99995850705
 20
1468.047819123062
 40
50
 41
1
 50
0
  1
  質量
  0
TEXT
  8
_0-0_0
 62
    7
 10
4503.0681403252311
 20
2367.2523645776068
 40
50
 41
1
 50
0
  1
シリコン単結晶系
  0
TEXT
  8
_0-0_0
 62
    7
 10
4676.24995850705
 20
2268.3887282139708
 40
50
 41
1
 50
0
  1
18.2%
  0
TEXT
  8
_0-0_0
 62
    7
 10
4678.5226857797779
 20
2168.3887282139708
 40
50
 41
1
 50
0
  1
270W
  0
TEXT
  8
_0-0_0
 62
    7
 10
4673.522685779777
 20
2068.3887282139708
 40
50
 41
1
 50
0
  1
29.2V
  0
TEXT
  8
_0-0_0
 62
    7
 10
4673.295413052505
 20
1968.388728213971
 40
50
 41
1
 50
0
  1
9.25A
  0
TEXT
  8
_0-0_0
 62
    7
 10
4673.522685779777
 20
1868.388728213971
 40
50
 41
1
 50
0
  1
36.0V
  0
TEXT
  8
_0-0_0
 62
    7
 10
4654.772685779777
 20
1768.388728213971
 40
50
 41
1
 50
0
  1
10.02A
  0
TEXT
  8
_0-0_0
 62
    7
 10
4663.2954130525031
 20
1668.388728213971
 40
50
 41
1
 50
0
  1
1000V
  0
TEXT
  8
_0-0_0
 62
    7
 10
4522.8461538461524
 20
2468.3887282139708
 40
50
 41
1
 50
0
  1
TML-270N-WHT-J
  0
TEXT
  8
_0-0_0
 62
    7
 10
4524.9230769230762
 20
1571.1160009412442
 40
50
 41
1
 50
0
  1
1,480x1,000x40mm
  0
TEXT
  8
_0-0_0
 62
    7
 10
4658.9230769230762
 20
1469.1923076923078
 40
50
 41
1
 50
0
  1
15.2kg
  0
ENDSEC
  0
EOF
