  0
SECTION
  2
HEADER
  9
$ACADVER
  1
AC1009
  9
$INSBASE
 10
0.0
 20
0.0
 30
0.0
  9
$EXTMIN
 10
0.0
 20
0.0
 30
0.0
  9
$EXTMAX
 10
5940.0
 20
4200.0
 30
0.0
  9
$LIMMIN
 10
109.65118815104159
 20
82.197222222222209
  9
$LIMMAX
 10
147.89037000868041
 20
96.502808973524296
  9
$ORTHOMODE
 70
     1
  9
$REGENMODE
 70
     1
  9
$FILLMODE
 70
     1
  9
$QTEXTMODE
 70
     0
  9
$MIRRTEXT
 70
     1
  9
$DRAGMODE
 70
     2
  9
$LTSCALE
 40
1.0
  9
$OSMODE
 70
   175
  9
$ATTMODE
 70
     1
  9
$TEXTSIZE
 40
0.0
  9
$TRACEWID
 40
0.05
  9
$TEXTSTYLE
  7
STANDARD
  9
$CLAYER
  8
0
  9
$CELTYPE
  6
BYLAYER
  9
$CECOLOR
 62
   256
  9
$DIMSCALE
 40
2.0
  9
$DIMASZ
 40
35.0
  9
$DIMEXO
 40
0.0625
  9
$DIMDLI
 40
10.0
  9
$DIMRND
 40
0.0
  9
$DIMDLE
 40
0.0
  9
$DIMEXE
 40
0.18
  9
$DIMTP
 40
0.0
  9
$DIMTM
 40
0.0
  9
$DIMTXT
 40
35.0
  9
$DIMCEN
 40
0.09
  9
$DIMTSZ
 40
0.0
  9
$DIMTOL
 70
     0
  9
$DIMLIM
 70
     0
  9
$DIMTIH
 70
     0
  9
$DIMTOH
 70
     0
  9
$DIMSE1
 70
     0
  9
$DIMSE2
 70
     0
  9
$DIMTAD
 70
     3
  9
$DIMZIN
 70
     0
  9
$DIMBLK
  1
OPEN
  9
$DIMASO
 70
     1
  9
$DIMSHO
 70
     1
  9
$DIMPOST
  1

  9
$DIMAPOST
  1

  9
$DIMALT
 70
     0
  9
$DIMALTD
 70
     2
  9
$DIMALTF
 40
25.399999999999999
  9
$DIMLFAC
 40
1.0
  9
$DIMTOFL
 70
     1
  9
$DIMTVP
 40
0.0
  9
$DIMTIX
 70
     0
  9
$DIMSOXD
 70
     0
  9
$DIMSAH
 70
     0
  9
$DIMBLK1
  1

  9
$DIMBLK2
  1

  9
$DIMSTYLE
  2
STANDARD
  9
$DIMCLRD
 70
     0
  9
$DIMCLRE
 70
     0
  9
$DIMCLRT
 70
     0
  9
$DIMTFAC
 40
1.0
  9
$DIMGAP
 40
10.0
  9
$LUNITS
 70
     2
  9
$LUPREC
 70
     4
  9
$SKETCHINC
 40
0.1
  9
$FILLETRAD
 40
100.0
  9
$AUNITS
 70
     0
  9
$AUPREC
 70
     0
  9
$MENU
  1
acad
  9
$ELEVATION
 40
0.0
  9
$PELEVATION
 40
0.0
  9
$THICKNESS
 40
0.0
  9
$LIMCHECK
 70
     0
  9
$BLIPMODE
 70
     0
  9
$CHAMFERA
 40
0.0
  9
$CHAMFERB
 40
0.0
  9
$SKPOLY
 70
     0
  9
$TDCREATE
 40
2456743.5973998029
  9
$TDUPDATE
 40
2457658.3667582748
  9
$TDINDWG
 40
0.811644375
  9
$TDUSRTIMER
 40
2456742.9789354051
  9
$USRTIMER
 70
     1
  9
$ANGBASE
 50
0.0
  9
$ANGDIR
 70
     0
  9
$PDMODE
 70
     1
  9
$PDSIZE
 40
0.0
  9
$PLINEWID
 40
0.0
  9
$COORDS
 70
     2
  9
$SPLFRAME
 70
     0
  9
$SPLINETYPE
 70
     6
  9
$SPLINESEGS
 70
     8
  9
$ATTDIA
 70
     0
  9
$ATTREQ
 70
     1
  9
$HANDLING
 70
     1
  9
$HANDSEED
  5
8CFD
  9
$SURFTAB1
 70
     6
  9
$SURFTAB2
 70
     6
  9
$SURFTYPE
 70
     6
  9
$SURFU
 70
     6
  9
$SURFV
 70
     6
  9
$UCSNAME
  2

  9
$UCSORG
 10
0.0
 20
0.0
 30
0.0
  9
$UCSXDIR
 10
1.0
 20
0.0
 30
0.0
  9
$UCSYDIR
 10
0.0
 20
1.0
 30
0.0
  9
$PUCSNAME
  2

  9
$PUCSORG
 10
0.0
 20
0.0
 30
0.0
  9
$PUCSXDIR
 10
1.0
 20
0.0
 30
0.0
  9
$PUCSYDIR
 10
0.0
 20
1.0
 30
0.0
  9
$USERI1
 70
     0
  9
$USERI2
 70
     0
  9
$USERI3
 70
     0
  9
$USERI4
 70
     0
  9
$USERI5
 70
     0
  9
$USERR1
 40
0.0
  9
$USERR2
 40
0.0
  9
$USERR3
 40
0.0
  9
$USERR4
 40
0.0
  9
$USERR5
 40
0.0
  9
$WORLDVIEW
 70
     1
  9
$SHADEDGE
 70
     3
  9
$SHADEDIF
 70
    70
  9
$TILEMODE
 70
     1
  9
$MAXACTVP
 70
    16
  9
$PLIMCHECK
 70
     0
  9
$PEXTMIN
 10
29.066066288948051
 20
20.366566777229309
 30
0.0
  9
$PEXTMAX
 10
261.5945966005325
 20
183.29910099506381
 30
0.0
  9
$PLIMMIN
 10
-3.17498779296875
 20
-3.1749999523162842
  9
$PLIMMAX
 10
293.83566284179687
 20
206.8406708240509
  9
$UNITMODE
 70
     0
  9
$VISRETAIN
 70
     0
  9
$PLINEGEN
 70
     1
  9
$PSLTSCALE
 70
     0
  0
ENDSEC
  0
SECTION
  2
TABLES
  0
TABLE
  2
VPORT
 70
     1
  0
VPORT
  2
*ACTIVE
 70
     0
 10
0.0
 20
0.0
 11
1.0
 21
1.0
 12
3210.890774002225
 22
2458.3244193953128
 13
0.0
 23
0.0
 14
1.0
 24
1.0
 15
0.0
 25
0.0
 16
0.0
 26
0.0
 36
1.0
 17
0.0
 27
0.0
 37
0.0
 40
4237.0128941806361
 41
2.656033287101248
 42
50.0
 43
0.0
 44
0.0
 50
0.0
 51
0.0
 71
     0
 72
   100
 73
     1
 74
     1
 75
     0
 76
     0
 77
     0
 78
     0
  0
ENDTAB
  0
TABLE
  2
LTYPE
 70
     2
  0
LTYPE
  2
CONTINUOUS
 70
     0
  3
Solid line
 72
    65
 73
     0
 40
0.0
  0
LTYPE
  2
PHANTOM2
 70
     0
  3
___ _ _ ___ _ _ ___ _ _ ___ _ _
 72
    65
 73
     6
 40
1.25
 49
0.625
 49
-0.125
 49
0.125
 49
-0.125
 49
0.125
 49
-0.125
  0
ENDTAB
  0
TABLE
  2
LAYER
 70
     4
  0
LAYER
  2
0
 70
     0
 62
     7
  6
CONTINUOUS
  0
LAYER
  2
DEFPOINTS
 70
     0
 62
     7
  6
CONTINUOUS
  0
LAYER
  2
用紙枠
 70
     4
 62
     7
  6
CONTINUOUS
  0
LAYER
  2
図面枠
 70
     0
 62
     7
  6
CONTINUOUS
  0
ENDTAB
  0
TABLE
  2
STYLE
 70
     2
  0
STYLE
  2
STANDARD
 70
     0
 40
0.0
 41
1.0
 50
0.0
 71
     0
 42
0.0
  3
txt.shx
  4
bigfont.shx
  0
STYLE
  2
ANNOTATIVE
 70
     0
 40
0.0
 41
1.0
 50
0.0
 71
     0
 42
0.2
  3
txt
  4

  0
ENDTAB
  0
TABLE
  2
VIEW
 70
     0
  0
ENDTAB
  0
TABLE
  2
UCS
 70
     0
  0
ENDTAB
  0
TABLE
  2
APPID
 70
    19
  0
APPID
  2
ACAD
 70
     0
  0
APPID
  2
ACADANNOTATIVE
 70
     0
  0
APPID
  2
ACAD_EXEMPT_FROM_CAD_STANDARDS
 70
     0
  0
APPID
  2
ACAD_DSTYLE_DIMJAG
 70
     0
  0
APPID
  2
ACAD_DSTYLE_DIMTALN
 70
     0
  0
APPID
  2
ACAD_NAV_VCDISPLAY
 70
     0
  0
APPID
  2
ACAD_PSEXT
 70
     0
  0
APPID
  2
ACAECLAYERSTANDARD
 70
     0
  0
APPID
  2
ACCMTRANSPARENCY
 70
     0
  0
APPID
  2
ACADANNOAV
 70
     0
  0
APPID
  2
ACADANNOPO
 70
     0
  0
APPID
  2
ACAD_MLEADERVER
 70
     0
  0
APPID
  2
ACADSTRINGINFO
 70
     0
  0
APPID
  2
ACAD_DSTYLE_DIMBREAK
 70
     0
  0
APPID
  2
PLOTTRANSPARENCY
 70
     0
  0
APPID
  2
ACDBDYNAMICBLOCKGUID
 70
     0
  0
APPID
  2
ACAUTHENVIRON
 70
     0
  0
APPID
  2
ACLAYERTOOLS
 70
     0
  0
APPID
  2
ACDBDYNAMICBLOCKTRUENAME
 70
     0
  0
ENDTAB
  0
TABLE
  2
DIMSTYLE
 70
     2
  0
DIMSTYLE
  2
STANDARD
 70
     0
  3

  4

  5

  6

  7

 40
2.0
 41
35.0
 42
0.0625
 43
10.0
 44
0.18
 45
0.0
 46
0.0
 47
0.0
 48
0.0
140
35.0
141
0.09
142
0.0
143
25.399999999999999
144
1.0
145
0.0
146
1.0
147
10.0
 71
     0
 72
     0
 73
     0
 74
     0
 75
     0
 76
     0
 77
     3
 78
     0
170
     0
171
     2
172
     1
173
     0
174
     0
175
     0
176
     0
177
     0
178
     0
  0
DIMSTYLE
  2
ANNOTATIVE
 70
     0
  3

  4

  5

  6

  7

 40
1.0
 41
0.18
 42
0.0625
 43
0.38
 44
0.18
 45
0.0
 46
0.0
 47
0.0
 48
0.0
140
0.18
141
0.09
142
0.0
143
25.399999999999999
144
1.0
145
0.0
146
1.0
147
0.09
 71
     0
 72
     0
 73
     1
 74
     1
 75
     0
 76
     0
 77
     0
 78
     0
170
     0
171
     2
172
     0
173
     0
174
     0
175
     0
176
     0
177
     0
178
     0
  0
ENDTAB
  0
ENDSEC
  0
SECTION
  2
BLOCKS
  0
BLOCK
  8
0
  2
$MODEL_SPACE
 70
     0
 10
0.0
 20
0.0
 30
0.0
  3
$MODEL_SPACE
  1

  0
ENDBLK
  5
8C83
  8
0
  0
BLOCK
 67
     1
  8
0
  2
$PAPER_SPACE
 70
     0
 10
0.0
 20
0.0
 30
0.0
  3
$PAPER_SPACE
  1

  0
ENDBLK
  5
8C7F
 67
     1
  8
0
  0
BLOCK
  8
0
  2
_OPEN
 70
     0
 10
0.0
 20
0.0
 30
0.0
  3
_OPEN
  1

  0
LINE
  5
AB0
  8
0
  6
BYBLOCK
 62
     0
 10
-1.0
 20
0.1666666666666666
 30
0.0
 11
0.0
 21
0.0
 31
0.0
  0
LINE
  5
AB1
  8
0
  6
BYBLOCK
 62
     0
 10
-1.0
 20
-0.1666666666666666
 30
0.0
 11
0.0
 21
0.0
 31
0.0
  0
LINE
  5
AB2
  8
0
  6
BYBLOCK
 62
     0
 10
0.0
 20
0.0
 30
0.0
 11
-1.0
 21
0.0
 31
0.0
  0
ENDBLK
  5
AB4
  8
0
  0
BLOCK
  8
0
  2
_CLOSED
 70
     0
 10
0.0
 20
0.0
 30
0.0
  3
_CLOSED
  1

  0
LINE
  5
AB6
  8
0
  6
BYBLOCK
 62
     0
 10
-1.0
 20
0.1666666666666666
 30
0.0
 11
0.0
 21
0.0
 31
0.0
  0
LINE
  5
AB7
  8
0
  6
BYBLOCK
 62
     0
 10
0.0
 20
0.0
 30
0.0
 11
-1.0
 21
-0.1666666666666666
 31
0.0
  0
LINE
  5
AB8
  8
0
  6
BYBLOCK
 62
     0
 10
-1.0
 20
0.1666666666666666
 30
0.0
 11
-1.0
 21
-0.1666666666666666
 31
0.0
  0
LINE
  5
AB9
  8
0
  6
BYBLOCK
 62
     0
 10
0.0
 20
0.0
 30
0.0
 11
-1.0
 21
0.0
 31
0.0
  0
ENDBLK
  5
ABB
  8
0
  0
ENDSEC
  0
SECTION
  2
ENTITIES
  0
LINE
  5
FCA
  8
図面枠
 10
5740.0
 20
3786.777515104845
 30
0.0
 11
400.0
 21
3786.777515104845
 31
0.0
  0
TEXT
  5
1230
  8
図面枠
 10
500.0
 20
3836.777515104845
 30
0.0
 40
100.0
  1
太陽電池モジュール　SPR-253NX-WHT-J
 11
500.0
 21
3886.777515104845
 31
0.0
 73
     2
  0
LINE
  5
6C6B
  8
0
 10
2687.4662797050969
 20
2392.388751933318
 30
0.0
 11
2687.4662797050969
 21
1594.388751933318
 31
0.0
  0
LINE
  5
6C6C
  8
0
 10
2687.4662797050969
 20
1594.388751933318
 30
0.0
 11
2641.4662797050978
 21
1594.388751933318
 31
0.0
  0
LINE
  5
6C6D
  8
0
 10
2641.4662797050978
 20
1594.388751933318
 30
0.0
 11
2641.4662797050978
 21
2392.388751933318
 31
0.0
  0
LINE
  5
6C6E
  8
0
 10
2641.4662797050978
 20
2392.388751933318
 30
0.0
 11
2687.4662797050969
 21
2392.388751933318
 31
0.0
  0
LINE
  5
7610
  8
0
 10
2341.4662797050969
 20
1594.388751933318
 30
0.0
 11
782.4662797050978
 21
1594.388751933318
 31
0.0
  0
LINE
  5
7611
  8
0
 10
782.4662797050978
 20
1594.388751933318
 30
0.0
 11
782.4662797050978
 21
2392.3887631715261
 31
0.0
  0
LINE
  5
7612
  8
0
 10
782.4662797050978
 20
2392.3887631715261
 30
0.0
 11
2341.4662797050969
 21
2392.3887631715261
 31
0.0
  0
LINE
  5
7613
  8
0
 10
2341.4662797050969
 20
2392.3887631715261
 30
0.0
 11
2341.4662797050969
 21
1594.388751933318
 31
0.0
  0
LINE
  5
7614
  8
0
 10
789.72622196085581
 20
1601.5652704725651
 30
0.0
 11
789.72622196085581
 21
2385.2122446322792
 31
0.0
  0
LINE
  5
7615
  8
0
 10
789.72622196085581
 20
2385.2122446322792
 30
0.0
 11
2334.2244873049808
 21
2385.2122446322792
 31
0.0
  0
LINE
  5
7616
  8
0
 10
2334.2244873049808
 20
2385.2122446322792
 30
0.0
 11
2334.2244873049808
 21
1601.5652704725651
 31
0.0
  0
LINE
  5
7617
  8
0
 10
2334.2244873049808
 20
1601.5652704725651
 30
0.0
 11
789.72622196085581
 21
1601.5652704725651
 31
0.0
  0
LINE
  5
7618
  8
0
 10
924.28925167120155
 20
2360.815687889567
 30
0.0
 11
924.28925167120155
 21
2267.0340976317611
 31
0.0
  0
LINE
  5
7619
  8
0
 10
924.28925167120155
 20
2267.0340976317611
 30
0.0
 11
906.64759198972934
 21
2249.8320908819128
 31
0.0
  0
LINE
  5
761A
  8
0
 10
906.64759198972934
 20
2249.8320908819128
 30
0.0
 11
814.04702851762613
 21
2249.8320908819128
 31
0.0
  0
LINE
  5
761B
  8
0
 10
814.04702851762613
 20
2249.8320908819128
 30
0.0
 11
796.69576652637625
 21
2267.0340976317611
 31
0.0
  0
LINE
  5
761C
  8
0
 10
796.69576652637625
 20
2267.0340976317611
 30
0.0
 11
796.69576652637625
 21
2360.815687889567
 31
0.0
  0
LINE
  5
761D
  8
0
 10
796.69576652637625
 20
2360.815687889567
 30
0.0
 11
814.04702851762613
 21
2378.0357260930318
 31
0.0
  0
LINE
  5
761E
  8
0
 10
814.04702851762613
 20
2378.0357260930318
 30
0.0
 11
906.64759198972934
 21
2378.0357260930318
 31
0.0
  0
LINE
  5
761F
  8
0
 10
906.64759198972934
 20
2378.0357260930318
 30
0.0
 11
924.28925167120155
 21
2360.815687889567
 31
0.0
  0
LINE
  5
7620
  8
0
 10
1051.8101373934751
 20
2360.815687889567
 30
0.0
 11
1051.8101373934751
 21
2267.0340976317611
 31
0.0
  0
LINE
  5
7621
  8
0
 10
1051.8101373934751
 20
2267.0340976317611
 30
0.0
 11
1034.1503278563609
 21
2249.8320908819128
 31
0.0
  0
LINE
  5
7622
  8
0
 10
1034.1503278563609
 20
2249.8320908819128
 30
0.0
 11
941.567914239885
 21
2249.8320908819128
 31
0.0
  0
LINE
  5
7623
  8
0
 10
941.567914239885
 20
2249.8320908819128
 30
0.0
 11
924.19850239300797
 21
2267.0340976317611
 31
0.0
  0
LINE
  5
7624
  8
0
 10
924.19850239300797
 20
2267.0340976317611
 30
0.0
 11
924.19850239300797
 21
2360.815687889567
 31
0.0
  0
LINE
  5
7625
  8
0
 10
924.19850239300797
 20
2360.815687889567
 30
0.0
 11
941.567914239885
 21
2378.0357260930318
 31
0.0
  0
LINE
  5
7626
  8
0
 10
941.567914239885
 20
2378.0357260930318
 30
0.0
 11
1034.1503278563609
 21
2378.0357260930318
 31
0.0
  0
LINE
  5
7627
  8
0
 10
1034.1503278563609
 20
2378.0357260930318
 30
0.0
 11
1051.8101373934751
 21
2360.815687889567
 31
0.0
  0
LINE
  5
7628
  8
0
 10
1179.294723404465
 20
2360.815687889567
 30
0.0
 11
1179.294723404465
 21
2267.0340976317611
 31
0.0
  0
LINE
  5
7629
  8
0
 10
1179.294723404465
 20
2267.0340976317611
 30
0.0
 11
1161.653063722978
 21
2249.8320908819128
 31
0.0
  0
LINE
  5
762A
  8
0
 10
1161.653063722978
 20
2249.8320908819128
 30
0.0
 11
1069.070650106516
 21
2249.8320908819128
 31
0.0
  0
LINE
  5
762B
  8
0
 10
1069.070650106516
 20
2249.8320908819128
 30
0.0
 11
1051.7375379709081
 21
2267.0340976317611
 31
0.0
  0
LINE
  5
762C
  8
0
 10
1051.7375379709081
 20
2267.0340976317611
 30
0.0
 11
1051.7375379709081
 21
2360.815687889567
 31
0.0
  0
LINE
  5
762D
  8
0
 10
1051.7375379709081
 20
2360.815687889567
 30
0.0
 11
1069.070650106516
 21
2378.0357260930318
 31
0.0
  0
LINE
  5
762E
  8
0
 10
1069.070650106516
 20
2378.0357260930318
 30
0.0
 11
1161.653063722978
 21
2378.0357260930318
 31
0.0
  0
LINE
  5
762F
  8
0
 10
1161.653063722978
 20
2378.0357260930318
 30
0.0
 11
1179.294723404465
 21
2360.815687889567
 31
0.0
  0
LINE
  5
7630
  8
0
 10
1306.8156091267231
 20
2360.815687889567
 30
0.0
 11
1306.8156091267231
 21
2267.0340976317611
 31
0.0
  0
LINE
  5
7631
  8
0
 10
1306.8156091267231
 20
2267.0340976317611
 30
0.0
 11
1289.210249156534
 21
2249.8320908819128
 31
0.0
  0
LINE
  5
7632
  8
0
 10
1289.210249156534
 20
2249.8320908819128
 30
0.0
 11
1196.5733859731481
 21
2249.8320908819128
 31
0.0
  0
LINE
  5
7633
  8
0
 10
1196.5733859731481
 20
2249.8320908819128
 30
0.0
 11
1179.25842369318
 21
2267.0340976317611
 31
0.0
  0
LINE
  5
7634
  8
0
 10
1179.25842369318
 20
2267.0340976317611
 30
0.0
 11
1179.25842369318
 21
2360.815687889567
 31
0.0
  0
LINE
  5
7635
  8
0
 10
1179.25842369318
 20
2360.815687889567
 30
0.0
 11
1196.5733859731481
 21
2378.0357260930318
 31
0.0
  0
LINE
  5
7636
  8
0
 10
1196.5733859731481
 20
2378.0357260930318
 30
0.0
 11
1289.210249156534
 21
2378.0357260930318
 31
0.0
  0
LINE
  5
7637
  8
0
 10
1289.210249156534
 20
2378.0357260930318
 30
0.0
 11
1306.8156091267231
 21
2360.815687889567
 31
0.0
  0
LINE
  5
7638
  8
0
 10
1434.3546447046231
 20
2360.815687889567
 30
0.0
 11
1434.3546447046231
 21
2267.0340976317611
 31
0.0
  0
LINE
  5
7639
  8
0
 10
1434.3546447046231
 20
2267.0340976317611
 30
0.0
 11
1416.6948351675089
 21
2249.8320908819128
 31
0.0
  0
LINE
  5
763A
  8
0
 10
1416.6948351675089
 20
2249.8320908819128
 30
0.0
 11
1324.076121839779
 21
2249.8320908819128
 31
0.0
  0
LINE
  5
763B
  8
0
 10
1324.076121839779
 20
2249.8320908819128
 30
0.0
 11
1306.761159559798
 21
2267.0340976317611
 31
0.0
  0
LINE
  5
763C
  8
0
 10
1306.761159559798
 20
2267.0340976317611
 30
0.0
 11
1306.761159559798
 21
2360.815687889567
 31
0.0
  0
LINE
  5
763D
  8
0
 10
1306.761159559798
 20
2360.815687889567
 30
0.0
 11
1324.076121839779
 21
2378.0357260930318
 31
0.0
  0
LINE
  5
763E
  8
0
 10
1324.076121839779
 20
2378.0357260930318
 30
0.0
 11
1416.6948351675089
 21
2378.0357260930318
 31
0.0
  0
LINE
  5
763F
  8
0
 10
1416.6948351675089
 20
2378.0357260930318
 30
0.0
 11
1434.3546447046231
 21
2360.815687889567
 31
0.0
  0
LINE
  5
7640
  8
0
 10
1561.8210808599861
 20
2360.815687889567
 30
0.0
 11
1561.8210808599861
 21
2267.0340976317611
 31
0.0
  0
LINE
  5
7641
  8
0
 10
1561.8210808599861
 20
2267.0340976317611
 30
0.0
 11
1544.1794211785141
 21
2249.8320908819128
 31
0.0
  0
LINE
  5
7642
  8
0
 10
1544.1794211785141
 20
2249.8320908819128
 30
0.0
 11
1451.6151574176799
 21
2249.8320908819128
 31
0.0
  0
LINE
  5
7643
  8
0
 10
1451.6151574176799
 20
2249.8320908819128
 30
0.0
 11
1434.2638954264439
 21
2267.0340976317611
 31
0.0
  0
LINE
  5
7644
  8
0
 10
1434.2638954264439
 20
2267.0340976317611
 30
0.0
 11
1434.2638954264439
 21
2360.815687889567
 31
0.0
  0
LINE
  5
7645
  8
0
 10
1434.2638954264439
 20
2360.815687889567
 30
0.0
 11
1451.6151574176799
 21
2378.0357260930318
 31
0.0
  0
LINE
  5
7646
  8
0
 10
1451.6151574176799
 20
2378.0357260930318
 30
0.0
 11
1544.1794211785141
 21
2378.0357260930318
 31
0.0
  0
LINE
  5
7647
  8
0
 10
1544.1794211785141
 20
2378.0357260930318
 30
0.0
 11
1561.8210808599861
 21
2360.815687889567
 31
0.0
  0
LINE
  5
7648
  8
0
 10
1689.378266293528
 20
2360.815687889567
 30
0.0
 11
1689.378266293528
 21
2267.0340976317611
 31
0.0
  0
LINE
  5
7649
  8
0
 10
1689.378266293528
 20
2267.0340976317611
 30
0.0
 11
1671.7366066120551
 21
2249.8320908819128
 31
0.0
  0
LINE
  5
764A
  8
0
 10
1671.7366066120551
 20
2249.8320908819128
 30
0.0
 11
1579.136043139953
 21
2249.8320908819128
 31
0.0
  0
LINE
  5
764B
  8
0
 10
1579.136043139953
 20
2249.8320908819128
 30
0.0
 11
1561.784781148702
 21
2267.0340976317611
 31
0.0
  0
LINE
  5
764C
  8
0
 10
1561.784781148702
 20
2267.0340976317611
 30
0.0
 11
1561.784781148702
 21
2360.815687889567
 31
0.0
  0
LINE
  5
764D
  8
0
 10
1561.784781148702
 20
2360.815687889567
 30
0.0
 11
1579.136043139953
 21
2378.0357260930318
 31
0.0
  0
LINE
  5
764E
  8
0
 10
1579.136043139953
 20
2378.0357260930318
 30
0.0
 11
1671.7366066120551
 21
2378.0357260930318
 31
0.0
  0
LINE
  5
764F
  8
0
 10
1671.7366066120551
 20
2378.0357260930318
 30
0.0
 11
1689.378266293528
 21
2360.815687889567
 31
0.0
  0
LINE
  5
7650
  8
0
 10
1816.8991520158011
 20
2360.815687889567
 30
0.0
 11
1816.8991520158011
 21
2267.0340976317611
 31
0.0
  0
LINE
  5
7651
  8
0
 10
1816.8991520158011
 20
2267.0340976317611
 30
0.0
 11
1799.2393424786869
 21
2249.8320908819128
 31
0.0
  0
LINE
  5
7652
  8
0
 10
1799.2393424786869
 20
2249.8320908819128
 30
0.0
 11
1706.6387790065701
 21
2249.8320908819128
 31
0.0
  0
LINE
  5
7653
  8
0
 10
1706.6387790065701
 20
2249.8320908819128
 30
0.0
 11
1689.287517015335
 21
2267.0340976317611
 31
0.0
  0
LINE
  5
7654
  8
0
 10
1689.287517015335
 20
2267.0340976317611
 30
0.0
 11
1689.287517015335
 21
2360.815687889567
 31
0.0
  0
LINE
  5
7655
  8
0
 10
1689.287517015335
 20
2360.815687889567
 30
0.0
 11
1706.6387790065701
 21
2378.0357260930318
 31
0.0
  0
LINE
  5
7656
  8
0
 10
1706.6387790065701
 20
2378.0357260930318
 30
0.0
 11
1799.2393424786869
 21
2378.0357260930318
 31
0.0
  0
LINE
  5
7657
  8
0
 10
1799.2393424786869
 20
2378.0357260930318
 30
0.0
 11
1816.8991520158011
 21
2360.815687889567
 31
0.0
  0
LINE
  5
7658
  8
0
 10
1944.383738026791
 20
2360.815687889567
 30
0.0
 11
1944.383738026791
 21
2267.0340976317611
 31
0.0
  0
LINE
  5
7659
  8
0
 10
1944.383738026791
 20
2267.0340976317611
 30
0.0
 11
1926.742078345304
 21
2249.8320908819128
 31
0.0
  0
LINE
  5
765A
  8
0
 10
1926.742078345304
 20
2249.8320908819128
 30
0.0
 11
1834.141514873216
 21
2249.8320908819128
 31
0.0
  0
LINE
  5
765B
  8
0
 10
1834.141514873216
 20
2249.8320908819128
 30
0.0
 11
1816.826552593235
 21
2267.0340976317611
 31
0.0
  0
LINE
  5
765C
  8
0
 10
1816.826552593235
 20
2267.0340976317611
 30
0.0
 11
1816.826552593235
 21
2360.815687889567
 31
0.0
  0
LINE
  5
765D
  8
0
 10
1816.826552593235
 20
2360.815687889567
 30
0.0
 11
1834.141514873216
 21
2378.0357260930318
 31
0.0
  0
LINE
  5
765E
  8
0
 10
1834.141514873216
 20
2378.0357260930318
 30
0.0
 11
1926.742078345304
 21
2378.0357260930318
 31
0.0
  0
LINE
  5
765F
  8
0
 10
1926.742078345304
 20
2378.0357260930318
 30
0.0
 11
1944.383738026791
 21
2360.815687889567
 31
0.0
  0
LINE
  5
7660
  8
0
 10
2071.9046237490511
 20
2360.815687889567
 30
0.0
 11
2071.9046237490511
 21
2267.0340976317611
 31
0.0
  0
LINE
  5
7661
  8
0
 10
2071.9046237490511
 20
2267.0340976317611
 30
0.0
 11
2054.26296406758
 21
2249.8320908819128
 31
0.0
  0
LINE
  5
7662
  8
0
 10
2054.26296406758
 20
2249.8320908819128
 30
0.0
 11
1961.6624005954741
 21
2249.8320908819128
 31
0.0
  0
LINE
  5
7663
  8
0
 10
1961.6624005954741
 20
2249.8320908819128
 30
0.0
 11
1944.347438315508
 21
2267.0340976317611
 31
0.0
  0
LINE
  5
7664
  8
0
 10
1944.347438315508
 20
2267.0340976317611
 30
0.0
 11
1944.347438315508
 21
2360.815687889567
 31
0.0
  0
LINE
  5
7665
  8
0
 10
1944.347438315508
 20
2360.815687889567
 30
0.0
 11
1961.6624005954741
 21
2378.0357260930318
 31
0.0
  0
LINE
  5
7666
  8
0
 10
1961.6624005954741
 20
2378.0357260930318
 30
0.0
 11
2054.26296406758
 21
2378.0357260930318
 31
0.0
  0
LINE
  5
7667
  8
0
 10
2054.26296406758
 20
2378.0357260930318
 30
0.0
 11
2071.9046237490511
 21
2360.815687889567
 31
0.0
  0
LINE
  5
7668
  8
0
 10
2199.4255094713089
 20
2360.815687889567
 30
0.0
 11
2199.4255094713089
 21
2267.0340976317611
 31
0.0
  0
LINE
  5
7669
  8
0
 10
2199.4255094713089
 20
2267.0340976317611
 30
0.0
 11
2181.783849789836
 21
2249.8320908819128
 31
0.0
  0
LINE
  5
766A
  8
0
 10
2181.783849789836
 20
2249.8320908819128
 30
0.0
 11
2089.1651364621061
 21
2249.8320908819128
 31
0.0
  0
LINE
  5
766B
  8
0
 10
2089.1651364621061
 20
2249.8320908819128
 30
0.0
 11
2071.8501741821392
 21
2267.0340976317611
 31
0.0
  0
LINE
  5
766C
  8
0
 10
2071.8501741821392
 20
2267.0340976317611
 30
0.0
 11
2071.8501741821392
 21
2360.815687889567
 31
0.0
  0
LINE
  5
766D
  8
0
 10
2071.8501741821392
 20
2360.815687889567
 30
0.0
 11
2089.1651364621061
 21
2378.0357260930318
 31
0.0
  0
LINE
  5
766E
  8
0
 10
2089.1651364621061
 20
2378.0357260930318
 30
0.0
 11
2181.783849789836
 21
2378.0357260930318
 31
0.0
  0
LINE
  5
766F
  8
0
 10
2181.783849789836
 20
2378.0357260930318
 30
0.0
 11
2199.4255094713089
 21
2360.815687889567
 31
0.0
  0
LINE
  5
7670
  8
0
 10
2326.9463951935959
 20
2360.815687889567
 30
0.0
 11
2326.9463951935959
 21
2267.0340976317611
 31
0.0
  0
LINE
  5
7671
  8
0
 10
2326.9463951935959
 20
2267.0340976317611
 30
0.0
 11
2309.268435800841
 21
2249.8320908819128
 31
0.0
  0
LINE
  5
7672
  8
0
 10
2309.268435800841
 20
2249.8320908819128
 30
0.0
 11
2216.7041720400061
 21
2249.8320908819128
 31
0.0
  0
LINE
  5
7673
  8
0
 10
2216.7041720400061
 20
2249.8320908819128
 30
0.0
 11
2199.3529100487708
 21
2267.0340976317611
 31
0.0
  0
LINE
  5
7674
  8
0
 10
2199.3529100487708
 20
2267.0340976317611
 30
0.0
 11
2199.3529100487708
 21
2360.815687889567
 31
0.0
  0
LINE
  5
7675
  8
0
 10
2199.3529100487708
 20
2360.815687889567
 30
0.0
 11
2216.7041720400061
 21
2378.0357260930318
 31
0.0
  0
LINE
  5
7676
  8
0
 10
2216.7041720400061
 20
2378.0357260930318
 30
0.0
 11
2309.268435800841
 21
2378.0357260930318
 31
0.0
  0
LINE
  5
7677
  8
0
 10
2309.268435800841
 20
2378.0357260930318
 30
0.0
 11
2326.9463951935959
 21
2360.815687889567
 31
0.0
  0
LINE
  5
7678
  8
0
 10
924.28925167120155
 20
2232.6120526784471
 30
0.0
 11
924.28925167120155
 21
2138.8304624206271
 31
0.0
  0
LINE
  5
7679
  8
0
 10
924.28925167120155
 20
2138.8304624206271
 30
0.0
 11
906.64759198972934
 21
2121.6284556707792
 31
0.0
  0
LINE
  5
767A
  8
0
 10
906.64759198972934
 20
2121.6284556707792
 30
0.0
 11
814.04702851762613
 21
2121.6284556707792
 31
0.0
  0
LINE
  5
767B
  8
0
 10
814.04702851762613
 20
2121.6284556707792
 30
0.0
 11
796.69576652637625
 21
2138.8304624206271
 31
0.0
  0
LINE
  5
767C
  8
0
 10
796.69576652637625
 20
2138.8304624206271
 30
0.0
 11
796.69576652637625
 21
2232.6120526784471
 31
0.0
  0
LINE
  5
767D
  8
0
 10
796.69576652637625
 20
2232.6120526784471
 30
0.0
 11
814.04702851762613
 21
2249.8320908819128
 31
0.0
  0
LINE
  5
767E
  8
0
 10
814.04702851762613
 20
2249.8320908819128
 30
0.0
 11
906.64759198972934
 21
2249.8320908819128
 31
0.0
  0
LINE
  5
767F
  8
0
 10
906.64759198972934
 20
2249.8320908819128
 30
0.0
 11
924.28925167120155
 21
2232.6120526784471
 31
0.0
  0
LINE
  5
7680
  8
0
 10
1051.8101373934751
 20
2232.6120526784471
 30
0.0
 11
1051.8101373934751
 21
2138.8304624206271
 31
0.0
  0
LINE
  5
7681
  8
0
 10
1051.8101373934751
 20
2138.8304624206271
 30
0.0
 11
1034.1503278563609
 21
2121.6284556707792
 31
0.0
  0
LINE
  5
7682
  8
0
 10
1034.1503278563609
 20
2121.6284556707792
 30
0.0
 11
941.567914239885
 21
2121.6284556707792
 31
0.0
  0
LINE
  5
7683
  8
0
 10
941.567914239885
 20
2121.6284556707792
 30
0.0
 11
924.19850239300797
 21
2138.8304624206271
 31
0.0
  0
LINE
  5
7684
  8
0
 10
924.19850239300797
 20
2138.8304624206271
 30
0.0
 11
924.19850239300797
 21
2232.6120526784471
 31
0.0
  0
LINE
  5
7685
  8
0
 10
924.19850239300797
 20
2232.6120526784471
 30
0.0
 11
941.567914239885
 21
2249.8320908819128
 31
0.0
  0
LINE
  5
7686
  8
0
 10
941.567914239885
 20
2249.8320908819128
 30
0.0
 11
1034.1503278563609
 21
2249.8320908819128
 31
0.0
  0
LINE
  5
7687
  8
0
 10
1034.1503278563609
 20
2249.8320908819128
 30
0.0
 11
1051.8101373934751
 21
2232.6120526784471
 31
0.0
  0
LINE
  5
7688
  8
0
 10
1179.294723404465
 20
2232.6120526784471
 30
0.0
 11
1179.294723404465
 21
2138.8304624206271
 31
0.0
  0
LINE
  5
7689
  8
0
 10
1179.294723404465
 20
2138.8304624206271
 30
0.0
 11
1161.653063722978
 21
2121.6284556707792
 31
0.0
  0
LINE
  5
768A
  8
0
 10
1161.653063722978
 20
2121.6284556707792
 30
0.0
 11
1069.070650106516
 21
2121.6284556707792
 31
0.0
  0
LINE
  5
768B
  8
0
 10
1069.070650106516
 20
2121.6284556707792
 30
0.0
 11
1051.7375379709081
 21
2138.8304624206271
 31
0.0
  0
LINE
  5
768C
  8
0
 10
1051.7375379709081
 20
2138.8304624206271
 30
0.0
 11
1051.7375379709081
 21
2232.6120526784471
 31
0.0
  0
LINE
  5
768D
  8
0
 10
1051.7375379709081
 20
2232.6120526784471
 30
0.0
 11
1069.070650106516
 21
2249.8320908819128
 31
0.0
  0
LINE
  5
768E
  8
0
 10
1069.070650106516
 20
2249.8320908819128
 30
0.0
 11
1161.653063722978
 21
2249.8320908819128
 31
0.0
  0
LINE
  5
768F
  8
0
 10
1161.653063722978
 20
2249.8320908819128
 30
0.0
 11
1179.294723404465
 21
2232.6120526784471
 31
0.0
  0
LINE
  5
7690
  8
0
 10
1306.8156091267231
 20
2232.6120526784471
 30
0.0
 11
1306.8156091267231
 21
2138.8304624206271
 31
0.0
  0
LINE
  5
7691
  8
0
 10
1306.8156091267231
 20
2138.8304624206271
 30
0.0
 11
1289.210249156534
 21
2121.6284556707792
 31
0.0
  0
LINE
  5
7692
  8
0
 10
1289.210249156534
 20
2121.6284556707792
 30
0.0
 11
1196.5733859731481
 21
2121.6284556707792
 31
0.0
  0
LINE
  5
7693
  8
0
 10
1196.5733859731481
 20
2121.6284556707792
 30
0.0
 11
1179.25842369318
 21
2138.8304624206271
 31
0.0
  0
LINE
  5
7694
  8
0
 10
1179.25842369318
 20
2138.8304624206271
 30
0.0
 11
1179.25842369318
 21
2232.6120526784471
 31
0.0
  0
LINE
  5
7695
  8
0
 10
1179.25842369318
 20
2232.6120526784471
 30
0.0
 11
1196.5733859731481
 21
2249.8320908819128
 31
0.0
  0
LINE
  5
7696
  8
0
 10
1196.5733859731481
 20
2249.8320908819128
 30
0.0
 11
1289.210249156534
 21
2249.8320908819128
 31
0.0
  0
LINE
  5
7697
  8
0
 10
1289.210249156534
 20
2249.8320908819128
 30
0.0
 11
1306.8156091267231
 21
2232.6120526784471
 31
0.0
  0
LINE
  5
7698
  8
0
 10
1434.3546447046231
 20
2232.6120526784471
 30
0.0
 11
1434.3546447046231
 21
2138.8304624206271
 31
0.0
  0
LINE
  5
7699
  8
0
 10
1434.3546447046231
 20
2138.8304624206271
 30
0.0
 11
1416.6948351675089
 21
2121.6284556707792
 31
0.0
  0
LINE
  5
769A
  8
0
 10
1416.6948351675089
 20
2121.6284556707792
 30
0.0
 11
1324.076121839779
 21
2121.6284556707792
 31
0.0
  0
LINE
  5
769B
  8
0
 10
1324.076121839779
 20
2121.6284556707792
 30
0.0
 11
1306.761159559798
 21
2138.8304624206271
 31
0.0
  0
LINE
  5
769C
  8
0
 10
1306.761159559798
 20
2138.8304624206271
 30
0.0
 11
1306.761159559798
 21
2232.6120526784471
 31
0.0
  0
LINE
  5
769D
  8
0
 10
1306.761159559798
 20
2232.6120526784471
 30
0.0
 11
1324.076121839779
 21
2249.8320908819128
 31
0.0
  0
LINE
  5
769E
  8
0
 10
1324.076121839779
 20
2249.8320908819128
 30
0.0
 11
1416.6948351675089
 21
2249.8320908819128
 31
0.0
  0
LINE
  5
769F
  8
0
 10
1416.6948351675089
 20
2249.8320908819128
 30
0.0
 11
1434.3546447046231
 21
2232.6120526784471
 31
0.0
  0
LINE
  5
76A0
  8
0
 10
1561.8210808599861
 20
2232.6120526784471
 30
0.0
 11
1561.8210808599861
 21
2138.8304624206271
 31
0.0
  0
LINE
  5
76A1
  8
0
 10
1561.8210808599861
 20
2138.8304624206271
 30
0.0
 11
1544.1794211785141
 21
2121.6284556707792
 31
0.0
  0
LINE
  5
76A2
  8
0
 10
1544.1794211785141
 20
2121.6284556707792
 30
0.0
 11
1451.6151574176799
 21
2121.6284556707792
 31
0.0
  0
LINE
  5
76A3
  8
0
 10
1451.6151574176799
 20
2121.6284556707792
 30
0.0
 11
1434.2638954264439
 21
2138.8304624206271
 31
0.0
  0
LINE
  5
76A4
  8
0
 10
1434.2638954264439
 20
2138.8304624206271
 30
0.0
 11
1434.2638954264439
 21
2232.6120526784471
 31
0.0
  0
LINE
  5
76A5
  8
0
 10
1434.2638954264439
 20
2232.6120526784471
 30
0.0
 11
1451.6151574176799
 21
2249.8320908819128
 31
0.0
  0
LINE
  5
76A6
  8
0
 10
1451.6151574176799
 20
2249.8320908819128
 30
0.0
 11
1544.1794211785141
 21
2249.8320908819128
 31
0.0
  0
LINE
  5
76A7
  8
0
 10
1544.1794211785141
 20
2249.8320908819128
 30
0.0
 11
1561.8210808599861
 21
2232.6120526784471
 31
0.0
  0
LINE
  5
76A8
  8
0
 10
1689.378266293528
 20
2232.6120526784471
 30
0.0
 11
1689.378266293528
 21
2138.8304624206271
 31
0.0
  0
LINE
  5
76A9
  8
0
 10
1689.378266293528
 20
2138.8304624206271
 30
0.0
 11
1671.7366066120551
 21
2121.6284556707792
 31
0.0
  0
LINE
  5
76AA
  8
0
 10
1671.7366066120551
 20
2121.6284556707792
 30
0.0
 11
1579.136043139953
 21
2121.6284556707792
 31
0.0
  0
LINE
  5
76AB
  8
0
 10
1579.136043139953
 20
2121.6284556707792
 30
0.0
 11
1561.784781148702
 21
2138.8304624206271
 31
0.0
  0
LINE
  5
76AC
  8
0
 10
1561.784781148702
 20
2138.8304624206271
 30
0.0
 11
1561.784781148702
 21
2232.6120526784471
 31
0.0
  0
LINE
  5
76AD
  8
0
 10
1561.784781148702
 20
2232.6120526784471
 30
0.0
 11
1579.136043139953
 21
2249.8320908819128
 31
0.0
  0
LINE
  5
76AE
  8
0
 10
1579.136043139953
 20
2249.8320908819128
 30
0.0
 11
1671.7366066120551
 21
2249.8320908819128
 31
0.0
  0
LINE
  5
76AF
  8
0
 10
1671.7366066120551
 20
2249.8320908819128
 30
0.0
 11
1689.378266293528
 21
2232.6120526784471
 31
0.0
  0
LINE
  5
76B0
  8
0
 10
1816.8991520158011
 20
2232.6120526784471
 30
0.0
 11
1816.8991520158011
 21
2138.8304624206271
 31
0.0
  0
LINE
  5
76B1
  8
0
 10
1816.8991520158011
 20
2138.8304624206271
 30
0.0
 11
1799.2393424786869
 21
2121.6284556707792
 31
0.0
  0
LINE
  5
76B2
  8
0
 10
1799.2393424786869
 20
2121.6284556707792
 30
0.0
 11
1706.6387790065701
 21
2121.6284556707792
 31
0.0
  0
LINE
  5
76B3
  8
0
 10
1706.6387790065701
 20
2121.6284556707792
 30
0.0
 11
1689.287517015335
 21
2138.8304624206271
 31
0.0
  0
LINE
  5
76B4
  8
0
 10
1689.287517015335
 20
2138.8304624206271
 30
0.0
 11
1689.287517015335
 21
2232.6120526784471
 31
0.0
  0
LINE
  5
76B5
  8
0
 10
1689.287517015335
 20
2232.6120526784471
 30
0.0
 11
1706.6387790065701
 21
2249.8320908819128
 31
0.0
  0
LINE
  5
76B6
  8
0
 10
1706.6387790065701
 20
2249.8320908819128
 30
0.0
 11
1799.2393424786869
 21
2249.8320908819128
 31
0.0
  0
LINE
  5
76B7
  8
0
 10
1799.2393424786869
 20
2249.8320908819128
 30
0.0
 11
1816.8991520158011
 21
2232.6120526784471
 31
0.0
  0
LINE
  5
76B8
  8
0
 10
1944.383738026791
 20
2232.6120526784471
 30
0.0
 11
1944.383738026791
 21
2138.8304624206271
 31
0.0
  0
LINE
  5
76B9
  8
0
 10
1944.383738026791
 20
2138.8304624206271
 30
0.0
 11
1926.742078345304
 21
2121.6284556707792
 31
0.0
  0
LINE
  5
76BA
  8
0
 10
1926.742078345304
 20
2121.6284556707792
 30
0.0
 11
1834.141514873216
 21
2121.6284556707792
 31
0.0
  0
LINE
  5
76BB
  8
0
 10
1834.141514873216
 20
2121.6284556707792
 30
0.0
 11
1816.826552593235
 21
2138.8304624206271
 31
0.0
  0
LINE
  5
76BC
  8
0
 10
1816.826552593235
 20
2138.8304624206271
 30
0.0
 11
1816.826552593235
 21
2232.6120526784471
 31
0.0
  0
LINE
  5
76BD
  8
0
 10
1816.826552593235
 20
2232.6120526784471
 30
0.0
 11
1834.141514873216
 21
2249.8320908819128
 31
0.0
  0
LINE
  5
76BE
  8
0
 10
1834.141514873216
 20
2249.8320908819128
 30
0.0
 11
1926.742078345304
 21
2249.8320908819128
 31
0.0
  0
LINE
  5
76BF
  8
0
 10
1926.742078345304
 20
2249.8320908819128
 30
0.0
 11
1944.383738026791
 21
2232.6120526784471
 31
0.0
  0
LINE
  5
76C0
  8
0
 10
2071.9046237490511
 20
2232.6120526784471
 30
0.0
 11
2071.9046237490511
 21
2138.8304624206271
 31
0.0
  0
LINE
  5
76C1
  8
0
 10
2071.9046237490511
 20
2138.8304624206271
 30
0.0
 11
2054.26296406758
 21
2121.6284556707792
 31
0.0
  0
LINE
  5
76C2
  8
0
 10
2054.26296406758
 20
2121.6284556707792
 30
0.0
 11
1961.6624005954741
 21
2121.6284556707792
 31
0.0
  0
LINE
  5
76C3
  8
0
 10
1961.6624005954741
 20
2121.6284556707792
 30
0.0
 11
1944.347438315508
 21
2138.8304624206271
 31
0.0
  0
LINE
  5
76C4
  8
0
 10
1944.347438315508
 20
2138.8304624206271
 30
0.0
 11
1944.347438315508
 21
2232.6120526784471
 31
0.0
  0
LINE
  5
76C5
  8
0
 10
1944.347438315508
 20
2232.6120526784471
 30
0.0
 11
1961.6624005954741
 21
2249.8320908819128
 31
0.0
  0
LINE
  5
76C6
  8
0
 10
1961.6624005954741
 20
2249.8320908819128
 30
0.0
 11
2054.26296406758
 21
2249.8320908819128
 31
0.0
  0
LINE
  5
76C7
  8
0
 10
2054.26296406758
 20
2249.8320908819128
 30
0.0
 11
2071.9046237490511
 21
2232.6120526784471
 31
0.0
  0
LINE
  5
76C8
  8
0
 10
2199.4255094713089
 20
2232.6120526784471
 30
0.0
 11
2199.4255094713089
 21
2138.8304624206271
 31
0.0
  0
LINE
  5
76C9
  8
0
 10
2199.4255094713089
 20
2138.8304624206271
 30
0.0
 11
2181.783849789836
 21
2121.6284556707792
 31
0.0
  0
LINE
  5
76CA
  8
0
 10
2181.783849789836
 20
2121.6284556707792
 30
0.0
 11
2089.1651364621061
 21
2121.6284556707792
 31
0.0
  0
LINE
  5
76CB
  8
0
 10
2089.1651364621061
 20
2121.6284556707792
 30
0.0
 11
2071.8501741821392
 21
2138.8304624206271
 31
0.0
  0
LINE
  5
76CC
  8
0
 10
2071.8501741821392
 20
2138.8304624206271
 30
0.0
 11
2071.8501741821392
 21
2232.6120526784471
 31
0.0
  0
LINE
  5
76CD
  8
0
 10
2071.8501741821392
 20
2232.6120526784471
 30
0.0
 11
2089.1651364621061
 21
2249.8320908819128
 31
0.0
  0
LINE
  5
76CE
  8
0
 10
2089.1651364621061
 20
2249.8320908819128
 30
0.0
 11
2181.783849789836
 21
2249.8320908819128
 31
0.0
  0
LINE
  5
76CF
  8
0
 10
2181.783849789836
 20
2249.8320908819128
 30
0.0
 11
2199.4255094713089
 21
2232.6120526784471
 31
0.0
  0
LINE
  5
76D0
  8
0
 10
2326.9463951935959
 20
2232.6120526784471
 30
0.0
 11
2326.9463951935959
 21
2138.8304624206271
 31
0.0
  0
LINE
  5
76D1
  8
0
 10
2326.9463951935959
 20
2138.8304624206271
 30
0.0
 11
2309.268435800841
 21
2121.6284556707792
 31
0.0
  0
LINE
  5
76D2
  8
0
 10
2309.268435800841
 20
2121.6284556707792
 30
0.0
 11
2216.7041720400061
 21
2121.6284556707792
 31
0.0
  0
LINE
  5
76D3
  8
0
 10
2216.7041720400061
 20
2121.6284556707792
 30
0.0
 11
2199.3529100487708
 21
2138.8304624206271
 31
0.0
  0
LINE
  5
76D4
  8
0
 10
2199.3529100487708
 20
2138.8304624206271
 30
0.0
 11
2199.3529100487708
 21
2232.6120526784471
 31
0.0
  0
LINE
  5
76D5
  8
0
 10
2199.3529100487708
 20
2232.6120526784471
 30
0.0
 11
2216.7041720400061
 21
2249.8320908819128
 31
0.0
  0
LINE
  5
76D6
  8
0
 10
2216.7041720400061
 20
2249.8320908819128
 30
0.0
 11
2309.268435800841
 21
2249.8320908819128
 31
0.0
  0
LINE
  5
76D7
  8
0
 10
2309.268435800841
 20
2249.8320908819128
 30
0.0
 11
2326.9463951935959
 21
2232.6120526784471
 31
0.0
  0
LINE
  5
76D8
  8
0
 10
924.28925167120155
 20
2104.4264489209309
 30
0.0
 11
924.28925167120155
 21
2010.6268272094919
 31
0.0
  0
LINE
  5
76D9
  8
0
 10
924.28925167120155
 20
2010.6268272094919
 30
0.0
 11
906.64759198972934
 21
1993.424820459659
 31
0.0
  0
LINE
  5
76DA
  8
0
 10
906.64759198972934
 20
1993.424820459659
 30
0.0
 11
814.04702851762613
 21
1993.424820459659
 31
0.0
  0
LINE
  5
76DB
  8
0
 10
814.04702851762613
 20
1993.424820459659
 30
0.0
 11
796.69576652637625
 21
2010.6268272094919
 31
0.0
  0
LINE
  5
76DC
  8
0
 10
796.69576652637625
 20
2010.6268272094919
 30
0.0
 11
796.69576652637625
 21
2104.4264489209309
 31
0.0
  0
LINE
  5
76DD
  8
0
 10
796.69576652637625
 20
2104.4264489209309
 30
0.0
 11
814.04702851762613
 21
2121.6284556707792
 31
0.0
  0
LINE
  5
76DE
  8
0
 10
814.04702851762613
 20
2121.6284556707792
 30
0.0
 11
906.64759198972934
 21
2121.6284556707792
 31
0.0
  0
LINE
  5
76DF
  8
0
 10
906.64759198972934
 20
2121.6284556707792
 30
0.0
 11
924.28925167120155
 21
2104.4264489209309
 31
0.0
  0
LINE
  5
76E0
  8
0
 10
1051.8101373934751
 20
2104.4264489209309
 30
0.0
 11
1051.8101373934751
 21
2010.6268272094919
 31
0.0
  0
LINE
  5
76E1
  8
0
 10
1051.8101373934751
 20
2010.6268272094919
 30
0.0
 11
1034.1503278563609
 21
1993.424820459659
 31
0.0
  0
LINE
  5
76E2
  8
0
 10
1034.1503278563609
 20
1993.424820459659
 30
0.0
 11
941.567914239885
 21
1993.424820459659
 31
0.0
  0
LINE
  5
76E3
  8
0
 10
941.567914239885
 20
1993.424820459659
 30
0.0
 11
924.19850239300797
 21
2010.6268272094919
 31
0.0
  0
LINE
  5
76E4
  8
0
 10
924.19850239300797
 20
2010.6268272094919
 30
0.0
 11
924.19850239300797
 21
2104.4264489209309
 31
0.0
  0
LINE
  5
76E5
  8
0
 10
924.19850239300797
 20
2104.4264489209309
 30
0.0
 11
941.567914239885
 21
2121.6284556707792
 31
0.0
  0
LINE
  5
76E6
  8
0
 10
941.567914239885
 20
2121.6284556707792
 30
0.0
 11
1034.1503278563609
 21
2121.6284556707792
 31
0.0
  0
LINE
  5
76E7
  8
0
 10
1034.1503278563609
 20
2121.6284556707792
 30
0.0
 11
1051.8101373934751
 21
2104.4264489209309
 31
0.0
  0
LINE
  5
76E8
  8
0
 10
1179.294723404465
 20
2104.4264489209309
 30
0.0
 11
1179.294723404465
 21
2010.6268272094919
 31
0.0
  0
LINE
  5
76E9
  8
0
 10
1179.294723404465
 20
2010.6268272094919
 30
0.0
 11
1161.653063722978
 21
1993.424820459659
 31
0.0
  0
LINE
  5
76EA
  8
0
 10
1161.653063722978
 20
1993.424820459659
 30
0.0
 11
1069.070650106516
 21
1993.424820459659
 31
0.0
  0
LINE
  5
76EB
  8
0
 10
1069.070650106516
 20
1993.424820459659
 30
0.0
 11
1051.7375379709081
 21
2010.6268272094919
 31
0.0
  0
LINE
  5
76EC
  8
0
 10
1051.7375379709081
 20
2010.6268272094919
 30
0.0
 11
1051.7375379709081
 21
2104.4264489209309
 31
0.0
  0
LINE
  5
76ED
  8
0
 10
1051.7375379709081
 20
2104.4264489209309
 30
0.0
 11
1069.070650106516
 21
2121.6284556707792
 31
0.0
  0
LINE
  5
76EE
  8
0
 10
1069.070650106516
 20
2121.6284556707792
 30
0.0
 11
1161.653063722978
 21
2121.6284556707792
 31
0.0
  0
LINE
  5
76EF
  8
0
 10
1161.653063722978
 20
2121.6284556707792
 30
0.0
 11
1179.294723404465
 21
2104.4264489209309
 31
0.0
  0
LINE
  5
76F0
  8
0
 10
1306.8156091267231
 20
2104.4264489209309
 30
0.0
 11
1306.8156091267231
 21
2010.6268272094919
 31
0.0
  0
LINE
  5
76F1
  8
0
 10
1306.8156091267231
 20
2010.6268272094919
 30
0.0
 11
1289.210249156534
 21
1993.424820459659
 31
0.0
  0
LINE
  5
76F2
  8
0
 10
1289.210249156534
 20
1993.424820459659
 30
0.0
 11
1196.5733859731481
 21
1993.424820459659
 31
0.0
  0
LINE
  5
76F3
  8
0
 10
1196.5733859731481
 20
1993.424820459659
 30
0.0
 11
1179.25842369318
 21
2010.6268272094919
 31
0.0
  0
LINE
  5
76F4
  8
0
 10
1179.25842369318
 20
2010.6268272094919
 30
0.0
 11
1179.25842369318
 21
2104.4264489209309
 31
0.0
  0
LINE
  5
76F5
  8
0
 10
1179.25842369318
 20
2104.4264489209309
 30
0.0
 11
1196.5733859731481
 21
2121.6284556707792
 31
0.0
  0
LINE
  5
76F6
  8
0
 10
1196.5733859731481
 20
2121.6284556707792
 30
0.0
 11
1289.210249156534
 21
2121.6284556707792
 31
0.0
  0
LINE
  5
76F7
  8
0
 10
1289.210249156534
 20
2121.6284556707792
 30
0.0
 11
1306.8156091267231
 21
2104.4264489209309
 31
0.0
  0
LINE
  5
76F8
  8
0
 10
1434.3546447046231
 20
2104.4264489209309
 30
0.0
 11
1434.3546447046231
 21
2010.6268272094919
 31
0.0
  0
LINE
  5
76F9
  8
0
 10
1434.3546447046231
 20
2010.6268272094919
 30
0.0
 11
1416.6948351675089
 21
1993.424820459659
 31
0.0
  0
LINE
  5
76FA
  8
0
 10
1416.6948351675089
 20
1993.424820459659
 30
0.0
 11
1324.076121839779
 21
1993.424820459659
 31
0.0
  0
LINE
  5
76FB
  8
0
 10
1324.076121839779
 20
1993.424820459659
 30
0.0
 11
1306.761159559798
 21
2010.6268272094919
 31
0.0
  0
LINE
  5
76FC
  8
0
 10
1306.761159559798
 20
2010.6268272094919
 30
0.0
 11
1306.761159559798
 21
2104.4264489209309
 31
0.0
  0
LINE
  5
76FD
  8
0
 10
1306.761159559798
 20
2104.4264489209309
 30
0.0
 11
1324.076121839779
 21
2121.6284556707792
 31
0.0
  0
LINE
  5
76FE
  8
0
 10
1324.076121839779
 20
2121.6284556707792
 30
0.0
 11
1416.6948351675089
 21
2121.6284556707792
 31
0.0
  0
LINE
  5
76FF
  8
0
 10
1416.6948351675089
 20
2121.6284556707792
 30
0.0
 11
1434.3546447046231
 21
2104.4264489209309
 31
0.0
  0
LINE
  5
7700
  8
0
 10
1561.8210808599861
 20
2104.4264489209309
 30
0.0
 11
1561.8210808599861
 21
2010.6268272094919
 31
0.0
  0
LINE
  5
7701
  8
0
 10
1561.8210808599861
 20
2010.6268272094919
 30
0.0
 11
1544.1794211785141
 21
1993.424820459659
 31
0.0
  0
LINE
  5
7702
  8
0
 10
1544.1794211785141
 20
1993.424820459659
 30
0.0
 11
1451.6151574176799
 21
1993.424820459659
 31
0.0
  0
LINE
  5
7703
  8
0
 10
1451.6151574176799
 20
1993.424820459659
 30
0.0
 11
1434.2638954264439
 21
2010.6268272094919
 31
0.0
  0
LINE
  5
7704
  8
0
 10
1434.2638954264439
 20
2010.6268272094919
 30
0.0
 11
1434.2638954264439
 21
2104.4264489209309
 31
0.0
  0
LINE
  5
7705
  8
0
 10
1434.2638954264439
 20
2104.4264489209309
 30
0.0
 11
1451.6151574176799
 21
2121.6284556707792
 31
0.0
  0
LINE
  5
7706
  8
0
 10
1451.6151574176799
 20
2121.6284556707792
 30
0.0
 11
1544.1794211785141
 21
2121.6284556707792
 31
0.0
  0
LINE
  5
7707
  8
0
 10
1544.1794211785141
 20
2121.6284556707792
 30
0.0
 11
1561.8210808599861
 21
2104.4264489209309
 31
0.0
  0
LINE
  5
7708
  8
0
 10
1689.378266293528
 20
2104.4264489209309
 30
0.0
 11
1689.378266293528
 21
2010.6268272094919
 31
0.0
  0
LINE
  5
7709
  8
0
 10
1689.378266293528
 20
2010.6268272094919
 30
0.0
 11
1671.7366066120551
 21
1993.424820459659
 31
0.0
  0
LINE
  5
770A
  8
0
 10
1671.7366066120551
 20
1993.424820459659
 30
0.0
 11
1579.136043139953
 21
1993.424820459659
 31
0.0
  0
LINE
  5
770B
  8
0
 10
1579.136043139953
 20
1993.424820459659
 30
0.0
 11
1561.784781148702
 21
2010.6268272094919
 31
0.0
  0
LINE
  5
770C
  8
0
 10
1561.784781148702
 20
2010.6268272094919
 30
0.0
 11
1561.784781148702
 21
2104.4264489209309
 31
0.0
  0
LINE
  5
770D
  8
0
 10
1561.784781148702
 20
2104.4264489209309
 30
0.0
 11
1579.136043139953
 21
2121.6284556707792
 31
0.0
  0
LINE
  5
770E
  8
0
 10
1579.136043139953
 20
2121.6284556707792
 30
0.0
 11
1671.7366066120551
 21
2121.6284556707792
 31
0.0
  0
LINE
  5
770F
  8
0
 10
1671.7366066120551
 20
2121.6284556707792
 30
0.0
 11
1689.378266293528
 21
2104.4264489209309
 31
0.0
  0
LINE
  5
7710
  8
0
 10
1816.8991520158011
 20
2104.4264489209309
 30
0.0
 11
1816.8991520158011
 21
2010.6268272094919
 31
0.0
  0
LINE
  5
7711
  8
0
 10
1816.8991520158011
 20
2010.6268272094919
 30
0.0
 11
1799.2393424786869
 21
1993.424820459659
 31
0.0
  0
LINE
  5
7712
  8
0
 10
1799.2393424786869
 20
1993.424820459659
 30
0.0
 11
1706.6387790065701
 21
1993.424820459659
 31
0.0
  0
LINE
  5
7713
  8
0
 10
1706.6387790065701
 20
1993.424820459659
 30
0.0
 11
1689.287517015335
 21
2010.6268272094919
 31
0.0
  0
LINE
  5
7714
  8
0
 10
1689.287517015335
 20
2010.6268272094919
 30
0.0
 11
1689.287517015335
 21
2104.4264489209309
 31
0.0
  0
LINE
  5
7715
  8
0
 10
1689.287517015335
 20
2104.4264489209309
 30
0.0
 11
1706.6387790065701
 21
2121.6284556707792
 31
0.0
  0
LINE
  5
7716
  8
0
 10
1706.6387790065701
 20
2121.6284556707792
 30
0.0
 11
1799.2393424786869
 21
2121.6284556707792
 31
0.0
  0
LINE
  5
7717
  8
0
 10
1799.2393424786869
 20
2121.6284556707792
 30
0.0
 11
1816.8991520158011
 21
2104.4264489209309
 31
0.0
  0
LINE
  5
7718
  8
0
 10
1944.383738026791
 20
2104.4264489209309
 30
0.0
 11
1944.383738026791
 21
2010.6268272094919
 31
0.0
  0
LINE
  5
7719
  8
0
 10
1944.383738026791
 20
2010.6268272094919
 30
0.0
 11
1926.742078345304
 21
1993.424820459659
 31
0.0
  0
LINE
  5
771A
  8
0
 10
1926.742078345304
 20
1993.424820459659
 30
0.0
 11
1834.141514873216
 21
1993.424820459659
 31
0.0
  0
LINE
  5
771B
  8
0
 10
1834.141514873216
 20
1993.424820459659
 30
0.0
 11
1816.826552593235
 21
2010.6268272094919
 31
0.0
  0
LINE
  5
771C
  8
0
 10
1816.826552593235
 20
2010.6268272094919
 30
0.0
 11
1816.826552593235
 21
2104.4264489209309
 31
0.0
  0
LINE
  5
771D
  8
0
 10
1816.826552593235
 20
2104.4264489209309
 30
0.0
 11
1834.141514873216
 21
2121.6284556707792
 31
0.0
  0
LINE
  5
771E
  8
0
 10
1834.141514873216
 20
2121.6284556707792
 30
0.0
 11
1926.742078345304
 21
2121.6284556707792
 31
0.0
  0
LINE
  5
771F
  8
0
 10
1926.742078345304
 20
2121.6284556707792
 30
0.0
 11
1944.383738026791
 21
2104.4264489209309
 31
0.0
  0
LINE
  5
7720
  8
0
 10
2071.9046237490511
 20
2104.4264489209309
 30
0.0
 11
2071.9046237490511
 21
2010.6268272094919
 31
0.0
  0
LINE
  5
7721
  8
0
 10
2071.9046237490511
 20
2010.6268272094919
 30
0.0
 11
2054.26296406758
 21
1993.424820459659
 31
0.0
  0
LINE
  5
7722
  8
0
 10
2054.26296406758
 20
1993.424820459659
 30
0.0
 11
1961.6624005954741
 21
1993.424820459659
 31
0.0
  0
LINE
  5
7723
  8
0
 10
1961.6624005954741
 20
1993.424820459659
 30
0.0
 11
1944.347438315508
 21
2010.6268272094919
 31
0.0
  0
LINE
  5
7724
  8
0
 10
1944.347438315508
 20
2010.6268272094919
 30
0.0
 11
1944.347438315508
 21
2104.4264489209309
 31
0.0
  0
LINE
  5
7725
  8
0
 10
1944.347438315508
 20
2104.4264489209309
 30
0.0
 11
1961.6624005954741
 21
2121.6284556707792
 31
0.0
  0
LINE
  5
7726
  8
0
 10
1961.6624005954741
 20
2121.6284556707792
 30
0.0
 11
2054.26296406758
 21
2121.6284556707792
 31
0.0
  0
LINE
  5
7727
  8
0
 10
2054.26296406758
 20
2121.6284556707792
 30
0.0
 11
2071.9046237490511
 21
2104.4264489209309
 31
0.0
  0
LINE
  5
7728
  8
0
 10
2199.4255094713089
 20
2104.4264489209309
 30
0.0
 11
2199.4255094713089
 21
2010.6268272094919
 31
0.0
  0
LINE
  5
7729
  8
0
 10
2199.4255094713089
 20
2010.6268272094919
 30
0.0
 11
2181.783849789836
 21
1993.424820459659
 31
0.0
  0
LINE
  5
772A
  8
0
 10
2181.783849789836
 20
1993.424820459659
 30
0.0
 11
2089.1651364621061
 21
1993.424820459659
 31
0.0
  0
LINE
  5
772B
  8
0
 10
2089.1651364621061
 20
1993.424820459659
 30
0.0
 11
2071.8501741821392
 21
2010.6268272094919
 31
0.0
  0
LINE
  5
772C
  8
0
 10
2071.8501741821392
 20
2010.6268272094919
 30
0.0
 11
2071.8501741821392
 21
2104.4264489209309
 31
0.0
  0
LINE
  5
772D
  8
0
 10
2071.8501741821392
 20
2104.4264489209309
 30
0.0
 11
2089.1651364621061
 21
2121.6284556707792
 31
0.0
  0
LINE
  5
772E
  8
0
 10
2089.1651364621061
 20
2121.6284556707792
 30
0.0
 11
2181.783849789836
 21
2121.6284556707792
 31
0.0
  0
LINE
  5
772F
  8
0
 10
2181.783849789836
 20
2121.6284556707792
 30
0.0
 11
2199.4255094713089
 21
2104.4264489209309
 31
0.0
  0
LINE
  5
7730
  8
0
 10
2326.9463951935959
 20
2104.4264489209309
 30
0.0
 11
2326.9463951935959
 21
2010.6268272094919
 31
0.0
  0
LINE
  5
7731
  8
0
 10
2326.9463951935959
 20
2010.6268272094919
 30
0.0
 11
2309.268435800841
 21
1993.424820459659
 31
0.0
  0
LINE
  5
7732
  8
0
 10
2309.268435800841
 20
1993.424820459659
 30
0.0
 11
2216.7041720400061
 21
1993.424820459659
 31
0.0
  0
LINE
  5
7733
  8
0
 10
2216.7041720400061
 20
1993.424820459659
 30
0.0
 11
2199.3529100487708
 21
2010.6268272094919
 31
0.0
  0
LINE
  5
7734
  8
0
 10
2199.3529100487708
 20
2010.6268272094919
 30
0.0
 11
2199.3529100487708
 21
2104.4264489209309
 31
0.0
  0
LINE
  5
7735
  8
0
 10
2199.3529100487708
 20
2104.4264489209309
 30
0.0
 11
2216.7041720400061
 21
2121.6284556707792
 31
0.0
  0
LINE
  5
7736
  8
0
 10
2216.7041720400061
 20
2121.6284556707792
 30
0.0
 11
2309.268435800841
 21
2121.6284556707792
 31
0.0
  0
LINE
  5
7737
  8
0
 10
2309.268435800841
 20
2121.6284556707792
 30
0.0
 11
2326.9463951935959
 21
2104.4264489209309
 31
0.0
  0
LINE
  5
7738
  8
0
 10
924.28925167120155
 20
1976.22281370981
 30
0.0
 11
924.28925167120155
 21
1882.423191998372
 31
0.0
  0
LINE
  5
7739
  8
0
 10
924.28925167120155
 20
1882.423191998372
 30
0.0
 11
906.64759198972934
 21
1865.221185248525
 31
0.0
  0
LINE
  5
773A
  8
0
 10
906.64759198972934
 20
1865.221185248525
 30
0.0
 11
814.04702851762613
 21
1865.221185248525
 31
0.0
  0
LINE
  5
773B
  8
0
 10
814.04702851762613
 20
1865.221185248525
 30
0.0
 11
796.69576652637625
 21
1882.423191998372
 31
0.0
  0
LINE
  5
773C
  8
0
 10
796.69576652637625
 20
1882.423191998372
 30
0.0
 11
796.69576652637625
 21
1976.22281370981
 31
0.0
  0
LINE
  5
773D
  8
0
 10
796.69576652637625
 20
1976.22281370981
 30
0.0
 11
814.04702851762613
 21
1993.424820459659
 31
0.0
  0
LINE
  5
773E
  8
0
 10
814.04702851762613
 20
1993.424820459659
 30
0.0
 11
906.64759198972934
 21
1993.424820459659
 31
0.0
  0
LINE
  5
773F
  8
0
 10
906.64759198972934
 20
1993.424820459659
 30
0.0
 11
924.28925167120155
 21
1976.22281370981
 31
0.0
  0
LINE
  5
7740
  8
0
 10
1051.8101373934751
 20
1976.22281370981
 30
0.0
 11
1051.8101373934751
 21
1882.423191998372
 31
0.0
  0
LINE
  5
7741
  8
0
 10
1051.8101373934751
 20
1882.423191998372
 30
0.0
 11
1034.1503278563609
 21
1865.221185248525
 31
0.0
  0
LINE
  5
7742
  8
0
 10
1034.1503278563609
 20
1865.221185248525
 30
0.0
 11
941.567914239885
 21
1865.221185248525
 31
0.0
  0
LINE
  5
7743
  8
0
 10
941.567914239885
 20
1865.221185248525
 30
0.0
 11
924.19850239300797
 21
1882.423191998372
 31
0.0
  0
LINE
  5
7744
  8
0
 10
924.19850239300797
 20
1882.423191998372
 30
0.0
 11
924.19850239300797
 21
1976.22281370981
 31
0.0
  0
LINE
  5
7745
  8
0
 10
924.19850239300797
 20
1976.22281370981
 30
0.0
 11
941.567914239885
 21
1993.424820459659
 31
0.0
  0
LINE
  5
7746
  8
0
 10
941.567914239885
 20
1993.424820459659
 30
0.0
 11
1034.1503278563609
 21
1993.424820459659
 31
0.0
  0
LINE
  5
7747
  8
0
 10
1034.1503278563609
 20
1993.424820459659
 30
0.0
 11
1051.8101373934751
 21
1976.22281370981
 31
0.0
  0
LINE
  5
7748
  8
0
 10
1179.294723404465
 20
1976.22281370981
 30
0.0
 11
1179.294723404465
 21
1882.423191998372
 31
0.0
  0
LINE
  5
7749
  8
0
 10
1179.294723404465
 20
1882.423191998372
 30
0.0
 11
1161.653063722978
 21
1865.221185248525
 31
0.0
  0
LINE
  5
774A
  8
0
 10
1161.653063722978
 20
1865.221185248525
 30
0.0
 11
1069.070650106516
 21
1865.221185248525
 31
0.0
  0
LINE
  5
774B
  8
0
 10
1069.070650106516
 20
1865.221185248525
 30
0.0
 11
1051.7375379709081
 21
1882.423191998372
 31
0.0
  0
LINE
  5
774C
  8
0
 10
1051.7375379709081
 20
1882.423191998372
 30
0.0
 11
1051.7375379709081
 21
1976.22281370981
 31
0.0
  0
LINE
  5
774D
  8
0
 10
1051.7375379709081
 20
1976.22281370981
 30
0.0
 11
1069.070650106516
 21
1993.424820459659
 31
0.0
  0
LINE
  5
774E
  8
0
 10
1069.070650106516
 20
1993.424820459659
 30
0.0
 11
1161.653063722978
 21
1993.424820459659
 31
0.0
  0
LINE
  5
774F
  8
0
 10
1161.653063722978
 20
1993.424820459659
 30
0.0
 11
1179.294723404465
 21
1976.22281370981
 31
0.0
  0
LINE
  5
7750
  8
0
 10
1306.8156091267231
 20
1976.22281370981
 30
0.0
 11
1306.8156091267231
 21
1882.423191998372
 31
0.0
  0
LINE
  5
7751
  8
0
 10
1306.8156091267231
 20
1882.423191998372
 30
0.0
 11
1289.210249156534
 21
1865.221185248525
 31
0.0
  0
LINE
  5
7752
  8
0
 10
1289.210249156534
 20
1865.221185248525
 30
0.0
 11
1196.5733859731481
 21
1865.221185248525
 31
0.0
  0
LINE
  5
7753
  8
0
 10
1196.5733859731481
 20
1865.221185248525
 30
0.0
 11
1179.25842369318
 21
1882.423191998372
 31
0.0
  0
LINE
  5
7754
  8
0
 10
1179.25842369318
 20
1882.423191998372
 30
0.0
 11
1179.25842369318
 21
1976.22281370981
 31
0.0
  0
LINE
  5
7755
  8
0
 10
1179.25842369318
 20
1976.22281370981
 30
0.0
 11
1196.5733859731481
 21
1993.424820459659
 31
0.0
  0
LINE
  5
7756
  8
0
 10
1196.5733859731481
 20
1993.424820459659
 30
0.0
 11
1289.210249156534
 21
1993.424820459659
 31
0.0
  0
LINE
  5
7757
  8
0
 10
1289.210249156534
 20
1993.424820459659
 30
0.0
 11
1306.8156091267231
 21
1976.22281370981
 31
0.0
  0
LINE
  5
7758
  8
0
 10
1434.3546447046231
 20
1976.22281370981
 30
0.0
 11
1434.3546447046231
 21
1882.423191998372
 31
0.0
  0
LINE
  5
7759
  8
0
 10
1434.3546447046231
 20
1882.423191998372
 30
0.0
 11
1416.6948351675089
 21
1865.221185248525
 31
0.0
  0
LINE
  5
775A
  8
0
 10
1416.6948351675089
 20
1865.221185248525
 30
0.0
 11
1324.076121839779
 21
1865.221185248525
 31
0.0
  0
LINE
  5
775B
  8
0
 10
1324.076121839779
 20
1865.221185248525
 30
0.0
 11
1306.761159559798
 21
1882.423191998372
 31
0.0
  0
LINE
  5
775C
  8
0
 10
1306.761159559798
 20
1882.423191998372
 30
0.0
 11
1306.761159559798
 21
1976.22281370981
 31
0.0
  0
LINE
  5
775D
  8
0
 10
1306.761159559798
 20
1976.22281370981
 30
0.0
 11
1324.076121839779
 21
1993.424820459659
 31
0.0
  0
LINE
  5
775E
  8
0
 10
1324.076121839779
 20
1993.424820459659
 30
0.0
 11
1416.6948351675089
 21
1993.424820459659
 31
0.0
  0
LINE
  5
775F
  8
0
 10
1416.6948351675089
 20
1993.424820459659
 30
0.0
 11
1434.3546447046231
 21
1976.22281370981
 31
0.0
  0
LINE
  5
7760
  8
0
 10
1561.8210808599861
 20
1976.22281370981
 30
0.0
 11
1561.8210808599861
 21
1882.423191998372
 31
0.0
  0
LINE
  5
7761
  8
0
 10
1561.8210808599861
 20
1882.423191998372
 30
0.0
 11
1544.1794211785141
 21
1865.221185248525
 31
0.0
  0
LINE
  5
7762
  8
0
 10
1544.1794211785141
 20
1865.221185248525
 30
0.0
 11
1451.6151574176799
 21
1865.221185248525
 31
0.0
  0
LINE
  5
7763
  8
0
 10
1451.6151574176799
 20
1865.221185248525
 30
0.0
 11
1434.2638954264439
 21
1882.423191998372
 31
0.0
  0
LINE
  5
7764
  8
0
 10
1434.2638954264439
 20
1882.423191998372
 30
0.0
 11
1434.2638954264439
 21
1976.22281370981
 31
0.0
  0
LINE
  5
7765
  8
0
 10
1434.2638954264439
 20
1976.22281370981
 30
0.0
 11
1451.6151574176799
 21
1993.424820459659
 31
0.0
  0
LINE
  5
7766
  8
0
 10
1451.6151574176799
 20
1993.424820459659
 30
0.0
 11
1544.1794211785141
 21
1993.424820459659
 31
0.0
  0
LINE
  5
7767
  8
0
 10
1544.1794211785141
 20
1993.424820459659
 30
0.0
 11
1561.8210808599861
 21
1976.22281370981
 31
0.0
  0
LINE
  5
7768
  8
0
 10
1689.378266293528
 20
1976.22281370981
 30
0.0
 11
1689.378266293528
 21
1882.423191998372
 31
0.0
  0
LINE
  5
7769
  8
0
 10
1689.378266293528
 20
1882.423191998372
 30
0.0
 11
1671.7366066120551
 21
1865.221185248525
 31
0.0
  0
LINE
  5
776A
  8
0
 10
1671.7366066120551
 20
1865.221185248525
 30
0.0
 11
1579.136043139953
 21
1865.221185248525
 31
0.0
  0
LINE
  5
776B
  8
0
 10
1579.136043139953
 20
1865.221185248525
 30
0.0
 11
1561.784781148702
 21
1882.423191998372
 31
0.0
  0
LINE
  5
776C
  8
0
 10
1561.784781148702
 20
1882.423191998372
 30
0.0
 11
1561.784781148702
 21
1976.22281370981
 31
0.0
  0
LINE
  5
776D
  8
0
 10
1561.784781148702
 20
1976.22281370981
 30
0.0
 11
1579.136043139953
 21
1993.424820459659
 31
0.0
  0
LINE
  5
776E
  8
0
 10
1579.136043139953
 20
1993.424820459659
 30
0.0
 11
1671.7366066120551
 21
1993.424820459659
 31
0.0
  0
LINE
  5
776F
  8
0
 10
1671.7366066120551
 20
1993.424820459659
 30
0.0
 11
1689.378266293528
 21
1976.22281370981
 31
0.0
  0
LINE
  5
7770
  8
0
 10
1816.8991520158011
 20
1976.22281370981
 30
0.0
 11
1816.8991520158011
 21
1882.423191998372
 31
0.0
  0
LINE
  5
7771
  8
0
 10
1816.8991520158011
 20
1882.423191998372
 30
0.0
 11
1799.2393424786869
 21
1865.221185248525
 31
0.0
  0
LINE
  5
7772
  8
0
 10
1799.2393424786869
 20
1865.221185248525
 30
0.0
 11
1706.6387790065701
 21
1865.221185248525
 31
0.0
  0
LINE
  5
7773
  8
0
 10
1706.6387790065701
 20
1865.221185248525
 30
0.0
 11
1689.287517015335
 21
1882.423191998372
 31
0.0
  0
LINE
  5
7774
  8
0
 10
1689.287517015335
 20
1882.423191998372
 30
0.0
 11
1689.287517015335
 21
1976.22281370981
 31
0.0
  0
LINE
  5
7775
  8
0
 10
1689.287517015335
 20
1976.22281370981
 30
0.0
 11
1706.6387790065701
 21
1993.424820459659
 31
0.0
  0
LINE
  5
7776
  8
0
 10
1706.6387790065701
 20
1993.424820459659
 30
0.0
 11
1799.2393424786869
 21
1993.424820459659
 31
0.0
  0
LINE
  5
7777
  8
0
 10
1799.2393424786869
 20
1993.424820459659
 30
0.0
 11
1816.8991520158011
 21
1976.22281370981
 31
0.0
  0
LINE
  5
7778
  8
0
 10
1944.383738026791
 20
1976.22281370981
 30
0.0
 11
1944.383738026791
 21
1882.423191998372
 31
0.0
  0
LINE
  5
7779
  8
0
 10
1944.383738026791
 20
1882.423191998372
 30
0.0
 11
1926.742078345304
 21
1865.221185248525
 31
0.0
  0
LINE
  5
777A
  8
0
 10
1926.742078345304
 20
1865.221185248525
 30
0.0
 11
1834.141514873216
 21
1865.221185248525
 31
0.0
  0
LINE
  5
777B
  8
0
 10
1834.141514873216
 20
1865.221185248525
 30
0.0
 11
1816.826552593235
 21
1882.423191998372
 31
0.0
  0
LINE
  5
777C
  8
0
 10
1816.826552593235
 20
1882.423191998372
 30
0.0
 11
1816.826552593235
 21
1976.22281370981
 31
0.0
  0
LINE
  5
777D
  8
0
 10
1816.826552593235
 20
1976.22281370981
 30
0.0
 11
1834.141514873216
 21
1993.424820459659
 31
0.0
  0
LINE
  5
777E
  8
0
 10
1834.141514873216
 20
1993.424820459659
 30
0.0
 11
1926.742078345304
 21
1993.424820459659
 31
0.0
  0
LINE
  5
777F
  8
0
 10
1926.742078345304
 20
1993.424820459659
 30
0.0
 11
1944.383738026791
 21
1976.22281370981
 31
0.0
  0
LINE
  5
7780
  8
0
 10
2071.9046237490511
 20
1976.22281370981
 30
0.0
 11
2071.9046237490511
 21
1882.423191998372
 31
0.0
  0
LINE
  5
7781
  8
0
 10
2071.9046237490511
 20
1882.423191998372
 30
0.0
 11
2054.26296406758
 21
1865.221185248525
 31
0.0
  0
LINE
  5
7782
  8
0
 10
2054.26296406758
 20
1865.221185248525
 30
0.0
 11
1961.6624005954741
 21
1865.221185248525
 31
0.0
  0
LINE
  5
7783
  8
0
 10
1961.6624005954741
 20
1865.221185248525
 30
0.0
 11
1944.347438315508
 21
1882.423191998372
 31
0.0
  0
LINE
  5
7784
  8
0
 10
1944.347438315508
 20
1882.423191998372
 30
0.0
 11
1944.347438315508
 21
1976.22281370981
 31
0.0
  0
LINE
  5
7785
  8
0
 10
1944.347438315508
 20
1976.22281370981
 30
0.0
 11
1961.6624005954741
 21
1993.424820459659
 31
0.0
  0
LINE
  5
7786
  8
0
 10
1961.6624005954741
 20
1993.424820459659
 30
0.0
 11
2054.26296406758
 21
1993.424820459659
 31
0.0
  0
LINE
  5
7787
  8
0
 10
2054.26296406758
 20
1993.424820459659
 30
0.0
 11
2071.9046237490511
 21
1976.22281370981
 31
0.0
  0
LINE
  5
7788
  8
0
 10
2199.4255094713089
 20
1976.22281370981
 30
0.0
 11
2199.4255094713089
 21
1882.423191998372
 31
0.0
  0
LINE
  5
7789
  8
0
 10
2199.4255094713089
 20
1882.423191998372
 30
0.0
 11
2181.783849789836
 21
1865.221185248525
 31
0.0
  0
LINE
  5
778A
  8
0
 10
2181.783849789836
 20
1865.221185248525
 30
0.0
 11
2089.1651364621061
 21
1865.221185248525
 31
0.0
  0
LINE
  5
778B
  8
0
 10
2089.1651364621061
 20
1865.221185248525
 30
0.0
 11
2071.8501741821392
 21
1882.423191998372
 31
0.0
  0
LINE
  5
778C
  8
0
 10
2071.8501741821392
 20
1882.423191998372
 30
0.0
 11
2071.8501741821392
 21
1976.22281370981
 31
0.0
  0
LINE
  5
778D
  8
0
 10
2071.8501741821392
 20
1976.22281370981
 30
0.0
 11
2089.1651364621061
 21
1993.424820459659
 31
0.0
  0
LINE
  5
778E
  8
0
 10
2089.1651364621061
 20
1993.424820459659
 30
0.0
 11
2181.783849789836
 21
1993.424820459659
 31
0.0
  0
LINE
  5
778F
  8
0
 10
2181.783849789836
 20
1993.424820459659
 30
0.0
 11
2199.4255094713089
 21
1976.22281370981
 31
0.0
  0
LINE
  5
7790
  8
0
 10
2326.9463951935959
 20
1976.22281370981
 30
0.0
 11
2326.9463951935959
 21
1882.423191998372
 31
0.0
  0
LINE
  5
7791
  8
0
 10
2326.9463951935959
 20
1882.423191998372
 30
0.0
 11
2309.268435800841
 21
1865.221185248525
 31
0.0
  0
LINE
  5
7792
  8
0
 10
2309.268435800841
 20
1865.221185248525
 30
0.0
 11
2216.7041720400061
 21
1865.221185248525
 31
0.0
  0
LINE
  5
7793
  8
0
 10
2216.7041720400061
 20
1865.221185248525
 30
0.0
 11
2199.3529100487708
 21
1882.423191998372
 31
0.0
  0
LINE
  5
7794
  8
0
 10
2199.3529100487708
 20
1882.423191998372
 30
0.0
 11
2199.3529100487708
 21
1976.22281370981
 31
0.0
  0
LINE
  5
7795
  8
0
 10
2199.3529100487708
 20
1976.22281370981
 30
0.0
 11
2216.7041720400061
 21
1993.424820459659
 31
0.0
  0
LINE
  5
7796
  8
0
 10
2216.7041720400061
 20
1993.424820459659
 30
0.0
 11
2309.268435800841
 21
1993.424820459659
 31
0.0
  0
LINE
  5
7797
  8
0
 10
2309.268435800841
 20
1993.424820459659
 30
0.0
 11
2326.9463951935959
 21
1976.22281370981
 31
0.0
  0
LINE
  5
7798
  8
0
 10
924.28925167120155
 20
1848.0191784986771
 30
0.0
 11
924.28925167120155
 21
1754.2195567872529
 31
0.0
  0
LINE
  5
7799
  8
0
 10
924.28925167120155
 20
1754.2195567872529
 30
0.0
 11
906.64759198972934
 21
1737.0175500373909
 31
0.0
  0
LINE
  5
779A
  8
0
 10
906.64759198972934
 20
1737.0175500373909
 30
0.0
 11
814.04702851762613
 21
1737.0175500373909
 31
0.0
  0
LINE
  5
779B
  8
0
 10
814.04702851762613
 20
1737.0175500373909
 30
0.0
 11
796.69576652637625
 21
1754.2195567872529
 31
0.0
  0
LINE
  5
779C
  8
0
 10
796.69576652637625
 20
1754.2195567872529
 30
0.0
 11
796.69576652637625
 21
1848.0191784986771
 31
0.0
  0
LINE
  5
779D
  8
0
 10
796.69576652637625
 20
1848.0191784986771
 30
0.0
 11
814.04702851762613
 21
1865.221185248525
 31
0.0
  0
LINE
  5
779E
  8
0
 10
814.04702851762613
 20
1865.221185248525
 30
0.0
 11
906.64759198972934
 21
1865.221185248525
 31
0.0
  0
LINE
  5
779F
  8
0
 10
906.64759198972934
 20
1865.221185248525
 30
0.0
 11
924.28925167120155
 21
1848.0191784986771
 31
0.0
  0
LINE
  5
77A0
  8
0
 10
1051.8101373934751
 20
1848.0191784986771
 30
0.0
 11
1051.8101373934751
 21
1754.2195567872529
 31
0.0
  0
LINE
  5
77A1
  8
0
 10
1051.8101373934751
 20
1754.2195567872529
 30
0.0
 11
1034.1503278563609
 21
1737.0175500373909
 31
0.0
  0
LINE
  5
77A2
  8
0
 10
1034.1503278563609
 20
1737.0175500373909
 30
0.0
 11
941.567914239885
 21
1737.0175500373909
 31
0.0
  0
LINE
  5
77A3
  8
0
 10
941.567914239885
 20
1737.0175500373909
 30
0.0
 11
924.19850239300797
 21
1754.2195567872529
 31
0.0
  0
LINE
  5
77A4
  8
0
 10
924.19850239300797
 20
1754.2195567872529
 30
0.0
 11
924.19850239300797
 21
1848.0191784986771
 31
0.0
  0
LINE
  5
77A5
  8
0
 10
924.19850239300797
 20
1848.0191784986771
 30
0.0
 11
941.567914239885
 21
1865.221185248525
 31
0.0
  0
LINE
  5
77A6
  8
0
 10
941.567914239885
 20
1865.221185248525
 30
0.0
 11
1034.1503278563609
 21
1865.221185248525
 31
0.0
  0
LINE
  5
77A7
  8
0
 10
1034.1503278563609
 20
1865.221185248525
 30
0.0
 11
1051.8101373934751
 21
1848.0191784986771
 31
0.0
  0
LINE
  5
77A8
  8
0
 10
1179.294723404465
 20
1848.0191784986771
 30
0.0
 11
1179.294723404465
 21
1754.2195567872529
 31
0.0
  0
LINE
  5
77A9
  8
0
 10
1179.294723404465
 20
1754.2195567872529
 30
0.0
 11
1161.653063722978
 21
1737.0175500373909
 31
0.0
  0
LINE
  5
77AA
  8
0
 10
1161.653063722978
 20
1737.0175500373909
 30
0.0
 11
1069.070650106516
 21
1737.0175500373909
 31
0.0
  0
LINE
  5
77AB
  8
0
 10
1069.070650106516
 20
1737.0175500373909
 30
0.0
 11
1051.7375379709081
 21
1754.2195567872529
 31
0.0
  0
LINE
  5
77AC
  8
0
 10
1051.7375379709081
 20
1754.2195567872529
 30
0.0
 11
1051.7375379709081
 21
1848.0191784986771
 31
0.0
  0
LINE
  5
77AD
  8
0
 10
1051.7375379709081
 20
1848.0191784986771
 30
0.0
 11
1069.070650106516
 21
1865.221185248525
 31
0.0
  0
LINE
  5
77AE
  8
0
 10
1069.070650106516
 20
1865.221185248525
 30
0.0
 11
1161.653063722978
 21
1865.221185248525
 31
0.0
  0
LINE
  5
77AF
  8
0
 10
1161.653063722978
 20
1865.221185248525
 30
0.0
 11
1179.294723404465
 21
1848.0191784986771
 31
0.0
  0
LINE
  5
77B0
  8
0
 10
1306.8156091267231
 20
1848.0191784986771
 30
0.0
 11
1306.8156091267231
 21
1754.2195567872529
 31
0.0
  0
LINE
  5
77B1
  8
0
 10
1306.8156091267231
 20
1754.2195567872529
 30
0.0
 11
1289.210249156534
 21
1737.0175500373909
 31
0.0
  0
LINE
  5
77B2
  8
0
 10
1289.210249156534
 20
1737.0175500373909
 30
0.0
 11
1196.5733859731481
 21
1737.0175500373909
 31
0.0
  0
LINE
  5
77B3
  8
0
 10
1196.5733859731481
 20
1737.0175500373909
 30
0.0
 11
1179.25842369318
 21
1754.2195567872529
 31
0.0
  0
LINE
  5
77B4
  8
0
 10
1179.25842369318
 20
1754.2195567872529
 30
0.0
 11
1179.25842369318
 21
1848.0191784986771
 31
0.0
  0
LINE
  5
77B5
  8
0
 10
1179.25842369318
 20
1848.0191784986771
 30
0.0
 11
1196.5733859731481
 21
1865.221185248525
 31
0.0
  0
LINE
  5
77B6
  8
0
 10
1196.5733859731481
 20
1865.221185248525
 30
0.0
 11
1289.210249156534
 21
1865.221185248525
 31
0.0
  0
LINE
  5
77B7
  8
0
 10
1289.210249156534
 20
1865.221185248525
 30
0.0
 11
1306.8156091267231
 21
1848.0191784986771
 31
0.0
  0
LINE
  5
77B8
  8
0
 10
1434.3546447046231
 20
1848.0191784986771
 30
0.0
 11
1434.3546447046231
 21
1754.2195567872529
 31
0.0
  0
LINE
  5
77B9
  8
0
 10
1434.3546447046231
 20
1754.2195567872529
 30
0.0
 11
1416.6948351675089
 21
1737.0175500373909
 31
0.0
  0
LINE
  5
77BA
  8
0
 10
1416.6948351675089
 20
1737.0175500373909
 30
0.0
 11
1324.076121839779
 21
1737.0175500373909
 31
0.0
  0
LINE
  5
77BB
  8
0
 10
1324.076121839779
 20
1737.0175500373909
 30
0.0
 11
1306.761159559798
 21
1754.2195567872529
 31
0.0
  0
LINE
  5
77BC
  8
0
 10
1306.761159559798
 20
1754.2195567872529
 30
0.0
 11
1306.761159559798
 21
1848.0191784986771
 31
0.0
  0
LINE
  5
77BD
  8
0
 10
1306.761159559798
 20
1848.0191784986771
 30
0.0
 11
1324.076121839779
 21
1865.221185248525
 31
0.0
  0
LINE
  5
77BE
  8
0
 10
1324.076121839779
 20
1865.221185248525
 30
0.0
 11
1416.6948351675089
 21
1865.221185248525
 31
0.0
  0
LINE
  5
77BF
  8
0
 10
1416.6948351675089
 20
1865.221185248525
 30
0.0
 11
1434.3546447046231
 21
1848.0191784986771
 31
0.0
  0
LINE
  5
77C0
  8
0
 10
1561.8210808599861
 20
1848.0191784986771
 30
0.0
 11
1561.8210808599861
 21
1754.2195567872529
 31
0.0
  0
LINE
  5
77C1
  8
0
 10
1561.8210808599861
 20
1754.2195567872529
 30
0.0
 11
1544.1794211785141
 21
1737.0175500373909
 31
0.0
  0
LINE
  5
77C2
  8
0
 10
1544.1794211785141
 20
1737.0175500373909
 30
0.0
 11
1451.6151574176799
 21
1737.0175500373909
 31
0.0
  0
LINE
  5
77C3
  8
0
 10
1451.6151574176799
 20
1737.0175500373909
 30
0.0
 11
1434.2638954264439
 21
1754.2195567872529
 31
0.0
  0
LINE
  5
77C4
  8
0
 10
1434.2638954264439
 20
1754.2195567872529
 30
0.0
 11
1434.2638954264439
 21
1848.0191784986771
 31
0.0
  0
LINE
  5
77C5
  8
0
 10
1434.2638954264439
 20
1848.0191784986771
 30
0.0
 11
1451.6151574176799
 21
1865.221185248525
 31
0.0
  0
LINE
  5
77C6
  8
0
 10
1451.6151574176799
 20
1865.221185248525
 30
0.0
 11
1544.1794211785141
 21
1865.221185248525
 31
0.0
  0
LINE
  5
77C7
  8
0
 10
1544.1794211785141
 20
1865.221185248525
 30
0.0
 11
1561.8210808599861
 21
1848.0191784986771
 31
0.0
  0
LINE
  5
77C8
  8
0
 10
1689.378266293528
 20
1848.0191784986771
 30
0.0
 11
1689.378266293528
 21
1754.2195567872529
 31
0.0
  0
LINE
  5
77C9
  8
0
 10
1689.378266293528
 20
1754.2195567872529
 30
0.0
 11
1671.7366066120551
 21
1737.0175500373909
 31
0.0
  0
LINE
  5
77CA
  8
0
 10
1671.7366066120551
 20
1737.0175500373909
 30
0.0
 11
1579.136043139953
 21
1737.0175500373909
 31
0.0
  0
LINE
  5
77CB
  8
0
 10
1579.136043139953
 20
1737.0175500373909
 30
0.0
 11
1561.784781148702
 21
1754.2195567872529
 31
0.0
  0
LINE
  5
77CC
  8
0
 10
1561.784781148702
 20
1754.2195567872529
 30
0.0
 11
1561.784781148702
 21
1848.0191784986771
 31
0.0
  0
LINE
  5
77CD
  8
0
 10
1561.784781148702
 20
1848.0191784986771
 30
0.0
 11
1579.136043139953
 21
1865.221185248525
 31
0.0
  0
LINE
  5
77CE
  8
0
 10
1579.136043139953
 20
1865.221185248525
 30
0.0
 11
1671.7366066120551
 21
1865.221185248525
 31
0.0
  0
LINE
  5
77CF
  8
0
 10
1671.7366066120551
 20
1865.221185248525
 30
0.0
 11
1689.378266293528
 21
1848.0191784986771
 31
0.0
  0
LINE
  5
77D0
  8
0
 10
1816.8991520158011
 20
1848.0191784986771
 30
0.0
 11
1816.8991520158011
 21
1754.2195567872529
 31
0.0
  0
LINE
  5
77D1
  8
0
 10
1816.8991520158011
 20
1754.2195567872529
 30
0.0
 11
1799.2393424786869
 21
1737.0175500373909
 31
0.0
  0
LINE
  5
77D2
  8
0
 10
1799.2393424786869
 20
1737.0175500373909
 30
0.0
 11
1706.6387790065701
 21
1737.0175500373909
 31
0.0
  0
LINE
  5
77D3
  8
0
 10
1706.6387790065701
 20
1737.0175500373909
 30
0.0
 11
1689.287517015335
 21
1754.2195567872529
 31
0.0
  0
LINE
  5
77D4
  8
0
 10
1689.287517015335
 20
1754.2195567872529
 30
0.0
 11
1689.287517015335
 21
1848.0191784986771
 31
0.0
  0
LINE
  5
77D5
  8
0
 10
1689.287517015335
 20
1848.0191784986771
 30
0.0
 11
1706.6387790065701
 21
1865.221185248525
 31
0.0
  0
LINE
  5
77D6
  8
0
 10
1706.6387790065701
 20
1865.221185248525
 30
0.0
 11
1799.2393424786869
 21
1865.221185248525
 31
0.0
  0
LINE
  5
77D7
  8
0
 10
1799.2393424786869
 20
1865.221185248525
 30
0.0
 11
1816.8991520158011
 21
1848.0191784986771
 31
0.0
  0
LINE
  5
77D8
  8
0
 10
1944.383738026791
 20
1848.0191784986771
 30
0.0
 11
1944.383738026791
 21
1754.2195567872529
 31
0.0
  0
LINE
  5
77D9
  8
0
 10
1944.383738026791
 20
1754.2195567872529
 30
0.0
 11
1926.742078345304
 21
1737.0175500373909
 31
0.0
  0
LINE
  5
77DA
  8
0
 10
1926.742078345304
 20
1737.0175500373909
 30
0.0
 11
1834.141514873216
 21
1737.0175500373909
 31
0.0
  0
LINE
  5
77DB
  8
0
 10
1834.141514873216
 20
1737.0175500373909
 30
0.0
 11
1816.826552593235
 21
1754.2195567872529
 31
0.0
  0
LINE
  5
77DC
  8
0
 10
1816.826552593235
 20
1754.2195567872529
 30
0.0
 11
1816.826552593235
 21
1848.0191784986771
 31
0.0
  0
LINE
  5
77DD
  8
0
 10
1816.826552593235
 20
1848.0191784986771
 30
0.0
 11
1834.141514873216
 21
1865.221185248525
 31
0.0
  0
LINE
  5
77DE
  8
0
 10
1834.141514873216
 20
1865.221185248525
 30
0.0
 11
1926.742078345304
 21
1865.221185248525
 31
0.0
  0
LINE
  5
77DF
  8
0
 10
1926.742078345304
 20
1865.221185248525
 30
0.0
 11
1944.383738026791
 21
1848.0191784986771
 31
0.0
  0
LINE
  5
77E0
  8
0
 10
2071.9046237490511
 20
1848.0191784986771
 30
0.0
 11
2071.9046237490511
 21
1754.2195567872529
 31
0.0
  0
LINE
  5
77E1
  8
0
 10
2071.9046237490511
 20
1754.2195567872529
 30
0.0
 11
2054.26296406758
 21
1737.0175500373909
 31
0.0
  0
LINE
  5
77E2
  8
0
 10
2054.26296406758
 20
1737.0175500373909
 30
0.0
 11
1961.6624005954741
 21
1737.0175500373909
 31
0.0
  0
LINE
  5
77E3
  8
0
 10
1961.6624005954741
 20
1737.0175500373909
 30
0.0
 11
1944.347438315508
 21
1754.2195567872529
 31
0.0
  0
LINE
  5
77E4
  8
0
 10
1944.347438315508
 20
1754.2195567872529
 30
0.0
 11
1944.347438315508
 21
1848.0191784986771
 31
0.0
  0
LINE
  5
77E5
  8
0
 10
1944.347438315508
 20
1848.0191784986771
 30
0.0
 11
1961.6624005954741
 21
1865.221185248525
 31
0.0
  0
LINE
  5
77E6
  8
0
 10
1961.6624005954741
 20
1865.221185248525
 30
0.0
 11
2054.26296406758
 21
1865.221185248525
 31
0.0
  0
LINE
  5
77E7
  8
0
 10
2054.26296406758
 20
1865.221185248525
 30
0.0
 11
2071.9046237490511
 21
1848.0191784986771
 31
0.0
  0
LINE
  5
77E8
  8
0
 10
2199.4255094713089
 20
1848.0191784986771
 30
0.0
 11
2199.4255094713089
 21
1754.2195567872529
 31
0.0
  0
LINE
  5
77E9
  8
0
 10
2199.4255094713089
 20
1754.2195567872529
 30
0.0
 11
2181.783849789836
 21
1737.0175500373909
 31
0.0
  0
LINE
  5
77EA
  8
0
 10
2181.783849789836
 20
1737.0175500373909
 30
0.0
 11
2089.1651364621061
 21
1737.0175500373909
 31
0.0
  0
LINE
  5
77EB
  8
0
 10
2089.1651364621061
 20
1737.0175500373909
 30
0.0
 11
2071.8501741821392
 21
1754.2195567872529
 31
0.0
  0
LINE
  5
77EC
  8
0
 10
2071.8501741821392
 20
1754.2195567872529
 30
0.0
 11
2071.8501741821392
 21
1848.0191784986771
 31
0.0
  0
LINE
  5
77ED
  8
0
 10
2071.8501741821392
 20
1848.0191784986771
 30
0.0
 11
2089.1651364621061
 21
1865.221185248525
 31
0.0
  0
LINE
  5
77EE
  8
0
 10
2089.1651364621061
 20
1865.221185248525
 30
0.0
 11
2181.783849789836
 21
1865.221185248525
 31
0.0
  0
LINE
  5
77EF
  8
0
 10
2181.783849789836
 20
1865.221185248525
 30
0.0
 11
2199.4255094713089
 21
1848.0191784986771
 31
0.0
  0
LINE
  5
77F0
  8
0
 10
2326.9463951935959
 20
1848.0191784986771
 30
0.0
 11
2326.9463951935959
 21
1754.2195567872529
 31
0.0
  0
LINE
  5
77F1
  8
0
 10
2326.9463951935959
 20
1754.2195567872529
 30
0.0
 11
2309.268435800841
 21
1737.0175500373909
 31
0.0
  0
LINE
  5
77F2
  8
0
 10
2309.268435800841
 20
1737.0175500373909
 30
0.0
 11
2216.7041720400061
 21
1737.0175500373909
 31
0.0
  0
LINE
  5
77F3
  8
0
 10
2216.7041720400061
 20
1737.0175500373909
 30
0.0
 11
2199.3529100487708
 21
1754.2195567872529
 31
0.0
  0
LINE
  5
77F4
  8
0
 10
2199.3529100487708
 20
1754.2195567872529
 30
0.0
 11
2199.3529100487708
 21
1848.0191784986771
 31
0.0
  0
LINE
  5
77F5
  8
0
 10
2199.3529100487708
 20
1848.0191784986771
 30
0.0
 11
2216.7041720400061
 21
1865.221185248525
 31
0.0
  0
LINE
  5
77F6
  8
0
 10
2216.7041720400061
 20
1865.221185248525
 30
0.0
 11
2309.268435800841
 21
1865.221185248525
 31
0.0
  0
LINE
  5
77F7
  8
0
 10
2309.268435800841
 20
1865.221185248525
 30
0.0
 11
2326.9463951935959
 21
1848.0191784986771
 31
0.0
  0
LINE
  5
77F8
  8
0
 10
924.28925167120155
 20
1719.7975118339391
 30
0.0
 11
924.28925167120155
 21
1626.015921576118
 31
0.0
  0
LINE
  5
77F9
  8
0
 10
924.28925167120155
 20
1626.015921576118
 30
0.0
 11
906.64759198972934
 21
1608.813914826271
 31
0.0
  0
LINE
  5
77FA
  8
0
 10
906.64759198972934
 20
1608.813914826271
 30
0.0
 11
814.04702851762613
 21
1608.813914826271
 31
0.0
  0
LINE
  5
77FB
  8
0
 10
814.04702851762613
 20
1608.813914826271
 30
0.0
 11
796.69576652637625
 21
1626.015921576118
 31
0.0
  0
LINE
  5
77FC
  8
0
 10
796.69576652637625
 20
1626.015921576118
 30
0.0
 11
796.69576652637625
 21
1719.7975118339391
 31
0.0
  0
LINE
  5
77FD
  8
0
 10
796.69576652637625
 20
1719.7975118339391
 30
0.0
 11
814.04702851762613
 21
1737.0175500373909
 31
0.0
  0
LINE
  5
77FE
  8
0
 10
814.04702851762613
 20
1737.0175500373909
 30
0.0
 11
906.64759198972934
 21
1737.0175500373909
 31
0.0
  0
LINE
  5
77FF
  8
0
 10
906.64759198972934
 20
1737.0175500373909
 30
0.0
 11
924.28925167120155
 21
1719.7975118339391
 31
0.0
  0
LINE
  5
7800
  8
0
 10
1051.8101373934751
 20
1719.7975118339391
 30
0.0
 11
1051.8101373934751
 21
1626.015921576118
 31
0.0
  0
LINE
  5
7801
  8
0
 10
1051.8101373934751
 20
1626.015921576118
 30
0.0
 11
1034.1503278563609
 21
1608.813914826271
 31
0.0
  0
LINE
  5
7802
  8
0
 10
1034.1503278563609
 20
1608.813914826271
 30
0.0
 11
941.567914239885
 21
1608.813914826271
 31
0.0
  0
LINE
  5
7803
  8
0
 10
941.567914239885
 20
1608.813914826271
 30
0.0
 11
924.19850239300797
 21
1626.015921576118
 31
0.0
  0
LINE
  5
7804
  8
0
 10
924.19850239300797
 20
1626.015921576118
 30
0.0
 11
924.19850239300797
 21
1719.7975118339391
 31
0.0
  0
LINE
  5
7805
  8
0
 10
924.19850239300797
 20
1719.7975118339391
 30
0.0
 11
941.567914239885
 21
1737.0175500373909
 31
0.0
  0
LINE
  5
7806
  8
0
 10
941.567914239885
 20
1737.0175500373909
 30
0.0
 11
1034.1503278563609
 21
1737.0175500373909
 31
0.0
  0
LINE
  5
7807
  8
0
 10
1034.1503278563609
 20
1737.0175500373909
 30
0.0
 11
1051.8101373934751
 21
1719.7975118339391
 31
0.0
  0
LINE
  5
7808
  8
0
 10
1179.294723404465
 20
1719.7975118339391
 30
0.0
 11
1179.294723404465
 21
1626.015921576118
 31
0.0
  0
LINE
  5
7809
  8
0
 10
1179.294723404465
 20
1626.015921576118
 30
0.0
 11
1161.653063722978
 21
1608.813914826271
 31
0.0
  0
LINE
  5
780A
  8
0
 10
1161.653063722978
 20
1608.813914826271
 30
0.0
 11
1069.070650106516
 21
1608.813914826271
 31
0.0
  0
LINE
  5
780B
  8
0
 10
1069.070650106516
 20
1608.813914826271
 30
0.0
 11
1051.7375379709081
 21
1626.015921576118
 31
0.0
  0
LINE
  5
780C
  8
0
 10
1051.7375379709081
 20
1626.015921576118
 30
0.0
 11
1051.7375379709081
 21
1719.7975118339391
 31
0.0
  0
LINE
  5
780D
  8
0
 10
1051.7375379709081
 20
1719.7975118339391
 30
0.0
 11
1069.070650106516
 21
1737.0175500373909
 31
0.0
  0
LINE
  5
780E
  8
0
 10
1069.070650106516
 20
1737.0175500373909
 30
0.0
 11
1161.653063722978
 21
1737.0175500373909
 31
0.0
  0
LINE
  5
780F
  8
0
 10
1161.653063722978
 20
1737.0175500373909
 30
0.0
 11
1179.294723404465
 21
1719.7975118339391
 31
0.0
  0
LINE
  5
7810
  8
0
 10
1306.8156091267231
 20
1719.7975118339391
 30
0.0
 11
1306.8156091267231
 21
1626.015921576118
 31
0.0
  0
LINE
  5
7811
  8
0
 10
1306.8156091267231
 20
1626.015921576118
 30
0.0
 11
1289.210249156534
 21
1608.813914826271
 31
0.0
  0
LINE
  5
7812
  8
0
 10
1289.210249156534
 20
1608.813914826271
 30
0.0
 11
1196.5733859731481
 21
1608.813914826271
 31
0.0
  0
LINE
  5
7813
  8
0
 10
1196.5733859731481
 20
1608.813914826271
 30
0.0
 11
1179.25842369318
 21
1626.015921576118
 31
0.0
  0
LINE
  5
7814
  8
0
 10
1179.25842369318
 20
1626.015921576118
 30
0.0
 11
1179.25842369318
 21
1719.7975118339391
 31
0.0
  0
LINE
  5
7815
  8
0
 10
1179.25842369318
 20
1719.7975118339391
 30
0.0
 11
1196.5733859731481
 21
1737.0175500373909
 31
0.0
  0
LINE
  5
7816
  8
0
 10
1196.5733859731481
 20
1737.0175500373909
 30
0.0
 11
1289.210249156534
 21
1737.0175500373909
 31
0.0
  0
LINE
  5
7817
  8
0
 10
1289.210249156534
 20
1737.0175500373909
 30
0.0
 11
1306.8156091267231
 21
1719.7975118339391
 31
0.0
  0
LINE
  5
7818
  8
0
 10
1434.3546447046231
 20
1719.7975118339391
 30
0.0
 11
1434.3546447046231
 21
1626.015921576118
 31
0.0
  0
LINE
  5
7819
  8
0
 10
1434.3546447046231
 20
1626.015921576118
 30
0.0
 11
1416.6948351675089
 21
1608.813914826271
 31
0.0
  0
LINE
  5
781A
  8
0
 10
1416.6948351675089
 20
1608.813914826271
 30
0.0
 11
1324.076121839779
 21
1608.813914826271
 31
0.0
  0
LINE
  5
781B
  8
0
 10
1324.076121839779
 20
1608.813914826271
 30
0.0
 11
1306.761159559798
 21
1626.015921576118
 31
0.0
  0
LINE
  5
781C
  8
0
 10
1306.761159559798
 20
1626.015921576118
 30
0.0
 11
1306.761159559798
 21
1719.7975118339391
 31
0.0
  0
LINE
  5
781D
  8
0
 10
1306.761159559798
 20
1719.7975118339391
 30
0.0
 11
1324.076121839779
 21
1737.0175500373909
 31
0.0
  0
LINE
  5
781E
  8
0
 10
1324.076121839779
 20
1737.0175500373909
 30
0.0
 11
1416.6948351675089
 21
1737.0175500373909
 31
0.0
  0
LINE
  5
781F
  8
0
 10
1416.6948351675089
 20
1737.0175500373909
 30
0.0
 11
1434.3546447046231
 21
1719.7975118339391
 31
0.0
  0
LINE
  5
7820
  8
0
 10
1561.8210808599861
 20
1719.7975118339391
 30
0.0
 11
1561.8210808599861
 21
1626.015921576118
 31
0.0
  0
LINE
  5
7821
  8
0
 10
1561.8210808599861
 20
1626.015921576118
 30
0.0
 11
1544.1794211785141
 21
1608.813914826271
 31
0.0
  0
LINE
  5
7822
  8
0
 10
1544.1794211785141
 20
1608.813914826271
 30
0.0
 11
1451.6151574176799
 21
1608.813914826271
 31
0.0
  0
LINE
  5
7823
  8
0
 10
1451.6151574176799
 20
1608.813914826271
 30
0.0
 11
1434.2638954264439
 21
1626.015921576118
 31
0.0
  0
LINE
  5
7824
  8
0
 10
1434.2638954264439
 20
1626.015921576118
 30
0.0
 11
1434.2638954264439
 21
1719.7975118339391
 31
0.0
  0
LINE
  5
7825
  8
0
 10
1434.2638954264439
 20
1719.7975118339391
 30
0.0
 11
1451.6151574176799
 21
1737.0175500373909
 31
0.0
  0
LINE
  5
7826
  8
0
 10
1451.6151574176799
 20
1737.0175500373909
 30
0.0
 11
1544.1794211785141
 21
1737.0175500373909
 31
0.0
  0
LINE
  5
7827
  8
0
 10
1544.1794211785141
 20
1737.0175500373909
 30
0.0
 11
1561.8210808599861
 21
1719.7975118339391
 31
0.0
  0
LINE
  5
7828
  8
0
 10
1689.378266293528
 20
1719.7975118339391
 30
0.0
 11
1689.378266293528
 21
1626.015921576118
 31
0.0
  0
LINE
  5
7829
  8
0
 10
1689.378266293528
 20
1626.015921576118
 30
0.0
 11
1671.7366066120551
 21
1608.813914826271
 31
0.0
  0
LINE
  5
782A
  8
0
 10
1671.7366066120551
 20
1608.813914826271
 30
0.0
 11
1579.136043139953
 21
1608.813914826271
 31
0.0
  0
LINE
  5
782B
  8
0
 10
1579.136043139953
 20
1608.813914826271
 30
0.0
 11
1561.784781148702
 21
1626.015921576118
 31
0.0
  0
LINE
  5
782C
  8
0
 10
1561.784781148702
 20
1626.015921576118
 30
0.0
 11
1561.784781148702
 21
1719.7975118339391
 31
0.0
  0
LINE
  5
782D
  8
0
 10
1561.784781148702
 20
1719.7975118339391
 30
0.0
 11
1579.136043139953
 21
1737.0175500373909
 31
0.0
  0
LINE
  5
782E
  8
0
 10
1579.136043139953
 20
1737.0175500373909
 30
0.0
 11
1671.7366066120551
 21
1737.0175500373909
 31
0.0
  0
LINE
  5
782F
  8
0
 10
1671.7366066120551
 20
1737.0175500373909
 30
0.0
 11
1689.378266293528
 21
1719.7975118339391
 31
0.0
  0
LINE
  5
7830
  8
0
 10
1816.8991520158011
 20
1719.7975118339391
 30
0.0
 11
1816.8991520158011
 21
1626.015921576118
 31
0.0
  0
LINE
  5
7831
  8
0
 10
1816.8991520158011
 20
1626.015921576118
 30
0.0
 11
1799.2393424786869
 21
1608.813914826271
 31
0.0
  0
LINE
  5
7832
  8
0
 10
1799.2393424786869
 20
1608.813914826271
 30
0.0
 11
1706.6387790065701
 21
1608.813914826271
 31
0.0
  0
LINE
  5
7833
  8
0
 10
1706.6387790065701
 20
1608.813914826271
 30
0.0
 11
1689.287517015335
 21
1626.015921576118
 31
0.0
  0
LINE
  5
7834
  8
0
 10
1689.287517015335
 20
1626.015921576118
 30
0.0
 11
1689.287517015335
 21
1719.7975118339391
 31
0.0
  0
LINE
  5
7835
  8
0
 10
1689.287517015335
 20
1719.7975118339391
 30
0.0
 11
1706.6387790065701
 21
1737.0175500373909
 31
0.0
  0
LINE
  5
7836
  8
0
 10
1706.6387790065701
 20
1737.0175500373909
 30
0.0
 11
1799.2393424786869
 21
1737.0175500373909
 31
0.0
  0
LINE
  5
7837
  8
0
 10
1799.2393424786869
 20
1737.0175500373909
 30
0.0
 11
1816.8991520158011
 21
1719.7975118339391
 31
0.0
  0
LINE
  5
7838
  8
0
 10
1944.383738026791
 20
1719.7975118339391
 30
0.0
 11
1944.383738026791
 21
1626.015921576118
 31
0.0
  0
LINE
  5
7839
  8
0
 10
1944.383738026791
 20
1626.015921576118
 30
0.0
 11
1926.742078345304
 21
1608.813914826271
 31
0.0
  0
LINE
  5
783A
  8
0
 10
1926.742078345304
 20
1608.813914826271
 30
0.0
 11
1834.141514873216
 21
1608.813914826271
 31
0.0
  0
LINE
  5
783B
  8
0
 10
1834.141514873216
 20
1608.813914826271
 30
0.0
 11
1816.826552593235
 21
1626.015921576118
 31
0.0
  0
LINE
  5
783C
  8
0
 10
1816.826552593235
 20
1626.015921576118
 30
0.0
 11
1816.826552593235
 21
1719.7975118339391
 31
0.0
  0
LINE
  5
783D
  8
0
 10
1816.826552593235
 20
1719.7975118339391
 30
0.0
 11
1834.141514873216
 21
1737.0175500373909
 31
0.0
  0
LINE
  5
783E
  8
0
 10
1834.141514873216
 20
1737.0175500373909
 30
0.0
 11
1926.742078345304
 21
1737.0175500373909
 31
0.0
  0
LINE
  5
783F
  8
0
 10
1926.742078345304
 20
1737.0175500373909
 30
0.0
 11
1944.383738026791
 21
1719.7975118339391
 31
0.0
  0
LINE
  5
7840
  8
0
 10
2071.9046237490511
 20
1719.7975118339391
 30
0.0
 11
2071.9046237490511
 21
1626.015921576118
 31
0.0
  0
LINE
  5
7841
  8
0
 10
2071.9046237490511
 20
1626.015921576118
 30
0.0
 11
2054.26296406758
 21
1608.813914826271
 31
0.0
  0
LINE
  5
7842
  8
0
 10
2054.26296406758
 20
1608.813914826271
 30
0.0
 11
1961.6624005954741
 21
1608.813914826271
 31
0.0
  0
LINE
  5
7843
  8
0
 10
1961.6624005954741
 20
1608.813914826271
 30
0.0
 11
1944.347438315508
 21
1626.015921576118
 31
0.0
  0
LINE
  5
7844
  8
0
 10
1944.347438315508
 20
1626.015921576118
 30
0.0
 11
1944.347438315508
 21
1719.7975118339391
 31
0.0
  0
LINE
  5
7845
  8
0
 10
1944.347438315508
 20
1719.7975118339391
 30
0.0
 11
1961.6624005954741
 21
1737.0175500373909
 31
0.0
  0
LINE
  5
7846
  8
0
 10
1961.6624005954741
 20
1737.0175500373909
 30
0.0
 11
2054.26296406758
 21
1737.0175500373909
 31
0.0
  0
LINE
  5
7847
  8
0
 10
2054.26296406758
 20
1737.0175500373909
 30
0.0
 11
2071.9046237490511
 21
1719.7975118339391
 31
0.0
  0
LINE
  5
7848
  8
0
 10
2199.4255094713089
 20
1719.7975118339391
 30
0.0
 11
2199.4255094713089
 21
1626.015921576118
 31
0.0
  0
LINE
  5
7849
  8
0
 10
2199.4255094713089
 20
1626.015921576118
 30
0.0
 11
2181.783849789836
 21
1608.813914826271
 31
0.0
  0
LINE
  5
784A
  8
0
 10
2181.783849789836
 20
1608.813914826271
 30
0.0
 11
2089.1651364621061
 21
1608.813914826271
 31
0.0
  0
LINE
  5
784B
  8
0
 10
2089.1651364621061
 20
1608.813914826271
 30
0.0
 11
2071.8501741821392
 21
1626.015921576118
 31
0.0
  0
LINE
  5
784C
  8
0
 10
2071.8501741821392
 20
1626.015921576118
 30
0.0
 11
2071.8501741821392
 21
1719.7975118339391
 31
0.0
  0
LINE
  5
784D
  8
0
 10
2071.8501741821392
 20
1719.7975118339391
 30
0.0
 11
2089.1651364621061
 21
1737.0175500373909
 31
0.0
  0
LINE
  5
784E
  8
0
 10
2089.1651364621061
 20
1737.0175500373909
 30
0.0
 11
2181.783849789836
 21
1737.0175500373909
 31
0.0
  0
LINE
  5
784F
  8
0
 10
2181.783849789836
 20
1737.0175500373909
 30
0.0
 11
2199.4255094713089
 21
1719.7975118339391
 31
0.0
  0
LINE
  5
7850
  8
0
 10
2326.9463951935959
 20
1719.7975118339391
 30
0.0
 11
2326.9463951935959
 21
1626.015921576118
 31
0.0
  0
LINE
  5
7851
  8
0
 10
2326.9463951935959
 20
1626.015921576118
 30
0.0
 11
2309.268435800841
 21
1608.813914826271
 31
0.0
  0
LINE
  5
7852
  8
0
 10
2309.268435800841
 20
1608.813914826271
 30
0.0
 11
2216.7041720400061
 21
1608.813914826271
 31
0.0
  0
LINE
  5
7853
  8
0
 10
2216.7041720400061
 20
1608.813914826271
 30
0.0
 11
2199.3529100487708
 21
1626.015921576118
 31
0.0
  0
LINE
  5
7854
  8
0
 10
2199.3529100487708
 20
1626.015921576118
 30
0.0
 11
2199.3529100487708
 21
1719.7975118339391
 31
0.0
  0
LINE
  5
7855
  8
0
 10
2199.3529100487708
 20
1719.7975118339391
 30
0.0
 11
2216.7041720400061
 21
1737.0175500373909
 31
0.0
  0
LINE
  5
7856
  8
0
 10
2216.7041720400061
 20
1737.0175500373909
 30
0.0
 11
2309.268435800841
 21
1737.0175500373909
 31
0.0
  0
LINE
  5
7857
  8
0
 10
2309.268435800841
 20
1737.0175500373909
 30
0.0
 11
2326.9463951935959
 21
1719.7975118339391
 31
0.0
  0
LINE
  5
8112
  8
0
 10
2658.4662797050969
 20
1594.388751933318
 30
0.0
 11
2658.4662797050969
 21
2392.388751933318
 31
0.0
  0
LINE
  5
8113
  8
0
 10
2676.4662797050978
 20
2392.388751933318
 30
0.0
 11
2676.4662797050978
 21
1594.388751933318
 31
0.0
  0
CIRCLE
  5
8174
  8
0
 10
2671.4662797050969
 20
2193.388751933318
 30
0.0
 40
2.0
  0
LINE
  5
819F
  8
0
 10
2652.5200689511498
 20
1604.365625360655
 30
0.0
 11
2652.9699464947089
 21
1604.865574763809
 31
0.0
  0
LINE
  5
81A0
  8
0
 10
2652.9699464947089
 20
1604.865574763809
 30
0.0
 11
2652.30980009927
 21
1605.5811886153831
 31
0.0
  0
LINE
  5
81A1
  8
0
 10
2652.3049101259712
 20
1606.1987731722199
 30
0.0
 11
2652.1973307133808
 21
1605.865473570118
 31
0.0
  0
LINE
  5
81A2
  8
0
 10
2652.1973307133808
 20
1605.865473570118
 30
0.0
 11
2652.3049101259712
 21
1605.571385685909
 31
0.0
  0
LINE
  5
81A3
  8
0
 10
2652.3049101259712
 20
1606.1987731722199
 30
0.0
 11
2653.0237362010039
 21
1606.914387023794
 31
0.0
  0
LINE
  5
81A4
  8
0
 10
2653.0237362010039
 20
1606.914387023794
 30
0.0
 11
2652.5151789778511
 21
1607.36532177958
 31
0.0
  0
LINE
  5
81A5
  8
0
 10
2652.5151789778511
 20
1607.36532177958
 30
0.0
 11
2651.796352902817
 21
1606.6987225753739
 31
0.0
  0
LINE
  5
81A6
  8
0
 10
2651.1899962136722
 20
1606.747737222742
 30
0.0
 11
2651.5225143980419
 21
1606.5810874216911
 31
0.0
  0
LINE
  5
81A7
  8
0
 10
2651.5225143980419
 20
1606.5810874216911
 30
0.0
 11
2651.8012428761158
 21
1606.6987225753739
 31
0.0
  0
LINE
  5
81A8
  8
0
 10
2651.1899962136722
 20
1606.747737222742
 30
0.0
 11
2650.4711701386391
 21
1607.4241393564221
 31
0.0
  0
LINE
  5
81A9
  8
0
 10
2650.4711701386391
 20
1607.4241393564221
 30
0.0
 11
2649.977282835383
 21
1606.9732046006361
 31
0.0
  0
LINE
  5
81AA
  8
0
 10
2649.977282835383
 20
1606.9732046006361
 30
0.0
 11
2650.6912189371192
 21
1606.247787819588
 31
0.0
  0
LINE
  5
81AB
  8
0
 10
2650.6423192041229
 20
1605.5811886153831
 30
0.0
 11
2650.8134682696068
 21
1605.914488217486
 31
0.0
  0
LINE
  5
81AC
  8
0
 10
2650.8134682696068
 20
1605.914488217486
 30
0.0
 11
2650.6912189371192
 21
1606.247787819588
 31
0.0
  0
LINE
  5
81AD
  8
0
 10
2650.6423192041229
 20
1605.5811886153831
 30
0.0
 11
2649.9821728086831
 21
1604.865574763809
 31
0.0
  0
LINE
  5
81AE
  8
0
 10
2649.9821728086831
 20
1604.865574763809
 30
0.0
 11
2650.4222704056428
 21
1604.4146400080231
 31
0.0
  0
LINE
  5
81AF
  8
0
 10
2650.4222704056428
 20
1604.4146400080231
 30
0.0
 11
2651.131316534078
 21
1605.0812392122291
 31
0.0
  0
LINE
  5
81B0
  8
0
 10
2651.796352902817
 20
1605.0812392122291
 30
0.0
 11
2651.4638347184468
 21
1605.1988743659119
 31
0.0
  0
LINE
  5
81B1
  8
0
 10
2651.4638347184468
 20
1605.1988743659119
 30
0.0
 11
2651.1362065073781
 21
1605.0812392122291
 31
0.0
  0
LINE
  5
81B2
  8
0
 10
2652.5200689511498
 20
1604.365625360655
 30
0.0
 11
2651.8012428761158
 21
1605.0812392122291
 31
0.0
  0
LINE
  5
81B5
  8
0
 10
2650.8574780293029
 20
1605.5811886153831
 30
0.0
 11
2650.6472091774231
 21
1605.5811886153831
 31
0.0
  0
LINE
  5
81B6
  8
0
 10
2650.6912189371192
 20
1606.247787819588
 30
0.0
 11
2650.862368002603
 21
1606.1987731722199
 31
0.0
  0
POLYLINE
  5
850D
  8
0
 66
     1
 10
0.0
 20
0.0
 30
0.0
 70
     8
  0
VERTEX
  5
850E
  8
0
 10
2650.8600000000001
 20
1605.579999999999
 30
0.0
 70
    32
  0
VERTEX
  5
850F
  8
0
 10
2650.8600000000001
 20
1605.5899999999999
 30
0.0
 70
    32
  0
VERTEX
  5
8510
  8
0
 10
2650.8699999999999
 20
1605.5899999999999
 30
0.0
 70
    32
  0
VERTEX
  5
8511
  8
0
 10
2650.8699999999999
 20
1605.5999999999999
 30
0.0
 70
    32
  0
VERTEX
  5
8512
  8
0
 10
2650.8800000000001
 20
1605.5999999999999
 30
0.0
 70
    32
  0
VERTEX
  5
8513
  8
0
 10
2650.8800000000001
 20
1605.6099999999999
 30
0.0
 70
    32
  0
VERTEX
  5
8514
  8
0
 10
2650.8899999999999
 20
1605.6099999999999
 30
0.0
 70
    32
  0
VERTEX
  5
8515
  8
0
 10
2650.8899999999999
 20
1605.6199999999999
 30
0.0
 70
    32
  0
VERTEX
  5
8516
  8
0
 10
2650.9000000000001
 20
1605.6199999999999
 30
0.0
 70
    32
  0
VERTEX
  5
8517
  8
0
 10
2650.9000000000001
 20
1605.6300000000001
 30
0.0
 70
    32
  0
VERTEX
  5
8518
  8
0
 10
2650.9000000000001
 20
1605.6400000000001
 30
0.0
 70
    32
  0
VERTEX
  5
8519
  8
0
 10
2650.9099999999999
 20
1605.6400000000001
 30
0.0
 70
    32
  0
VERTEX
  5
851A
  8
0
 10
2650.9099999999999
 20
1605.6500000000001
 30
0.0
 70
    32
  0
VERTEX
  5
851B
  8
0
 10
2650.9200000000001
 20
1605.6500000000001
 30
0.0
 70
    32
  0
VERTEX
  5
851C
  8
0
 10
2650.9200000000001
 20
1605.6600000000001
 30
0.0
 70
    32
  0
VERTEX
  5
851D
  8
0
 10
2650.9200000000001
 20
1605.6600000000001
 30
0.0
 70
    32
  0
VERTEX
  5
851E
  8
0
 10
2650.9299999999998
 20
1605.6700000000001
 30
0.0
 70
    32
  0
VERTEX
  5
851F
  8
0
 10
2650.9299999999998
 20
1605.6700000000001
 30
0.0
 70
    32
  0
VERTEX
  5
8520
  8
0
 10
2650.9400000000001
 20
1605.6800000000001
 30
0.0
 70
    32
  0
VERTEX
  5
8521
  8
0
 10
2650.9400000000001
 20
1605.6800000000001
 30
0.0
 70
    32
  0
VERTEX
  5
8522
  8
0
 10
2650.9400000000001
 20
1605.6900000000001
 30
0.0
 70
    32
  0
VERTEX
  5
8523
  8
0
 10
2650.9499999999998
 20
1605.6900000000001
 30
0.0
 70
    32
  0
VERTEX
  5
8524
  8
0
 10
2650.9499999999998
 20
1605.7
 30
0.0
 70
    32
  0
VERTEX
  5
8525
  8
0
 10
2650.9499999999998
 20
1605.7
 30
0.0
 70
    32
  0
VERTEX
  5
8526
  8
0
 10
2650.96
 20
1605.71
 30
0.0
 70
    32
  0
VERTEX
  5
8527
  8
0
 10
2650.96
 20
1605.71
 30
0.0
 70
    32
  0
VERTEX
  5
8528
  8
0
 10
2650.96
 20
1605.72
 30
0.0
 70
    32
  0
VERTEX
  5
8529
  8
0
 10
2650.9699999999998
 20
1605.72
 30
0.0
 70
    32
  0
VERTEX
  5
852A
  8
0
 10
2650.9699999999998
 20
1605.73
 30
0.0
 70
    32
  0
VERTEX
  5
852B
  8
0
 10
2650.9699999999998
 20
1605.73
 30
0.0
 70
    32
  0
VERTEX
  5
852C
  8
0
 10
2650.9800000000009
 20
1605.74
 30
0.0
 70
    32
  0
VERTEX
  5
852D
  8
0
 10
2650.9800000000009
 20
1605.74
 30
0.0
 70
    32
  0
VERTEX
  5
852E
  8
0
 10
2650.9800000000009
 20
1605.75
 30
0.0
 70
    32
  0
VERTEX
  5
852F
  8
0
 10
2650.9800000000009
 20
1605.75
 30
0.0
 70
    32
  0
VERTEX
  5
8530
  8
0
 10
2650.9899999999998
 20
1605.76
 30
0.0
 70
    32
  0
VERTEX
  5
8531
  8
0
 10
2650.9899999999998
 20
1605.76
 30
0.0
 70
    32
  0
VERTEX
  5
8532
  8
0
 10
2650.9899999999998
 20
1605.77
 30
0.0
 70
    32
  0
VERTEX
  5
8533
  8
0
 10
2650.9899999999998
 20
1605.77
 30
0.0
 70
    32
  0
VERTEX
  5
8534
  8
0
 10
2651.0
 20
1605.78
 30
0.0
 70
    32
  0
VERTEX
  5
8535
  8
0
 10
2651.0
 20
1605.78
 30
0.0
 70
    32
  0
VERTEX
  5
8536
  8
0
 10
2651.0
 20
1605.79
 30
0.0
 70
    32
  0
VERTEX
  5
8537
  8
0
 10
2651.0
 20
1605.79
 30
0.0
 70
    32
  0
VERTEX
  5
8538
  8
0
 10
2651.0100000000002
 20
1605.79
 30
0.0
 70
    32
  0
VERTEX
  5
8539
  8
0
 10
2651.0100000000002
 20
1605.8
 30
0.0
 70
    32
  0
VERTEX
  5
853A
  8
0
 10
2651.0100000000002
 20
1605.8
 30
0.0
 70
    32
  0
VERTEX
  5
853B
  8
0
 10
2651.0100000000002
 20
1605.8099999999999
 30
0.0
 70
    32
  0
VERTEX
  5
853C
  8
0
 10
2651.0100000000002
 20
1605.8099999999999
 30
0.0
 70
    32
  0
VERTEX
  5
853D
  8
0
 10
2651.0100000000002
 20
1605.8199999999999
 30
0.0
 70
    32
  0
VERTEX
  5
853E
  8
0
 10
2651.02
 20
1605.8199999999999
 30
0.0
 70
    32
  0
VERTEX
  5
853F
  8
0
 10
2651.02
 20
1605.8299999999999
 30
0.0
 70
    32
  0
VERTEX
  5
8540
  8
0
 10
2651.02
 20
1605.8299999999999
 30
0.0
 70
    32
  0
VERTEX
  5
8541
  8
0
 10
2651.02
 20
1605.8399999999999
 30
0.0
 70
    32
  0
VERTEX
  5
8542
  8
0
 10
2651.02
 20
1605.8399999999999
 30
0.0
 70
    32
  0
VERTEX
  5
8543
  8
0
 10
2651.02
 20
1605.8499999999999
 30
0.0
 70
    32
  0
VERTEX
  5
8544
  8
0
 10
2651.02
 20
1605.8499999999999
 30
0.0
 70
    32
  0
VERTEX
  5
8545
  8
0
 10
2651.02
 20
1605.8599999999999
 30
0.0
 70
    32
  0
VERTEX
  5
8546
  8
0
 10
2651.0300000000002
 20
1605.8599999999999
 30
0.0
 70
    32
  0
VERTEX
  5
8547
  8
0
 10
2651.0300000000002
 20
1605.8599999999999
 30
0.0
 70
    32
  0
VERTEX
  5
8548
  8
0
 10
2651.0300000000002
 20
1605.8699999999999
 30
0.0
 70
    32
  0
VERTEX
  5
8549
  8
0
 10
2651.0300000000002
 20
1605.8699999999999
 30
0.0
 70
    32
  0
VERTEX
  5
854A
  8
0
 10
2651.0300000000002
 20
1605.8800000000001
 30
0.0
 70
    32
  0
VERTEX
  5
854B
  8
0
 10
2651.0300000000002
 20
1605.8800000000001
 30
0.0
 70
    32
  0
VERTEX
  5
854C
  8
0
 10
2651.0300000000002
 20
1605.8900000000001
 30
0.0
 70
    32
  0
VERTEX
  5
854D
  8
0
 10
2651.0300000000002
 20
1605.8900000000001
 30
0.0
 70
    32
  0
VERTEX
  5
854E
  8
0
 10
2651.0300000000002
 20
1605.9000000000001
 30
0.0
 70
    32
  0
VERTEX
  5
854F
  8
0
 10
2651.0300000000002
 20
1605.9000000000001
 30
0.0
 70
    32
  0
VERTEX
  5
8550
  8
0
 10
2651.0300000000002
 20
1605.9100000000001
 30
0.0
 70
    32
  0
VERTEX
  5
8551
  8
0
 10
2651.0300000000002
 20
1605.9100000000001
 30
0.0
 70
    32
  0
VERTEX
  5
8552
  8
0
 10
2651.0300000000002
 20
1605.9200000000001
 30
0.0
 70
    32
  0
VERTEX
  5
8553
  8
0
 10
2651.0300000000002
 20
1605.9200000000001
 30
0.0
 70
    32
  0
VERTEX
  5
8554
  8
0
 10
2651.0300000000002
 20
1605.9300000000001
 30
0.0
 70
    32
  0
VERTEX
  5
8555
  8
0
 10
2651.0300000000002
 20
1605.9300000000001
 30
0.0
 70
    32
  0
VERTEX
  5
8556
  8
0
 10
2651.0300000000002
 20
1605.9300000000001
 30
0.0
 70
    32
  0
VERTEX
  5
8557
  8
0
 10
2651.0300000000002
 20
1605.9400000000001
 30
0.0
 70
    32
  0
VERTEX
  5
8558
  8
0
 10
2651.0300000000002
 20
1605.9400000000001
 30
0.0
 70
    32
  0
VERTEX
  5
8559
  8
0
 10
2651.0300000000002
 20
1605.95
 30
0.0
 70
    32
  0
VERTEX
  5
855A
  8
0
 10
2651.0300000000002
 20
1605.95
 30
0.0
 70
    32
  0
VERTEX
  5
855B
  8
0
 10
2651.0300000000002
 20
1605.96
 30
0.0
 70
    32
  0
VERTEX
  5
855C
  8
0
 10
2651.02
 20
1605.96
 30
0.0
 70
    32
  0
VERTEX
  5
855D
  8
0
 10
2651.02
 20
1605.97
 30
0.0
 70
    32
  0
VERTEX
  5
855E
  8
0
 10
2651.02
 20
1605.97
 30
0.0
 70
    32
  0
VERTEX
  5
855F
  8
0
 10
2651.02
 20
1605.98
 30
0.0
 70
    32
  0
VERTEX
  5
8560
  8
0
 10
2651.02
 20
1605.98
 30
0.0
 70
    32
  0
VERTEX
  5
8561
  8
0
 10
2651.02
 20
1605.99
 30
0.0
 70
    32
  0
VERTEX
  5
8562
  8
0
 10
2651.02
 20
1605.99
 30
0.0
 70
    32
  0
VERTEX
  5
8563
  8
0
 10
2651.0100000000002
 20
1606.0
 30
0.0
 70
    32
  0
VERTEX
  5
8564
  8
0
 10
2651.0100000000002
 20
1606.0
 30
0.0
 70
    32
  0
VERTEX
  5
8565
  8
0
 10
2651.0100000000002
 20
1606.0
 30
0.0
 70
    32
  0
VERTEX
  5
8566
  8
0
 10
2651.0100000000002
 20
1606.01
 30
0.0
 70
    32
  0
VERTEX
  5
8567
  8
0
 10
2651.0100000000002
 20
1606.01
 30
0.0
 70
    32
  0
VERTEX
  5
8568
  8
0
 10
2651.0
 20
1606.02
 30
0.0
 70
    32
  0
VERTEX
  5
8569
  8
0
 10
2651.0
 20
1606.02
 30
0.0
 70
    32
  0
VERTEX
  5
856A
  8
0
 10
2651.0
 20
1606.03
 30
0.0
 70
    32
  0
VERTEX
  5
856B
  8
0
 10
2651.0
 20
1606.03
 30
0.0
 70
    32
  0
VERTEX
  5
856C
  8
0
 10
2651.0
 20
1606.04
 30
0.0
 70
    32
  0
VERTEX
  5
856D
  8
0
 10
2650.9899999999998
 20
1606.04
 30
0.0
 70
    32
  0
VERTEX
  5
856E
  8
0
 10
2650.9899999999998
 20
1606.05
 30
0.0
 70
    32
  0
VERTEX
  5
856F
  8
0
 10
2650.9899999999998
 20
1606.05
 30
0.0
 70
    32
  0
VERTEX
  5
8570
  8
0
 10
2650.9800000000009
 20
1606.0599999999999
 30
0.0
 70
    32
  0
VERTEX
  5
8571
  8
0
 10
2650.9800000000009
 20
1606.0599999999999
 30
0.0
 70
    32
  0
VERTEX
  5
8572
  8
0
 10
2650.9800000000009
 20
1606.0699999999999
 30
0.0
 70
    32
  0
VERTEX
  5
8573
  8
0
 10
2650.9800000000009
 20
1606.0699999999999
 30
0.0
 70
    32
  0
VERTEX
  5
8574
  8
0
 10
2650.9699999999998
 20
1606.0799999999999
 30
0.0
 70
    32
  0
VERTEX
  5
8575
  8
0
 10
2650.9699999999998
 20
1606.0799999999999
 30
0.0
 70
    32
  0
VERTEX
  5
8576
  8
0
 10
2650.9699999999998
 20
1606.0899999999999
 30
0.0
 70
    32
  0
VERTEX
  5
8577
  8
0
 10
2650.96
 20
1606.0899999999999
 30
0.0
 70
    32
  0
VERTEX
  5
8578
  8
0
 10
2650.96
 20
1606.0999999999999
 30
0.0
 70
    32
  0
VERTEX
  5
8579
  8
0
 10
2650.9499999999998
 20
1606.0999999999999
 30
0.0
 70
    32
  0
VERTEX
  5
857A
  8
0
 10
2650.9499999999998
 20
1606.1099999999999
 30
0.0
 70
    32
  0
VERTEX
  5
857B
  8
0
 10
2650.9499999999998
 20
1606.1099999999999
 30
0.0
 70
    32
  0
VERTEX
  5
857C
  8
0
 10
2650.9400000000001
 20
1606.1199999999999
 30
0.0
 70
    32
  0
VERTEX
  5
857D
  8
0
 10
2650.9400000000001
 20
1606.1199999999999
 30
0.0
 70
    32
  0
VERTEX
  5
857E
  8
0
 10
2650.9299999999998
 20
1606.1300000000001
 30
0.0
 70
    32
  0
VERTEX
  5
857F
  8
0
 10
2650.9299999999998
 20
1606.1300000000001
 30
0.0
 70
    32
  0
VERTEX
  5
8580
  8
0
 10
2650.9299999999998
 20
1606.1400000000001
 30
0.0
 70
    32
  0
VERTEX
  5
8581
  8
0
 10
2650.9200000000001
 20
1606.1400000000001
 30
0.0
 70
    32
  0
VERTEX
  5
8582
  8
0
 10
2650.9200000000001
 20
1606.1500000000001
 30
0.0
 70
    32
  0
VERTEX
  5
8583
  8
0
 10
2650.9099999999999
 20
1606.1500000000001
 30
0.0
 70
    32
  0
VERTEX
  5
8584
  8
0
 10
2650.9099999999999
 20
1606.1600000000001
 30
0.0
 70
    32
  0
VERTEX
  5
8585
  8
0
 10
2650.9000000000001
 20
1606.1700000000001
 30
0.0
 70
    32
  0
VERTEX
  5
8586
  8
0
 10
2650.9000000000001
 20
1606.1700000000001
 30
0.0
 70
    32
  0
VERTEX
  5
8587
  8
0
 10
2650.8899999999999
 20
1606.1800000000001
 30
0.0
 70
    32
  0
VERTEX
  5
8588
  8
0
 10
2650.8899999999999
 20
1606.1800000000001
 30
0.0
 70
    32
  0
VERTEX
  5
8589
  8
0
 10
2650.8800000000001
 20
1606.1900000000001
 30
0.0
 70
    32
  0
VERTEX
  5
858A
  8
0
 10
2650.8699999999999
 20
1606.1900000000001
 30
0.0
 70
    32
  0
VERTEX
  5
858B
  8
0
 10
2650.8699999999999
 20
1606.2
 30
0.0
 70
    32
  0
VERTEX
  5
858C
  8
0
 10
2650.8600000000001
 20
1606.2
 30
0.0
 70
    32
  0
VERTEX
  5
858D
  8
0
 10
2650.8600000000001
 20
1606.21
 30
0.0
 70
    32
  0
SEQEND
  5
858E
  8
0
  0
LINE
  5
81B8
  8
0
 10
2651.1899962136722
 20
1606.5320727743231
 30
0.0
 11
2651.1899962136722
 21
1606.7379342932691
 31
0.0
  0
LINE
  5
81B9
  8
0
 10
2651.796352902817
 20
1606.6987225753739
 30
0.0
 11
2651.796352902817
 21
1606.473255197481
 31
0.0
  0
POLYLINE
  5
858F
  8
0
 66
     1
 10
0.0
 20
0.0
 30
0.0
 70
     8
  0
VERTEX
  5
8590
  8
0
 10
2651.1900000000001
 20
1606.53
 30
0.0
 70
    32
  0
VERTEX
  5
8591
  8
0
 10
2651.1900000000001
 20
1606.53
 30
0.0
 70
    32
  0
VERTEX
  5
8592
  8
0
 10
2651.1999999999998
 20
1606.52
 30
0.0
 70
    32
  0
VERTEX
  5
8593
  8
0
 10
2651.1999999999998
 20
1606.52
 30
0.0
 70
    32
  0
VERTEX
  5
8594
  8
0
 10
2651.21
 20
1606.51
 30
0.0
 70
    32
  0
VERTEX
  5
8595
  8
0
 10
2651.21
 20
1606.51
 30
0.0
 70
    32
  0
VERTEX
  5
8596
  8
0
 10
2651.21
 20
1606.5
 30
0.0
 70
    32
  0
VERTEX
  5
8597
  8
0
 10
2651.2199999999998
 20
1606.5
 30
0.0
 70
    32
  0
VERTEX
  5
8598
  8
0
 10
2651.2199999999998
 20
1606.49
 30
0.0
 70
    32
  0
VERTEX
  5
8599
  8
0
 10
2651.23
 20
1606.49
 30
0.0
 70
    32
  0
VERTEX
  5
859A
  8
0
 10
2651.23
 20
1606.48
 30
0.0
 70
    32
  0
VERTEX
  5
859B
  8
0
 10
2651.2399999999998
 20
1606.48
 30
0.0
 70
    32
  0
VERTEX
  5
859C
  8
0
 10
2651.2399999999998
 20
1606.47
 30
0.0
 70
    32
  0
VERTEX
  5
859D
  8
0
 10
2651.2399999999998
 20
1606.47
 30
0.0
 70
    32
  0
VERTEX
  5
859E
  8
0
 10
2651.25
 20
1606.47
 30
0.0
 70
    32
  0
VERTEX
  5
859F
  8
0
 10
2651.25
 20
1606.46
 30
0.0
 70
    32
  0
VERTEX
  5
85A0
  8
0
 10
2651.2600000000011
 20
1606.46
 30
0.0
 70
    32
  0
VERTEX
  5
85A1
  8
0
 10
2651.2600000000011
 20
1606.45
 30
0.0
 70
    32
  0
VERTEX
  5
85A2
  8
0
 10
2651.27
 20
1606.45
 30
0.0
 70
    32
  0
VERTEX
  5
85A3
  8
0
 10
2651.27
 20
1606.45
 30
0.0
 70
    32
  0
VERTEX
  5
85A4
  8
0
 10
2651.2800000000002
 20
1606.4400000000001
 30
0.0
 70
    32
  0
VERTEX
  5
85A5
  8
0
 10
2651.2800000000002
 20
1606.4400000000001
 30
0.0
 70
    32
  0
VERTEX
  5
85A6
  8
0
 10
2651.2800000000002
 20
1606.4400000000001
 30
0.0
 70
    32
  0
VERTEX
  5
85A7
  8
0
 10
2651.29
 20
1606.4300000000001
 30
0.0
 70
    32
  0
VERTEX
  5
85A8
  8
0
 10
2651.29
 20
1606.4300000000001
 30
0.0
 70
    32
  0
VERTEX
  5
85A9
  8
0
 10
2651.3000000000002
 20
1606.4300000000001
 30
0.0
 70
    32
  0
VERTEX
  5
85AA
  8
0
 10
2651.3000000000002
 20
1606.4200000000001
 30
0.0
 70
    32
  0
VERTEX
  5
85AB
  8
0
 10
2651.3099999999999
 20
1606.4200000000001
 30
0.0
 70
    32
  0
VERTEX
  5
85AC
  8
0
 10
2651.3099999999999
 20
1606.4200000000001
 30
0.0
 70
    32
  0
VERTEX
  5
85AD
  8
0
 10
2651.3200000000002
 20
1606.4100000000001
 30
0.0
 70
    32
  0
VERTEX
  5
85AE
  8
0
 10
2651.3200000000002
 20
1606.4100000000001
 30
0.0
 70
    32
  0
VERTEX
  5
85AF
  8
0
 10
2651.3299999999999
 20
1606.4100000000001
 30
0.0
 70
    32
  0
VERTEX
  5
85B0
  8
0
 10
2651.3299999999999
 20
1606.4100000000001
 30
0.0
 70
    32
  0
VERTEX
  5
85B1
  8
0
 10
2651.3400000000001
 20
1606.4000000000001
 30
0.0
 70
    32
  0
VERTEX
  5
85B2
  8
0
 10
2651.3400000000001
 20
1606.4000000000001
 30
0.0
 70
    32
  0
VERTEX
  5
85B3
  8
0
 10
2651.3400000000001
 20
1606.4000000000001
 30
0.0
 70
    32
  0
VERTEX
  5
85B4
  8
0
 10
2651.3499999999999
 20
1606.4000000000001
 30
0.0
 70
    32
  0
VERTEX
  5
85B5
  8
0
 10
2651.3499999999999
 20
1606.3900000000001
 30
0.0
 70
    32
  0
VERTEX
  5
85B6
  8
0
 10
2651.3600000000001
 20
1606.3900000000001
 30
0.0
 70
    32
  0
VERTEX
  5
85B7
  8
0
 10
2651.3600000000001
 20
1606.3900000000001
 30
0.0
 70
    32
  0
VERTEX
  5
85B8
  8
0
 10
2651.3699999999999
 20
1606.3900000000001
 30
0.0
 70
    32
  0
VERTEX
  5
85B9
  8
0
 10
2651.3699999999999
 20
1606.3800000000001
 30
0.0
 70
    32
  0
VERTEX
  5
85BA
  8
0
 10
2651.3800000000001
 20
1606.3800000000001
 30
0.0
 70
    32
  0
VERTEX
  5
85BB
  8
0
 10
2651.3800000000001
 20
1606.3800000000001
 30
0.0
 70
    32
  0
VERTEX
  5
85BC
  8
0
 10
2651.3899999999999
 20
1606.3800000000001
 30
0.0
 70
    32
  0
VERTEX
  5
85BD
  8
0
 10
2651.3899999999999
 20
1606.3800000000001
 30
0.0
 70
    32
  0
VERTEX
  5
85BE
  8
0
 10
2651.400000000001
 20
1606.3800000000001
 30
0.0
 70
    32
  0
VERTEX
  5
85BF
  8
0
 10
2651.400000000001
 20
1606.3699999999999
 30
0.0
 70
    32
  0
VERTEX
  5
85C0
  8
0
 10
2651.4099999999999
 20
1606.3699999999999
 30
0.0
 70
    32
  0
VERTEX
  5
85C1
  8
0
 10
2651.4099999999999
 20
1606.3699999999999
 30
0.0
 70
    32
  0
VERTEX
  5
85C2
  8
0
 10
2651.4200000000001
 20
1606.3699999999999
 30
0.0
 70
    32
  0
VERTEX
  5
85C3
  8
0
 10
2651.4200000000001
 20
1606.3699999999999
 30
0.0
 70
    32
  0
VERTEX
  5
85C4
  8
0
 10
2651.4299999999998
 20
1606.3699999999999
 30
0.0
 70
    32
  0
VERTEX
  5
85C5
  8
0
 10
2651.4299999999998
 20
1606.3699999999999
 30
0.0
 70
    32
  0
VERTEX
  5
85C6
  8
0
 10
2651.4400000000001
 20
1606.3699999999999
 30
0.0
 70
    32
  0
VERTEX
  5
85C7
  8
0
 10
2651.4400000000001
 20
1606.3599999999999
 30
0.0
 70
    32
  0
VERTEX
  5
85C8
  8
0
 10
2651.4499999999998
 20
1606.3599999999999
 30
0.0
 70
    32
  0
VERTEX
  5
85C9
  8
0
 10
2651.4499999999998
 20
1606.3599999999999
 30
0.0
 70
    32
  0
VERTEX
  5
85CA
  8
0
 10
2651.46
 20
1606.3599999999999
 30
0.0
 70
    32
  0
VERTEX
  5
85CB
  8
0
 10
2651.46
 20
1606.3599999999999
 30
0.0
 70
    32
  0
VERTEX
  5
85CC
  8
0
 10
2651.4699999999998
 20
1606.3599999999999
 30
0.0
 70
    32
  0
VERTEX
  5
85CD
  8
0
 10
2651.4699999999998
 20
1606.3599999999999
 30
0.0
 70
    32
  0
VERTEX
  5
85CE
  8
0
 10
2651.48
 20
1606.3599999999999
 30
0.0
 70
    32
  0
VERTEX
  5
85CF
  8
0
 10
2651.48
 20
1606.3599999999999
 30
0.0
 70
    32
  0
VERTEX
  5
85D0
  8
0
 10
2651.4899999999998
 20
1606.3599999999999
 30
0.0
 70
    32
  0
VERTEX
  5
85D1
  8
0
 10
2651.4899999999998
 20
1606.3599999999999
 30
0.0
 70
    32
  0
VERTEX
  5
85D2
  8
0
 10
2651.5
 20
1606.3599999999999
 30
0.0
 70
    32
  0
VERTEX
  5
85D3
  8
0
 10
2651.5
 20
1606.3599999999999
 30
0.0
 70
    32
  0
VERTEX
  5
85D4
  8
0
 10
2651.5100000000002
 20
1606.3599999999999
 30
0.0
 70
    32
  0
VERTEX
  5
85D5
  8
0
 10
2651.5100000000002
 20
1606.3599999999999
 30
0.0
 70
    32
  0
VERTEX
  5
85D6
  8
0
 10
2651.52
 20
1606.3599999999999
 30
0.0
 70
    32
  0
VERTEX
  5
85D7
  8
0
 10
2651.52
 20
1606.3599999999999
 30
0.0
 70
    32
  0
VERTEX
  5
85D8
  8
0
 10
2651.5300000000011
 20
1606.3599999999999
 30
0.0
 70
    32
  0
VERTEX
  5
85D9
  8
0
 10
2651.5300000000011
 20
1606.3599999999999
 30
0.0
 70
    32
  0
VERTEX
  5
85DA
  8
0
 10
2651.54
 20
1606.3599999999999
 30
0.0
 70
    32
  0
VERTEX
  5
85DB
  8
0
 10
2651.54
 20
1606.3599999999999
 30
0.0
 70
    32
  0
VERTEX
  5
85DC
  8
0
 10
2651.5500000000002
 20
1606.3599999999999
 30
0.0
 70
    32
  0
VERTEX
  5
85DD
  8
0
 10
2651.5500000000002
 20
1606.3599999999999
 30
0.0
 70
    32
  0
VERTEX
  5
85DE
  8
0
 10
2651.5599999999999
 20
1606.3599999999999
 30
0.0
 70
    32
  0
VERTEX
  5
85DF
  8
0
 10
2651.5599999999999
 20
1606.3599999999999
 30
0.0
 70
    32
  0
VERTEX
  5
85E0
  8
0
 10
2651.5700000000002
 20
1606.3599999999999
 30
0.0
 70
    32
  0
VERTEX
  5
85E1
  8
0
 10
2651.5700000000002
 20
1606.3599999999999
 30
0.0
 70
    32
  0
VERTEX
  5
85E2
  8
0
 10
2651.5799999999999
 20
1606.3699999999999
 30
0.0
 70
    32
  0
VERTEX
  5
85E3
  8
0
 10
2651.5799999999999
 20
1606.3699999999999
 30
0.0
 70
    32
  0
VERTEX
  5
85E4
  8
0
 10
2651.5900000000011
 20
1606.3699999999999
 30
0.0
 70
    32
  0
VERTEX
  5
85E5
  8
0
 10
2651.5900000000011
 20
1606.3699999999999
 30
0.0
 70
    32
  0
VERTEX
  5
85E6
  8
0
 10
2651.5999999999999
 20
1606.3699999999999
 30
0.0
 70
    32
  0
VERTEX
  5
85E7
  8
0
 10
2651.5999999999999
 20
1606.3699999999999
 30
0.0
 70
    32
  0
VERTEX
  5
85E8
  8
0
 10
2651.6100000000001
 20
1606.3699999999999
 30
0.0
 70
    32
  0
VERTEX
  5
85E9
  8
0
 10
2651.6100000000001
 20
1606.3699999999999
 30
0.0
 70
    32
  0
VERTEX
  5
85EA
  8
0
 10
2651.6199999999999
 20
1606.3800000000001
 30
0.0
 70
    32
  0
VERTEX
  5
85EB
  8
0
 10
2651.6199999999999
 20
1606.3800000000001
 30
0.0
 70
    32
  0
VERTEX
  5
85EC
  8
0
 10
2651.6300000000001
 20
1606.3800000000001
 30
0.0
 70
    32
  0
VERTEX
  5
85ED
  8
0
 10
2651.6300000000001
 20
1606.3800000000001
 30
0.0
 70
    32
  0
VERTEX
  5
85EE
  8
0
 10
2651.6399999999999
 20
1606.3800000000001
 30
0.0
 70
    32
  0
VERTEX
  5
85EF
  8
0
 10
2651.6399999999999
 20
1606.3800000000001
 30
0.0
 70
    32
  0
VERTEX
  5
85F0
  8
0
 10
2651.6500000000001
 20
1606.3900000000001
 30
0.0
 70
    32
  0
VERTEX
  5
85F1
  8
0
 10
2651.6500000000001
 20
1606.3900000000001
 30
0.0
 70
    32
  0
VERTEX
  5
85F2
  8
0
 10
2651.6599999999999
 20
1606.3900000000001
 30
0.0
 70
    32
  0
VERTEX
  5
85F3
  8
0
 10
2651.6599999999999
 20
1606.3900000000001
 30
0.0
 70
    32
  0
VERTEX
  5
85F4
  8
0
 10
2651.6700000000001
 20
1606.3900000000001
 30
0.0
 70
    32
  0
VERTEX
  5
85F5
  8
0
 10
2651.6700000000001
 20
1606.4000000000001
 30
0.0
 70
    32
  0
VERTEX
  5
85F6
  8
0
 10
2651.6799999999998
 20
1606.4000000000001
 30
0.0
 70
    32
  0
VERTEX
  5
85F7
  8
0
 10
2651.6799999999998
 20
1606.4000000000001
 30
0.0
 70
    32
  0
VERTEX
  5
85F8
  8
0
 10
2651.6900000000001
 20
1606.4000000000001
 30
0.0
 70
    32
  0
VERTEX
  5
85F9
  8
0
 10
2651.6900000000001
 20
1606.4100000000001
 30
0.0
 70
    32
  0
VERTEX
  5
85FA
  8
0
 10
2651.6999999999998
 20
1606.4100000000001
 30
0.0
 70
    32
  0
VERTEX
  5
85FB
  8
0
 10
2651.6999999999998
 20
1606.4100000000001
 30
0.0
 70
    32
  0
VERTEX
  5
85FC
  8
0
 10
2651.71
 20
1606.4100000000001
 30
0.0
 70
    32
  0
VERTEX
  5
85FD
  8
0
 10
2651.71
 20
1606.4200000000001
 30
0.0
 70
    32
  0
VERTEX
  5
85FE
  8
0
 10
2651.7199999999998
 20
1606.4200000000001
 30
0.0
 70
    32
  0
VERTEX
  5
85FF
  8
0
 10
2651.7199999999998
 20
1606.4200000000001
 30
0.0
 70
    32
  0
VERTEX
  5
8600
  8
0
 10
2651.7300000000009
 20
1606.4200000000001
 30
0.0
 70
    32
  0
VERTEX
  5
8601
  8
0
 10
2651.7300000000009
 20
1606.4300000000001
 30
0.0
 70
    32
  0
VERTEX
  5
8602
  8
0
 10
2651.7399999999998
 20
1606.4300000000001
 30
0.0
 70
    32
  0
VERTEX
  5
8603
  8
0
 10
2651.7399999999998
 20
1606.4300000000001
 30
0.0
 70
    32
  0
VERTEX
  5
8604
  8
0
 10
2651.75
 20
1606.4400000000001
 30
0.0
 70
    32
  0
VERTEX
  5
8605
  8
0
 10
2651.75
 20
1606.4400000000001
 30
0.0
 70
    32
  0
VERTEX
  5
8606
  8
0
 10
2651.7600000000002
 20
1606.4400000000001
 30
0.0
 70
    32
  0
VERTEX
  5
8607
  8
0
 10
2651.7600000000002
 20
1606.45
 30
0.0
 70
    32
  0
VERTEX
  5
8608
  8
0
 10
2651.77
 20
1606.45
 30
0.0
 70
    32
  0
VERTEX
  5
8609
  8
0
 10
2651.77
 20
1606.45
 30
0.0
 70
    32
  0
VERTEX
  5
860A
  8
0
 10
2651.7800000000002
 20
1606.46
 30
0.0
 70
    32
  0
VERTEX
  5
860B
  8
0
 10
2651.7800000000002
 20
1606.46
 30
0.0
 70
    32
  0
VERTEX
  5
860C
  8
0
 10
2651.79
 20
1606.46
 30
0.0
 70
    32
  0
VERTEX
  5
860D
  8
0
 10
2651.79
 20
1606.47
 30
0.0
 70
    32
  0
VERTEX
  5
860E
  8
0
 10
2651.8000000000002
 20
1606.47
 30
0.0
 70
    32
  0
VERTEX
  5
860F
  8
0
 10
2651.8000000000002
 20
1606.47
 30
0.0
 70
    32
  0
SEQEND
  5
8610
  8
0
  0
LINE
  5
81BB
  8
0
 10
2652.079971354191
 20
1606.1987731722199
 30
0.0
 11
2652.3000201526711
 21
1606.1987731722199
 31
0.0
  0
LINE
  5
81BC
  8
0
 10
2652.3049101259712
 20
1605.5811886153831
 30
0.0
 11
2652.0848613274911
 21
1605.5811886153831
 31
0.0
  0
POLYLINE
  5
8611
  8
0
 66
     1
 10
0.0
 20
0.0
 30
0.0
 70
     8
  0
VERTEX
  5
8612
  8
0
 10
2652.0799999999999
 20
1606.2
 30
0.0
 70
    32
  0
VERTEX
  5
8613
  8
0
 10
2652.0799999999999
 20
1606.1900000000001
 30
0.0
 70
    32
  0
VERTEX
  5
8614
  8
0
 10
2652.0700000000002
 20
1606.1900000000001
 30
0.0
 70
    32
  0
VERTEX
  5
8615
  8
0
 10
2652.0700000000002
 20
1606.1900000000001
 30
0.0
 70
    32
  0
VERTEX
  5
8616
  8
0
 10
2652.0700000000002
 20
1606.1800000000001
 30
0.0
 70
    32
  0
VERTEX
  5
8617
  8
0
 10
2652.0599999999999
 20
1606.1800000000001
 30
0.0
 70
    32
  0
VERTEX
  5
8618
  8
0
 10
2652.0599999999999
 20
1606.1700000000001
 30
0.0
 70
    32
  0
VERTEX
  5
8619
  8
0
 10
2652.0599999999999
 20
1606.1700000000001
 30
0.0
 70
    32
  0
VERTEX
  5
861A
  8
0
 10
2652.0500000000002
 20
1606.1600000000001
 30
0.0
 70
    32
  0
VERTEX
  5
861B
  8
0
 10
2652.0500000000002
 20
1606.1600000000001
 30
0.0
 70
    32
  0
VERTEX
  5
861C
  8
0
 10
2652.0500000000002
 20
1606.1500000000001
 30
0.0
 70
    32
  0
VERTEX
  5
861D
  8
0
 10
2652.04
 20
1606.1500000000001
 30
0.0
 70
    32
  0
VERTEX
  5
861E
  8
0
 10
2652.04
 20
1606.1400000000001
 30
0.0
 70
    32
  0
VERTEX
  5
861F
  8
0
 10
2652.04
 20
1606.1400000000001
 30
0.0
 70
    32
  0
VERTEX
  5
8620
  8
0
 10
2652.04
 20
1606.1400000000001
 30
0.0
 70
    32
  0
VERTEX
  5
8621
  8
0
 10
2652.0300000000002
 20
1606.1300000000001
 30
0.0
 70
    32
  0
VERTEX
  5
8622
  8
0
 10
2652.0300000000002
 20
1606.1300000000001
 30
0.0
 70
    32
  0
VERTEX
  5
8623
  8
0
 10
2652.0300000000002
 20
1606.1199999999999
 30
0.0
 70
    32
  0
VERTEX
  5
8624
  8
0
 10
2652.02
 20
1606.1199999999999
 30
0.0
 70
    32
  0
VERTEX
  5
8625
  8
0
 10
2652.02
 20
1606.1099999999999
 30
0.0
 70
    32
  0
VERTEX
  5
8626
  8
0
 10
2652.02
 20
1606.1099999999999
 30
0.0
 70
    32
  0
VERTEX
  5
8627
  8
0
 10
2652.02
 20
1606.0999999999999
 30
0.0
 70
    32
  0
VERTEX
  5
8628
  8
0
 10
2652.0100000000011
 20
1606.0999999999999
 30
0.0
 70
    32
  0
VERTEX
  5
8629
  8
0
 10
2652.0100000000011
 20
1606.0899999999999
 30
0.0
 70
    32
  0
VERTEX
  5
862A
  8
0
 10
2652.0100000000011
 20
1606.0899999999999
 30
0.0
 70
    32
  0
VERTEX
  5
862B
  8
0
 10
2652.0100000000011
 20
1606.0799999999999
 30
0.0
 70
    32
  0
VERTEX
  5
862C
  8
0
 10
2652.0100000000011
 20
1606.0799999999999
 30
0.0
 70
    32
  0
VERTEX
  5
862D
  8
0
 10
2652.0
 20
1606.0699999999999
 30
0.0
 70
    32
  0
VERTEX
  5
862E
  8
0
 10
2652.0
 20
1606.0699999999999
 30
0.0
 70
    32
  0
VERTEX
  5
862F
  8
0
 10
2652.0
 20
1606.0599999999999
 30
0.0
 70
    32
  0
VERTEX
  5
8630
  8
0
 10
2652.0
 20
1606.0599999999999
 30
0.0
 70
    32
  0
VERTEX
  5
8631
  8
0
 10
2652.0
 20
1606.05
 30
0.0
 70
    32
  0
VERTEX
  5
8632
  8
0
 10
2651.9899999999998
 20
1606.05
 30
0.0
 70
    32
  0
VERTEX
  5
8633
  8
0
 10
2651.9899999999998
 20
1606.04
 30
0.0
 70
    32
  0
VERTEX
  5
8634
  8
0
 10
2651.9899999999998
 20
1606.04
 30
0.0
 70
    32
  0
VERTEX
  5
8635
  8
0
 10
2651.9899999999998
 20
1606.03
 30
0.0
 70
    32
  0
VERTEX
  5
8636
  8
0
 10
2651.9899999999998
 20
1606.03
 30
0.0
 70
    32
  0
VERTEX
  5
8637
  8
0
 10
2651.9899999999998
 20
1606.02
 30
0.0
 70
    32
  0
VERTEX
  5
8638
  8
0
 10
2651.98
 20
1606.02
 30
0.0
 70
    32
  0
VERTEX
  5
8639
  8
0
 10
2651.98
 20
1606.01
 30
0.0
 70
    32
  0
VERTEX
  5
863A
  8
0
 10
2651.98
 20
1606.01
 30
0.0
 70
    32
  0
VERTEX
  5
863B
  8
0
 10
2651.98
 20
1606.0
 30
0.0
 70
    32
  0
VERTEX
  5
863C
  8
0
 10
2651.98
 20
1606.0
 30
0.0
 70
    32
  0
VERTEX
  5
863D
  8
0
 10
2651.98
 20
1605.99
 30
0.0
 70
    32
  0
VERTEX
  5
863E
  8
0
 10
2651.98
 20
1605.99
 30
0.0
 70
    32
  0
VERTEX
  5
863F
  8
0
 10
2651.98
 20
1605.98
 30
0.0
 70
    32
  0
VERTEX
  5
8640
  8
0
 10
2651.9699999999998
 20
1605.98
 30
0.0
 70
    32
  0
VERTEX
  5
8641
  8
0
 10
2651.9699999999998
 20
1605.97
 30
0.0
 70
    32
  0
VERTEX
  5
8642
  8
0
 10
2651.9699999999998
 20
1605.97
 30
0.0
 70
    32
  0
VERTEX
  5
8643
  8
0
 10
2651.9699999999998
 20
1605.96
 30
0.0
 70
    32
  0
VERTEX
  5
8644
  8
0
 10
2651.9699999999998
 20
1605.96
 30
0.0
 70
    32
  0
VERTEX
  5
8645
  8
0
 10
2651.9699999999998
 20
1605.95
 30
0.0
 70
    32
  0
VERTEX
  5
8646
  8
0
 10
2651.9699999999998
 20
1605.95
 30
0.0
 70
    32
  0
VERTEX
  5
8647
  8
0
 10
2651.9699999999998
 20
1605.9400000000001
 30
0.0
 70
    32
  0
VERTEX
  5
8648
  8
0
 10
2651.9699999999998
 20
1605.9400000000001
 30
0.0
 70
    32
  0
VERTEX
  5
8649
  8
0
 10
2651.9699999999998
 20
1605.9300000000001
 30
0.0
 70
    32
  0
VERTEX
  5
864A
  8
0
 10
2651.9699999999998
 20
1605.9300000000001
 30
0.0
 70
    32
  0
VERTEX
  5
864B
  8
0
 10
2651.9699999999998
 20
1605.9200000000001
 30
0.0
 70
    32
  0
VERTEX
  5
864C
  8
0
 10
2651.9699999999998
 20
1605.9200000000001
 30
0.0
 70
    32
  0
VERTEX
  5
864D
  8
0
 10
2651.9699999999998
 20
1605.9100000000001
 30
0.0
 70
    32
  0
VERTEX
  5
864E
  8
0
 10
2651.9699999999998
 20
1605.9100000000001
 30
0.0
 70
    32
  0
VERTEX
  5
864F
  8
0
 10
2651.9699999999998
 20
1605.9000000000001
 30
0.0
 70
    32
  0
VERTEX
  5
8650
  8
0
 10
2651.9699999999998
 20
1605.9000000000001
 30
0.0
 70
    32
  0
VERTEX
  5
8651
  8
0
 10
2651.9699999999998
 20
1605.8900000000001
 30
0.0
 70
    32
  0
VERTEX
  5
8652
  8
0
 10
2651.9699999999998
 20
1605.8900000000001
 30
0.0
 70
    32
  0
VERTEX
  5
8653
  8
0
 10
2651.9699999999998
 20
1605.8800000000001
 30
0.0
 70
    32
  0
VERTEX
  5
8654
  8
0
 10
2651.9699999999998
 20
1605.8800000000001
 30
0.0
 70
    32
  0
VERTEX
  5
8655
  8
0
 10
2651.9699999999998
 20
1605.8699999999999
 30
0.0
 70
    32
  0
VERTEX
  5
8656
  8
0
 10
2651.9699999999998
 20
1605.8699999999999
 30
0.0
 70
    32
  0
VERTEX
  5
8657
  8
0
 10
2651.9699999999998
 20
1605.8599999999999
 30
0.0
 70
    32
  0
VERTEX
  5
8658
  8
0
 10
2651.9699999999998
 20
1605.8599999999999
 30
0.0
 70
    32
  0
VERTEX
  5
8659
  8
0
 10
2651.9699999999998
 20
1605.8499999999999
 30
0.0
 70
    32
  0
VERTEX
  5
865A
  8
0
 10
2651.9699999999998
 20
1605.8399999999999
 30
0.0
 70
    32
  0
VERTEX
  5
865B
  8
0
 10
2651.9699999999998
 20
1605.8399999999999
 30
0.0
 70
    32
  0
VERTEX
  5
865C
  8
0
 10
2651.9699999999998
 20
1605.8299999999999
 30
0.0
 70
    32
  0
VERTEX
  5
865D
  8
0
 10
2651.9699999999998
 20
1605.8299999999999
 30
0.0
 70
    32
  0
VERTEX
  5
865E
  8
0
 10
2651.9699999999998
 20
1605.8199999999999
 30
0.0
 70
    32
  0
VERTEX
  5
865F
  8
0
 10
2651.9699999999998
 20
1605.8199999999999
 30
0.0
 70
    32
  0
VERTEX
  5
8660
  8
0
 10
2651.9699999999998
 20
1605.8099999999999
 30
0.0
 70
    32
  0
VERTEX
  5
8661
  8
0
 10
2651.9699999999998
 20
1605.8099999999999
 30
0.0
 70
    32
  0
VERTEX
  5
8662
  8
0
 10
2651.9699999999998
 20
1605.8
 30
0.0
 70
    32
  0
VERTEX
  5
8663
  8
0
 10
2651.9699999999998
 20
1605.8
 30
0.0
 70
    32
  0
VERTEX
  5
8664
  8
0
 10
2651.98
 20
1605.79
 30
0.0
 70
    32
  0
VERTEX
  5
8665
  8
0
 10
2651.98
 20
1605.79
 30
0.0
 70
    32
  0
VERTEX
  5
8666
  8
0
 10
2651.98
 20
1605.78
 30
0.0
 70
    32
  0
VERTEX
  5
8667
  8
0
 10
2651.98
 20
1605.78
 30
0.0
 70
    32
  0
VERTEX
  5
8668
  8
0
 10
2651.98
 20
1605.77
 30
0.0
 70
    32
  0
VERTEX
  5
8669
  8
0
 10
2651.98
 20
1605.77
 30
0.0
 70
    32
  0
VERTEX
  5
866A
  8
0
 10
2651.98
 20
1605.76
 30
0.0
 70
    32
  0
VERTEX
  5
866B
  8
0
 10
2651.98
 20
1605.76
 30
0.0
 70
    32
  0
VERTEX
  5
866C
  8
0
 10
2651.9899999999998
 20
1605.75
 30
0.0
 70
    32
  0
VERTEX
  5
866D
  8
0
 10
2651.9899999999998
 20
1605.75
 30
0.0
 70
    32
  0
VERTEX
  5
866E
  8
0
 10
2651.9899999999998
 20
1605.74
 30
0.0
 70
    32
  0
VERTEX
  5
866F
  8
0
 10
2651.9899999999998
 20
1605.74
 30
0.0
 70
    32
  0
VERTEX
  5
8670
  8
0
 10
2651.9899999999998
 20
1605.73
 30
0.0
 70
    32
  0
VERTEX
  5
8671
  8
0
 10
2651.9899999999998
 20
1605.73
 30
0.0
 70
    32
  0
VERTEX
  5
8672
  8
0
 10
2652.0
 20
1605.72
 30
0.0
 70
    32
  0
VERTEX
  5
8673
  8
0
 10
2652.0
 20
1605.72
 30
0.0
 70
    32
  0
VERTEX
  5
8674
  8
0
 10
2652.0
 20
1605.71
 30
0.0
 70
    32
  0
VERTEX
  5
8675
  8
0
 10
2652.0
 20
1605.71
 30
0.0
 70
    32
  0
VERTEX
  5
8676
  8
0
 10
2652.0
 20
1605.7
 30
0.0
 70
    32
  0
VERTEX
  5
8677
  8
0
 10
2652.0100000000011
 20
1605.7
 30
0.0
 70
    32
  0
VERTEX
  5
8678
  8
0
 10
2652.0100000000011
 20
1605.6900000000001
 30
0.0
 70
    32
  0
VERTEX
  5
8679
  8
0
 10
2652.0100000000011
 20
1605.6900000000001
 30
0.0
 70
    32
  0
VERTEX
  5
867A
  8
0
 10
2652.0100000000011
 20
1605.6800000000001
 30
0.0
 70
    32
  0
VERTEX
  5
867B
  8
0
 10
2652.0100000000011
 20
1605.6800000000001
 30
0.0
 70
    32
  0
VERTEX
  5
867C
  8
0
 10
2652.02
 20
1605.6700000000001
 30
0.0
 70
    32
  0
VERTEX
  5
867D
  8
0
 10
2652.02
 20
1605.6700000000001
 30
0.0
 70
    32
  0
VERTEX
  5
867E
  8
0
 10
2652.02
 20
1605.6600000000001
 30
0.0
 70
    32
  0
VERTEX
  5
867F
  8
0
 10
2652.02
 20
1605.6600000000001
 30
0.0
 70
    32
  0
VERTEX
  5
8680
  8
0
 10
2652.0300000000002
 20
1605.6500000000001
 30
0.0
 70
    32
  0
VERTEX
  5
8681
  8
0
 10
2652.0300000000002
 20
1605.6500000000001
 30
0.0
 70
    32
  0
VERTEX
  5
8682
  8
0
 10
2652.0300000000002
 20
1605.6400000000001
 30
0.0
 70
    32
  0
VERTEX
  5
8683
  8
0
 10
2652.04
 20
1605.6400000000001
 30
0.0
 70
    32
  0
VERTEX
  5
8684
  8
0
 10
2652.04
 20
1605.6300000000001
 30
0.0
 70
    32
  0
VERTEX
  5
8685
  8
0
 10
2652.04
 20
1605.6300000000001
 30
0.0
 70
    32
  0
VERTEX
  5
8686
  8
0
 10
2652.04
 20
1605.6199999999999
 30
0.0
 70
    32
  0
VERTEX
  5
8687
  8
0
 10
2652.0500000000002
 20
1605.6199999999999
 30
0.0
 70
    32
  0
VERTEX
  5
8688
  8
0
 10
2652.0500000000002
 20
1605.6099999999999
 30
0.0
 70
    32
  0
VERTEX
  5
8689
  8
0
 10
2652.0500000000002
 20
1605.6099999999999
 30
0.0
 70
    32
  0
VERTEX
  5
868A
  8
0
 10
2652.0599999999999
 20
1605.5999999999999
 30
0.0
 70
    32
  0
VERTEX
  5
868B
  8
0
 10
2652.0599999999999
 20
1605.5999999999999
 30
0.0
 70
    32
  0
VERTEX
  5
868C
  8
0
 10
2652.0599999999999
 20
1605.5899999999999
 30
0.0
 70
    32
  0
VERTEX
  5
868D
  8
0
 10
2652.0700000000002
 20
1605.5899999999999
 30
0.0
 70
    32
  0
VERTEX
  5
868E
  8
0
 10
2652.0700000000002
 20
1605.5899999999999
 30
0.0
 70
    32
  0
VERTEX
  5
868F
  8
0
 10
2652.0700000000002
 20
1605.579999999999
 30
0.0
 70
    32
  0
VERTEX
  5
8690
  8
0
 10
2652.0799999999999
 20
1605.579999999999
 30
0.0
 70
    32
  0
VERTEX
  5
8691
  8
0
 10
2652.0799999999999
 20
1605.5699999999999
 30
0.0
 70
    32
  0
SEQEND
  5
8692
  8
0
  0
LINE
  5
81BE
  8
0
 10
2651.796352902817
 20
1605.24788901328
 30
0.0
 11
2651.796352902817
 21
1605.0812392122291
 31
0.0
  0
LINE
  5
81BF
  8
0
 10
2651.131316534078
 20
1605.0812392122291
 30
0.0
 11
2651.131316534078
 21
1605.3067065901221
 31
0.0
  0
LINE
  5
81C0
  8
0
 10
2651.796352902817
 20
1605.24788901328
 30
0.0
 11
2651.757233116421
 21
1605.3067065901221
 31
0.0
  0
LINE
  5
81C1
  8
0
 10
2651.757233116421
 20
1605.3067065901221
 30
0.0
 11
2651.64476373053
 21
1605.365524166964
 31
0.0
  0
LINE
  5
81C2
  8
0
 10
2651.64476373053
 20
1605.365524166964
 30
0.0
 11
2651.5860840509358
 21
1605.414538814332
 31
0.0
  0
LINE
  5
81C3
  8
0
 10
2651.5860840509358
 20
1605.414538814332
 30
0.0
 11
2651.414934985452
 21
1605.414538814332
 31
0.0
  0
LINE
  5
81C4
  8
0
 10
2651.414934985452
 20
1605.414538814332
 30
0.0
 11
2651.307355572862
 21
1605.365524166964
 31
0.0
  0
LINE
  5
81C5
  8
0
 10
2651.307355572862
 20
1605.365524166964
 30
0.0
 11
2651.253565866567
 21
1605.365524166964
 31
0.0
  0
LINE
  5
81C6
  8
0
 10
2651.253565866567
 20
1605.365524166964
 30
0.0
 11
2651.1362065073781
 21
1605.3067065901221
 31
0.0
  0
LINE
  5
81C7
  8
0
 10
2650.466280165339
 20
1607.4241393564221
 30
0.0
 11
2650.466280165339
 21
1607.247686625896
 31
0.0
  0
LINE
  5
81C8
  8
0
 10
2650.466280165339
 20
1607.247686625896
 30
0.0
 11
2651.185106240373
 21
1606.5320727743231
 31
0.0
  0
LINE
  5
81C9
  8
0
 10
2649.977282835383
 20
1606.9732046006361
 30
0.0
 11
2650.1875516872651
 21
1606.914387023794
 31
0.0
  0
LINE
  5
81CA
  8
0
 10
2650.1875516872651
 20
1606.914387023794
 30
0.0
 11
2650.8574780293029
 21
1606.1987731722199
 31
0.0
  0
LINE
  5
81CB
  8
0
 10
2652.9699464947089
 20
1604.865574763809
 30
0.0
 11
2652.7890174826271
 21
1604.865574763809
 31
0.0
  0
LINE
  5
81CC
  8
0
 10
2652.7890174826271
 20
1604.865574763809
 30
0.0
 11
2652.079971354191
 21
1605.5811886153831
 31
0.0
  0
LINE
  5
81CD
  8
0
 10
2653.028626174304
 20
1606.914387023794
 30
0.0
 11
2652.798797429225
 21
1606.914387023794
 31
0.0
  0
LINE
  5
81CE
  8
0
 10
2652.798797429225
 20
1606.914387023794
 30
0.0
 11
2652.079971354191
 21
1606.1987731722199
 31
0.0
  0
LINE
  5
81CF
  8
0
 10
2650.4173804323432
 20
1604.4146400080231
 30
0.0
 11
2650.4173804323432
 21
1604.5812898090751
 31
0.0
  0
LINE
  5
81D0
  8
0
 10
2650.4173804323432
 20
1604.5812898090751
 30
0.0
 11
2651.1264265607788
 21
1605.3067065901221
 31
0.0
  0
LINE
  5
81D1
  8
0
 10
2652.5200689511498
 20
1607.36532177958
 30
0.0
 11
2652.5200689511498
 21
1607.198671978528
 31
0.0
  0
LINE
  5
81D2
  8
0
 10
2652.5200689511498
 20
1607.198671978528
 30
0.0
 11
2651.8012428761158
 21
1606.473255197481
 31
0.0
  0
LINE
  5
81D3
  8
0
 10
2649.977282835383
 20
1604.865574763809
 30
0.0
 11
2650.1386519542698
 21
1604.865574763809
 31
0.0
  0
LINE
  5
81D4
  8
0
 10
2650.1386519542698
 20
1604.865574763809
 30
0.0
 11
2650.8574780293029
 21
1605.5811886153831
 31
0.0
  0
LINE
  5
81D5
  8
0
 10
2652.5200689511498
 20
1604.365625360655
 30
0.0
 11
2652.5200689511498
 21
1604.532275161707
 31
0.0
  0
LINE
  5
81D6
  8
0
 10
2652.5200689511498
 20
1604.532275161707
 30
0.0
 11
2651.8012428761158
 21
1605.24788901328
 31
0.0
  0
LINE
  5
81D7
  8
0
 10
2652.5200689511498
 20
1604.532275161707
 30
0.0
 11
2652.7890174826271
 21
1604.865574763809
 31
0.0
  0
LINE
  5
81D8
  8
0
 10
2652.7939074559249
 20
1606.914387023794
 30
0.0
 11
2652.5249589244499
 21
1607.198671978528
 31
0.0
  0
LINE
  5
81D9
  8
0
 10
2650.1337619809692
 20
1604.865574763809
 30
0.0
 11
2650.412490459044
 21
1604.5812898090751
 31
0.0
  0
LINE
  5
81DA
  8
0
 10
2650.466280165339
 20
1607.247686625896
 30
0.0
 11
2650.197331633864
 21
1606.914387023794
 31
0.0
  0
LINE
  5
81E1
  8
0
 10
2683.5200689511498
 20
1604.365625360655
 30
0.0
 11
2683.9699464947089
 21
1604.865574763809
 31
0.0
  0
LINE
  5
81E2
  8
0
 10
2683.9699464947089
 20
1604.865574763809
 30
0.0
 11
2683.30980009927
 21
1605.5811886153831
 31
0.0
  0
LINE
  5
81E3
  8
0
 10
2683.3049101259721
 20
1606.1987731722199
 30
0.0
 11
2683.1973307133799
 21
1605.865473570118
 31
0.0
  0
LINE
  5
81E4
  8
0
 10
2683.1973307133799
 20
1605.865473570118
 30
0.0
 11
2683.3049101259721
 21
1605.571385685909
 31
0.0
  0
LINE
  5
81E5
  8
0
 10
2683.3049101259721
 20
1606.1987731722199
 30
0.0
 11
2684.0237362010039
 21
1606.914387023794
 31
0.0
  0
LINE
  5
81E6
  8
0
 10
2684.0237362010039
 20
1606.914387023794
 30
0.0
 11
2683.5151789778511
 21
1607.36532177958
 31
0.0
  0
LINE
  5
81E7
  8
0
 10
2683.5151789778511
 20
1607.36532177958
 30
0.0
 11
2682.796352902817
 21
1606.6987225753739
 31
0.0
  0
LINE
  5
81E8
  8
0
 10
2682.1899962136731
 20
1606.747737222742
 30
0.0
 11
2682.5225143980419
 21
1606.5810874216911
 31
0.0
  0
LINE
  5
81E9
  8
0
 10
2682.5225143980419
 20
1606.5810874216911
 30
0.0
 11
2682.8012428761158
 21
1606.6987225753739
 31
0.0
  0
LINE
  5
81EA
  8
0
 10
2682.1899962136731
 20
1606.747737222742
 30
0.0
 11
2681.4711701386391
 21
1607.4241393564221
 31
0.0
  0
LINE
  5
81EB
  8
0
 10
2681.4711701386391
 20
1607.4241393564221
 30
0.0
 11
2680.9772828353839
 21
1606.9732046006361
 31
0.0
  0
LINE
  5
81EC
  8
0
 10
2680.9772828353839
 20
1606.9732046006361
 30
0.0
 11
2681.6912189371192
 21
1606.247787819588
 31
0.0
  0
LINE
  5
81ED
  8
0
 10
2681.6423192041229
 20
1605.5811886153831
 30
0.0
 11
2681.8134682696068
 21
1605.914488217486
 31
0.0
  0
LINE
  5
81EE
  8
0
 10
2681.8134682696068
 20
1605.914488217486
 30
0.0
 11
2681.6912189371192
 21
1606.247787819588
 31
0.0
  0
LINE
  5
81EF
  8
0
 10
2681.6423192041229
 20
1605.5811886153831
 30
0.0
 11
2680.9821728086831
 21
1604.865574763809
 31
0.0
  0
LINE
  5
81F0
  8
0
 10
2680.9821728086831
 20
1604.865574763809
 30
0.0
 11
2681.4222704056428
 21
1604.4146400080231
 31
0.0
  0
LINE
  5
81F1
  8
0
 10
2681.4222704056428
 20
1604.4146400080231
 30
0.0
 11
2682.131316534078
 21
1605.0812392122291
 31
0.0
  0
LINE
  5
81F2
  8
0
 10
2682.796352902817
 20
1605.0812392122291
 30
0.0
 11
2682.4638347184468
 21
1605.1988743659119
 31
0.0
  0
LINE
  5
81F3
  8
0
 10
2682.4638347184468
 20
1605.1988743659119
 30
0.0
 11
2682.1362065073772
 21
1605.0812392122291
 31
0.0
  0
LINE
  5
81F4
  8
0
 10
2683.5200689511498
 20
1604.365625360655
 30
0.0
 11
2682.8012428761158
 21
1605.0812392122291
 31
0.0
  0
LINE
  5
81F7
  8
0
 10
2681.8574780293029
 20
1605.5811886153831
 30
0.0
 11
2681.6472091774231
 21
1605.5811886153831
 31
0.0
  0
LINE
  5
81F8
  8
0
 10
2681.6912189371192
 20
1606.247787819588
 30
0.0
 11
2681.8623680026021
 21
1606.1987731722199
 31
0.0
  0
POLYLINE
  5
8693
  8
0
 66
     1
 10
0.0
 20
0.0
 30
0.0
 70
     8
  0
VERTEX
  5
8694
  8
0
 10
2681.8600000000001
 20
1605.579999999999
 30
0.0
 70
    32
  0
VERTEX
  5
8695
  8
0
 10
2681.8600000000001
 20
1605.5899999999999
 30
0.0
 70
    32
  0
VERTEX
  5
8696
  8
0
 10
2681.8699999999999
 20
1605.5899999999999
 30
0.0
 70
    32
  0
VERTEX
  5
8697
  8
0
 10
2681.8699999999999
 20
1605.5999999999999
 30
0.0
 70
    32
  0
VERTEX
  5
8698
  8
0
 10
2681.8800000000001
 20
1605.5999999999999
 30
0.0
 70
    32
  0
VERTEX
  5
8699
  8
0
 10
2681.8800000000001
 20
1605.6099999999999
 30
0.0
 70
    32
  0
VERTEX
  5
869A
  8
0
 10
2681.8899999999999
 20
1605.6099999999999
 30
0.0
 70
    32
  0
VERTEX
  5
869B
  8
0
 10
2681.8899999999999
 20
1605.6199999999999
 30
0.0
 70
    32
  0
VERTEX
  5
869C
  8
0
 10
2681.900000000001
 20
1605.6199999999999
 30
0.0
 70
    32
  0
VERTEX
  5
869D
  8
0
 10
2681.900000000001
 20
1605.6300000000001
 30
0.0
 70
    32
  0
VERTEX
  5
869E
  8
0
 10
2681.900000000001
 20
1605.6400000000001
 30
0.0
 70
    32
  0
VERTEX
  5
869F
  8
0
 10
2681.9099999999999
 20
1605.6400000000001
 30
0.0
 70
    32
  0
VERTEX
  5
86A0
  8
0
 10
2681.9099999999999
 20
1605.6500000000001
 30
0.0
 70
    32
  0
VERTEX
  5
86A1
  8
0
 10
2681.9200000000001
 20
1605.6500000000001
 30
0.0
 70
    32
  0
VERTEX
  5
86A2
  8
0
 10
2681.9200000000001
 20
1605.6600000000001
 30
0.0
 70
    32
  0
VERTEX
  5
86A3
  8
0
 10
2681.9200000000001
 20
1605.6600000000001
 30
0.0
 70
    32
  0
VERTEX
  5
86A4
  8
0
 10
2681.9299999999998
 20
1605.6700000000001
 30
0.0
 70
    32
  0
VERTEX
  5
86A5
  8
0
 10
2681.9299999999998
 20
1605.6700000000001
 30
0.0
 70
    32
  0
VERTEX
  5
86A6
  8
0
 10
2681.9400000000001
 20
1605.6800000000001
 30
0.0
 70
    32
  0
VERTEX
  5
86A7
  8
0
 10
2681.9400000000001
 20
1605.6800000000001
 30
0.0
 70
    32
  0
VERTEX
  5
86A8
  8
0
 10
2681.9400000000001
 20
1605.6900000000001
 30
0.0
 70
    32
  0
VERTEX
  5
86A9
  8
0
 10
2681.9499999999998
 20
1605.6900000000001
 30
0.0
 70
    32
  0
VERTEX
  5
86AA
  8
0
 10
2681.9499999999998
 20
1605.7
 30
0.0
 70
    32
  0
VERTEX
  5
86AB
  8
0
 10
2681.9499999999998
 20
1605.7
 30
0.0
 70
    32
  0
VERTEX
  5
86AC
  8
0
 10
2681.96
 20
1605.71
 30
0.0
 70
    32
  0
VERTEX
  5
86AD
  8
0
 10
2681.96
 20
1605.71
 30
0.0
 70
    32
  0
VERTEX
  5
86AE
  8
0
 10
2681.96
 20
1605.72
 30
0.0
 70
    32
  0
VERTEX
  5
86AF
  8
0
 10
2681.9699999999998
 20
1605.72
 30
0.0
 70
    32
  0
VERTEX
  5
86B0
  8
0
 10
2681.9699999999998
 20
1605.73
 30
0.0
 70
    32
  0
VERTEX
  5
86B1
  8
0
 10
2681.9699999999998
 20
1605.73
 30
0.0
 70
    32
  0
VERTEX
  5
86B2
  8
0
 10
2681.98
 20
1605.74
 30
0.0
 70
    32
  0
VERTEX
  5
86B3
  8
0
 10
2681.98
 20
1605.74
 30
0.0
 70
    32
  0
VERTEX
  5
86B4
  8
0
 10
2681.98
 20
1605.75
 30
0.0
 70
    32
  0
VERTEX
  5
86B5
  8
0
 10
2681.98
 20
1605.75
 30
0.0
 70
    32
  0
VERTEX
  5
86B6
  8
0
 10
2681.9899999999998
 20
1605.76
 30
0.0
 70
    32
  0
VERTEX
  5
86B7
  8
0
 10
2681.9899999999998
 20
1605.76
 30
0.0
 70
    32
  0
VERTEX
  5
86B8
  8
0
 10
2681.9899999999998
 20
1605.77
 30
0.0
 70
    32
  0
VERTEX
  5
86B9
  8
0
 10
2681.9899999999998
 20
1605.77
 30
0.0
 70
    32
  0
VERTEX
  5
86BA
  8
0
 10
2682.0
 20
1605.78
 30
0.0
 70
    32
  0
VERTEX
  5
86BB
  8
0
 10
2682.0
 20
1605.78
 30
0.0
 70
    32
  0
VERTEX
  5
86BC
  8
0
 10
2682.0
 20
1605.79
 30
0.0
 70
    32
  0
VERTEX
  5
86BD
  8
0
 10
2682.0
 20
1605.79
 30
0.0
 70
    32
  0
VERTEX
  5
86BE
  8
0
 10
2682.0100000000002
 20
1605.79
 30
0.0
 70
    32
  0
VERTEX
  5
86BF
  8
0
 10
2682.0100000000002
 20
1605.8
 30
0.0
 70
    32
  0
VERTEX
  5
86C0
  8
0
 10
2682.0100000000002
 20
1605.8
 30
0.0
 70
    32
  0
VERTEX
  5
86C1
  8
0
 10
2682.0100000000002
 20
1605.8099999999999
 30
0.0
 70
    32
  0
VERTEX
  5
86C2
  8
0
 10
2682.0100000000002
 20
1605.8099999999999
 30
0.0
 70
    32
  0
VERTEX
  5
86C3
  8
0
 10
2682.0100000000002
 20
1605.8199999999999
 30
0.0
 70
    32
  0
VERTEX
  5
86C4
  8
0
 10
2682.02
 20
1605.8199999999999
 30
0.0
 70
    32
  0
VERTEX
  5
86C5
  8
0
 10
2682.02
 20
1605.8299999999999
 30
0.0
 70
    32
  0
VERTEX
  5
86C6
  8
0
 10
2682.02
 20
1605.8299999999999
 30
0.0
 70
    32
  0
VERTEX
  5
86C7
  8
0
 10
2682.02
 20
1605.8399999999999
 30
0.0
 70
    32
  0
VERTEX
  5
86C8
  8
0
 10
2682.02
 20
1605.8399999999999
 30
0.0
 70
    32
  0
VERTEX
  5
86C9
  8
0
 10
2682.02
 20
1605.8499999999999
 30
0.0
 70
    32
  0
VERTEX
  5
86CA
  8
0
 10
2682.02
 20
1605.8499999999999
 30
0.0
 70
    32
  0
VERTEX
  5
86CB
  8
0
 10
2682.02
 20
1605.8599999999999
 30
0.0
 70
    32
  0
VERTEX
  5
86CC
  8
0
 10
2682.0300000000011
 20
1605.8599999999999
 30
0.0
 70
    32
  0
VERTEX
  5
86CD
  8
0
 10
2682.0300000000011
 20
1605.8599999999999
 30
0.0
 70
    32
  0
VERTEX
  5
86CE
  8
0
 10
2682.0300000000011
 20
1605.8699999999999
 30
0.0
 70
    32
  0
VERTEX
  5
86CF
  8
0
 10
2682.0300000000011
 20
1605.8699999999999
 30
0.0
 70
    32
  0
VERTEX
  5
86D0
  8
0
 10
2682.0300000000011
 20
1605.8800000000001
 30
0.0
 70
    32
  0
VERTEX
  5
86D1
  8
0
 10
2682.0300000000011
 20
1605.8800000000001
 30
0.0
 70
    32
  0
VERTEX
  5
86D2
  8
0
 10
2682.0300000000011
 20
1605.8900000000001
 30
0.0
 70
    32
  0
VERTEX
  5
86D3
  8
0
 10
2682.0300000000011
 20
1605.8900000000001
 30
0.0
 70
    32
  0
VERTEX
  5
86D4
  8
0
 10
2682.0300000000011
 20
1605.9000000000001
 30
0.0
 70
    32
  0
VERTEX
  5
86D5
  8
0
 10
2682.0300000000011
 20
1605.9000000000001
 30
0.0
 70
    32
  0
VERTEX
  5
86D6
  8
0
 10
2682.0300000000011
 20
1605.9100000000001
 30
0.0
 70
    32
  0
VERTEX
  5
86D7
  8
0
 10
2682.0300000000011
 20
1605.9100000000001
 30
0.0
 70
    32
  0
VERTEX
  5
86D8
  8
0
 10
2682.0300000000011
 20
1605.9200000000001
 30
0.0
 70
    32
  0
VERTEX
  5
86D9
  8
0
 10
2682.0300000000011
 20
1605.9200000000001
 30
0.0
 70
    32
  0
VERTEX
  5
86DA
  8
0
 10
2682.0300000000011
 20
1605.9300000000001
 30
0.0
 70
    32
  0
VERTEX
  5
86DB
  8
0
 10
2682.0300000000011
 20
1605.9300000000001
 30
0.0
 70
    32
  0
VERTEX
  5
86DC
  8
0
 10
2682.0300000000011
 20
1605.9300000000001
 30
0.0
 70
    32
  0
VERTEX
  5
86DD
  8
0
 10
2682.0300000000011
 20
1605.9400000000001
 30
0.0
 70
    32
  0
VERTEX
  5
86DE
  8
0
 10
2682.0300000000011
 20
1605.9400000000001
 30
0.0
 70
    32
  0
VERTEX
  5
86DF
  8
0
 10
2682.0300000000011
 20
1605.95
 30
0.0
 70
    32
  0
VERTEX
  5
86E0
  8
0
 10
2682.0300000000011
 20
1605.95
 30
0.0
 70
    32
  0
VERTEX
  5
86E1
  8
0
 10
2682.0300000000011
 20
1605.96
 30
0.0
 70
    32
  0
VERTEX
  5
86E2
  8
0
 10
2682.02
 20
1605.96
 30
0.0
 70
    32
  0
VERTEX
  5
86E3
  8
0
 10
2682.02
 20
1605.97
 30
0.0
 70
    32
  0
VERTEX
  5
86E4
  8
0
 10
2682.02
 20
1605.97
 30
0.0
 70
    32
  0
VERTEX
  5
86E5
  8
0
 10
2682.02
 20
1605.98
 30
0.0
 70
    32
  0
VERTEX
  5
86E6
  8
0
 10
2682.02
 20
1605.98
 30
0.0
 70
    32
  0
VERTEX
  5
86E7
  8
0
 10
2682.02
 20
1605.99
 30
0.0
 70
    32
  0
VERTEX
  5
86E8
  8
0
 10
2682.02
 20
1605.99
 30
0.0
 70
    32
  0
VERTEX
  5
86E9
  8
0
 10
2682.0100000000002
 20
1606.0
 30
0.0
 70
    32
  0
VERTEX
  5
86EA
  8
0
 10
2682.0100000000002
 20
1606.0
 30
0.0
 70
    32
  0
VERTEX
  5
86EB
  8
0
 10
2682.0100000000002
 20
1606.0
 30
0.0
 70
    32
  0
VERTEX
  5
86EC
  8
0
 10
2682.0100000000002
 20
1606.01
 30
0.0
 70
    32
  0
VERTEX
  5
86ED
  8
0
 10
2682.0100000000002
 20
1606.01
 30
0.0
 70
    32
  0
VERTEX
  5
86EE
  8
0
 10
2682.0
 20
1606.02
 30
0.0
 70
    32
  0
VERTEX
  5
86EF
  8
0
 10
2682.0
 20
1606.02
 30
0.0
 70
    32
  0
VERTEX
  5
86F0
  8
0
 10
2682.0
 20
1606.03
 30
0.0
 70
    32
  0
VERTEX
  5
86F1
  8
0
 10
2682.0
 20
1606.03
 30
0.0
 70
    32
  0
VERTEX
  5
86F2
  8
0
 10
2682.0
 20
1606.04
 30
0.0
 70
    32
  0
VERTEX
  5
86F3
  8
0
 10
2681.9899999999998
 20
1606.04
 30
0.0
 70
    32
  0
VERTEX
  5
86F4
  8
0
 10
2681.9899999999998
 20
1606.05
 30
0.0
 70
    32
  0
VERTEX
  5
86F5
  8
0
 10
2681.9899999999998
 20
1606.05
 30
0.0
 70
    32
  0
VERTEX
  5
86F6
  8
0
 10
2681.98
 20
1606.0599999999999
 30
0.0
 70
    32
  0
VERTEX
  5
86F7
  8
0
 10
2681.98
 20
1606.0599999999999
 30
0.0
 70
    32
  0
VERTEX
  5
86F8
  8
0
 10
2681.98
 20
1606.0699999999999
 30
0.0
 70
    32
  0
VERTEX
  5
86F9
  8
0
 10
2681.98
 20
1606.0699999999999
 30
0.0
 70
    32
  0
VERTEX
  5
86FA
  8
0
 10
2681.9699999999998
 20
1606.0799999999999
 30
0.0
 70
    32
  0
VERTEX
  5
86FB
  8
0
 10
2681.9699999999998
 20
1606.0799999999999
 30
0.0
 70
    32
  0
VERTEX
  5
86FC
  8
0
 10
2681.9699999999998
 20
1606.0899999999999
 30
0.0
 70
    32
  0
VERTEX
  5
86FD
  8
0
 10
2681.96
 20
1606.0899999999999
 30
0.0
 70
    32
  0
VERTEX
  5
86FE
  8
0
 10
2681.96
 20
1606.0999999999999
 30
0.0
 70
    32
  0
VERTEX
  5
86FF
  8
0
 10
2681.9499999999998
 20
1606.0999999999999
 30
0.0
 70
    32
  0
VERTEX
  5
8700
  8
0
 10
2681.9499999999998
 20
1606.1099999999999
 30
0.0
 70
    32
  0
VERTEX
  5
8701
  8
0
 10
2681.9499999999998
 20
1606.1099999999999
 30
0.0
 70
    32
  0
VERTEX
  5
8702
  8
0
 10
2681.9400000000001
 20
1606.1199999999999
 30
0.0
 70
    32
  0
VERTEX
  5
8703
  8
0
 10
2681.9400000000001
 20
1606.1199999999999
 30
0.0
 70
    32
  0
VERTEX
  5
8704
  8
0
 10
2681.9299999999998
 20
1606.1300000000001
 30
0.0
 70
    32
  0
VERTEX
  5
8705
  8
0
 10
2681.9299999999998
 20
1606.1300000000001
 30
0.0
 70
    32
  0
VERTEX
  5
8706
  8
0
 10
2681.9299999999998
 20
1606.1400000000001
 30
0.0
 70
    32
  0
VERTEX
  5
8707
  8
0
 10
2681.9200000000001
 20
1606.1400000000001
 30
0.0
 70
    32
  0
VERTEX
  5
8708
  8
0
 10
2681.9200000000001
 20
1606.1500000000001
 30
0.0
 70
    32
  0
VERTEX
  5
8709
  8
0
 10
2681.9099999999999
 20
1606.1500000000001
 30
0.0
 70
    32
  0
VERTEX
  5
870A
  8
0
 10
2681.9099999999999
 20
1606.1600000000001
 30
0.0
 70
    32
  0
VERTEX
  5
870B
  8
0
 10
2681.900000000001
 20
1606.1700000000001
 30
0.0
 70
    32
  0
VERTEX
  5
870C
  8
0
 10
2681.900000000001
 20
1606.1700000000001
 30
0.0
 70
    32
  0
VERTEX
  5
870D
  8
0
 10
2681.8899999999999
 20
1606.1800000000001
 30
0.0
 70
    32
  0
VERTEX
  5
870E
  8
0
 10
2681.8899999999999
 20
1606.1800000000001
 30
0.0
 70
    32
  0
VERTEX
  5
870F
  8
0
 10
2681.8800000000001
 20
1606.1900000000001
 30
0.0
 70
    32
  0
VERTEX
  5
8710
  8
0
 10
2681.8699999999999
 20
1606.1900000000001
 30
0.0
 70
    32
  0
VERTEX
  5
8711
  8
0
 10
2681.8699999999999
 20
1606.2
 30
0.0
 70
    32
  0
VERTEX
  5
8712
  8
0
 10
2681.8600000000001
 20
1606.2
 30
0.0
 70
    32
  0
VERTEX
  5
8713
  8
0
 10
2681.8600000000001
 20
1606.21
 30
0.0
 70
    32
  0
SEQEND
  5
8714
  8
0
  0
LINE
  5
81FA
  8
0
 10
2682.1899962136731
 20
1606.5320727743231
 30
0.0
 11
2682.1899962136731
 21
1606.7379342932691
 31
0.0
  0
LINE
  5
81FB
  8
0
 10
2682.796352902817
 20
1606.6987225753739
 30
0.0
 11
2682.796352902817
 21
1606.473255197481
 31
0.0
  0
POLYLINE
  5
8715
  8
0
 66
     1
 10
0.0
 20
0.0
 30
0.0
 70
     8
  0
VERTEX
  5
8716
  8
0
 10
2682.1900000000001
 20
1606.53
 30
0.0
 70
    32
  0
VERTEX
  5
8717
  8
0
 10
2682.1900000000001
 20
1606.53
 30
0.0
 70
    32
  0
VERTEX
  5
8718
  8
0
 10
2682.1999999999998
 20
1606.52
 30
0.0
 70
    32
  0
VERTEX
  5
8719
  8
0
 10
2682.1999999999998
 20
1606.52
 30
0.0
 70
    32
  0
VERTEX
  5
871A
  8
0
 10
2682.21
 20
1606.51
 30
0.0
 70
    32
  0
VERTEX
  5
871B
  8
0
 10
2682.21
 20
1606.51
 30
0.0
 70
    32
  0
VERTEX
  5
871C
  8
0
 10
2682.21
 20
1606.5
 30
0.0
 70
    32
  0
VERTEX
  5
871D
  8
0
 10
2682.2199999999998
 20
1606.5
 30
0.0
 70
    32
  0
VERTEX
  5
871E
  8
0
 10
2682.2199999999998
 20
1606.49
 30
0.0
 70
    32
  0
VERTEX
  5
871F
  8
0
 10
2682.2300000000009
 20
1606.49
 30
0.0
 70
    32
  0
VERTEX
  5
8720
  8
0
 10
2682.2300000000009
 20
1606.48
 30
0.0
 70
    32
  0
VERTEX
  5
8721
  8
0
 10
2682.2399999999998
 20
1606.48
 30
0.0
 70
    32
  0
VERTEX
  5
8722
  8
0
 10
2682.2399999999998
 20
1606.47
 30
0.0
 70
    32
  0
VERTEX
  5
8723
  8
0
 10
2682.2399999999998
 20
1606.47
 30
0.0
 70
    32
  0
VERTEX
  5
8724
  8
0
 10
2682.25
 20
1606.47
 30
0.0
 70
    32
  0
VERTEX
  5
8725
  8
0
 10
2682.25
 20
1606.46
 30
0.0
 70
    32
  0
VERTEX
  5
8726
  8
0
 10
2682.2600000000002
 20
1606.46
 30
0.0
 70
    32
  0
VERTEX
  5
8727
  8
0
 10
2682.2600000000002
 20
1606.45
 30
0.0
 70
    32
  0
VERTEX
  5
8728
  8
0
 10
2682.27
 20
1606.45
 30
0.0
 70
    32
  0
VERTEX
  5
8729
  8
0
 10
2682.27
 20
1606.45
 30
0.0
 70
    32
  0
VERTEX
  5
872A
  8
0
 10
2682.2800000000002
 20
1606.4400000000001
 30
0.0
 70
    32
  0
VERTEX
  5
872B
  8
0
 10
2682.2800000000002
 20
1606.4400000000001
 30
0.0
 70
    32
  0
VERTEX
  5
872C
  8
0
 10
2682.2800000000002
 20
1606.4400000000001
 30
0.0
 70
    32
  0
VERTEX
  5
872D
  8
0
 10
2682.29
 20
1606.4300000000001
 30
0.0
 70
    32
  0
VERTEX
  5
872E
  8
0
 10
2682.29
 20
1606.4300000000001
 30
0.0
 70
    32
  0
VERTEX
  5
872F
  8
0
 10
2682.3000000000011
 20
1606.4300000000001
 30
0.0
 70
    32
  0
VERTEX
  5
8730
  8
0
 10
2682.3000000000011
 20
1606.4200000000001
 30
0.0
 70
    32
  0
VERTEX
  5
8731
  8
0
 10
2682.3099999999999
 20
1606.4200000000001
 30
0.0
 70
    32
  0
VERTEX
  5
8732
  8
0
 10
2682.3099999999999
 20
1606.4200000000001
 30
0.0
 70
    32
  0
VERTEX
  5
8733
  8
0
 10
2682.3200000000011
 20
1606.4100000000001
 30
0.0
 70
    32
  0
VERTEX
  5
8734
  8
0
 10
2682.3200000000011
 20
1606.4100000000001
 30
0.0
 70
    32
  0
VERTEX
  5
8735
  8
0
 10
2682.3299999999999
 20
1606.4100000000001
 30
0.0
 70
    32
  0
VERTEX
  5
8736
  8
0
 10
2682.3299999999999
 20
1606.4100000000001
 30
0.0
 70
    32
  0
VERTEX
  5
8737
  8
0
 10
2682.3400000000001
 20
1606.4000000000001
 30
0.0
 70
    32
  0
VERTEX
  5
8738
  8
0
 10
2682.3400000000001
 20
1606.4000000000001
 30
0.0
 70
    32
  0
VERTEX
  5
8739
  8
0
 10
2682.3400000000001
 20
1606.4000000000001
 30
0.0
 70
    32
  0
VERTEX
  5
873A
  8
0
 10
2682.3499999999999
 20
1606.4000000000001
 30
0.0
 70
    32
  0
VERTEX
  5
873B
  8
0
 10
2682.3499999999999
 20
1606.3900000000001
 30
0.0
 70
    32
  0
VERTEX
  5
873C
  8
0
 10
2682.3600000000001
 20
1606.3900000000001
 30
0.0
 70
    32
  0
VERTEX
  5
873D
  8
0
 10
2682.3600000000001
 20
1606.3900000000001
 30
0.0
 70
    32
  0
VERTEX
  5
873E
  8
0
 10
2682.3699999999999
 20
1606.3900000000001
 30
0.0
 70
    32
  0
VERTEX
  5
873F
  8
0
 10
2682.3699999999999
 20
1606.3800000000001
 30
0.0
 70
    32
  0
VERTEX
  5
8740
  8
0
 10
2682.3800000000001
 20
1606.3800000000001
 30
0.0
 70
    32
  0
VERTEX
  5
8741
  8
0
 10
2682.3800000000001
 20
1606.3800000000001
 30
0.0
 70
    32
  0
VERTEX
  5
8742
  8
0
 10
2682.3899999999999
 20
1606.3800000000001
 30
0.0
 70
    32
  0
VERTEX
  5
8743
  8
0
 10
2682.3899999999999
 20
1606.3800000000001
 30
0.0
 70
    32
  0
VERTEX
  5
8744
  8
0
 10
2682.4000000000001
 20
1606.3800000000001
 30
0.0
 70
    32
  0
VERTEX
  5
8745
  8
0
 10
2682.4000000000001
 20
1606.3699999999999
 30
0.0
 70
    32
  0
VERTEX
  5
8746
  8
0
 10
2682.4099999999999
 20
1606.3699999999999
 30
0.0
 70
    32
  0
VERTEX
  5
8747
  8
0
 10
2682.4099999999999
 20
1606.3699999999999
 30
0.0
 70
    32
  0
VERTEX
  5
8748
  8
0
 10
2682.4200000000001
 20
1606.3699999999999
 30
0.0
 70
    32
  0
VERTEX
  5
8749
  8
0
 10
2682.4200000000001
 20
1606.3699999999999
 30
0.0
 70
    32
  0
VERTEX
  5
874A
  8
0
 10
2682.4299999999998
 20
1606.3699999999999
 30
0.0
 70
    32
  0
VERTEX
  5
874B
  8
0
 10
2682.4299999999998
 20
1606.3699999999999
 30
0.0
 70
    32
  0
VERTEX
  5
874C
  8
0
 10
2682.4400000000001
 20
1606.3699999999999
 30
0.0
 70
    32
  0
VERTEX
  5
874D
  8
0
 10
2682.4400000000001
 20
1606.3599999999999
 30
0.0
 70
    32
  0
VERTEX
  5
874E
  8
0
 10
2682.4499999999998
 20
1606.3599999999999
 30
0.0
 70
    32
  0
VERTEX
  5
874F
  8
0
 10
2682.4499999999998
 20
1606.3599999999999
 30
0.0
 70
    32
  0
VERTEX
  5
8750
  8
0
 10
2682.46
 20
1606.3599999999999
 30
0.0
 70
    32
  0
VERTEX
  5
8751
  8
0
 10
2682.46
 20
1606.3599999999999
 30
0.0
 70
    32
  0
VERTEX
  5
8752
  8
0
 10
2682.4699999999998
 20
1606.3599999999999
 30
0.0
 70
    32
  0
VERTEX
  5
8753
  8
0
 10
2682.4699999999998
 20
1606.3599999999999
 30
0.0
 70
    32
  0
VERTEX
  5
8754
  8
0
 10
2682.48
 20
1606.3599999999999
 30
0.0
 70
    32
  0
VERTEX
  5
8755
  8
0
 10
2682.48
 20
1606.3599999999999
 30
0.0
 70
    32
  0
VERTEX
  5
8756
  8
0
 10
2682.4899999999998
 20
1606.3599999999999
 30
0.0
 70
    32
  0
VERTEX
  5
8757
  8
0
 10
2682.4899999999998
 20
1606.3599999999999
 30
0.0
 70
    32
  0
VERTEX
  5
8758
  8
0
 10
2682.5
 20
1606.3599999999999
 30
0.0
 70
    32
  0
VERTEX
  5
8759
  8
0
 10
2682.5
 20
1606.3599999999999
 30
0.0
 70
    32
  0
VERTEX
  5
875A
  8
0
 10
2682.5100000000011
 20
1606.3599999999999
 30
0.0
 70
    32
  0
VERTEX
  5
875B
  8
0
 10
2682.5100000000011
 20
1606.3599999999999
 30
0.0
 70
    32
  0
VERTEX
  5
875C
  8
0
 10
2682.52
 20
1606.3599999999999
 30
0.0
 70
    32
  0
VERTEX
  5
875D
  8
0
 10
2682.52
 20
1606.3599999999999
 30
0.0
 70
    32
  0
VERTEX
  5
875E
  8
0
 10
2682.5300000000002
 20
1606.3599999999999
 30
0.0
 70
    32
  0
VERTEX
  5
875F
  8
0
 10
2682.5300000000002
 20
1606.3599999999999
 30
0.0
 70
    32
  0
VERTEX
  5
8760
  8
0
 10
2682.54
 20
1606.3599999999999
 30
0.0
 70
    32
  0
VERTEX
  5
8761
  8
0
 10
2682.54
 20
1606.3599999999999
 30
0.0
 70
    32
  0
VERTEX
  5
8762
  8
0
 10
2682.5500000000002
 20
1606.3599999999999
 30
0.0
 70
    32
  0
VERTEX
  5
8763
  8
0
 10
2682.5500000000002
 20
1606.3599999999999
 30
0.0
 70
    32
  0
VERTEX
  5
8764
  8
0
 10
2682.5599999999999
 20
1606.3599999999999
 30
0.0
 70
    32
  0
VERTEX
  5
8765
  8
0
 10
2682.5599999999999
 20
1606.3599999999999
 30
0.0
 70
    32
  0
VERTEX
  5
8766
  8
0
 10
2682.5700000000002
 20
1606.3599999999999
 30
0.0
 70
    32
  0
VERTEX
  5
8767
  8
0
 10
2682.5700000000002
 20
1606.3599999999999
 30
0.0
 70
    32
  0
VERTEX
  5
8768
  8
0
 10
2682.5799999999999
 20
1606.3699999999999
 30
0.0
 70
    32
  0
VERTEX
  5
8769
  8
0
 10
2682.5799999999999
 20
1606.3699999999999
 30
0.0
 70
    32
  0
VERTEX
  5
876A
  8
0
 10
2682.5900000000001
 20
1606.3699999999999
 30
0.0
 70
    32
  0
VERTEX
  5
876B
  8
0
 10
2682.5900000000001
 20
1606.3699999999999
 30
0.0
 70
    32
  0
VERTEX
  5
876C
  8
0
 10
2682.5999999999999
 20
1606.3699999999999
 30
0.0
 70
    32
  0
VERTEX
  5
876D
  8
0
 10
2682.5999999999999
 20
1606.3699999999999
 30
0.0
 70
    32
  0
VERTEX
  5
876E
  8
0
 10
2682.6100000000001
 20
1606.3699999999999
 30
0.0
 70
    32
  0
VERTEX
  5
876F
  8
0
 10
2682.6100000000001
 20
1606.3699999999999
 30
0.0
 70
    32
  0
VERTEX
  5
8770
  8
0
 10
2682.6199999999999
 20
1606.3800000000001
 30
0.0
 70
    32
  0
VERTEX
  5
8771
  8
0
 10
2682.6199999999999
 20
1606.3800000000001
 30
0.0
 70
    32
  0
VERTEX
  5
8772
  8
0
 10
2682.6300000000001
 20
1606.3800000000001
 30
0.0
 70
    32
  0
VERTEX
  5
8773
  8
0
 10
2682.6300000000001
 20
1606.3800000000001
 30
0.0
 70
    32
  0
VERTEX
  5
8774
  8
0
 10
2682.6399999999999
 20
1606.3800000000001
 30
0.0
 70
    32
  0
VERTEX
  5
8775
  8
0
 10
2682.6399999999999
 20
1606.3800000000001
 30
0.0
 70
    32
  0
VERTEX
  5
8776
  8
0
 10
2682.650000000001
 20
1606.3900000000001
 30
0.0
 70
    32
  0
VERTEX
  5
8777
  8
0
 10
2682.650000000001
 20
1606.3900000000001
 30
0.0
 70
    32
  0
VERTEX
  5
8778
  8
0
 10
2682.6599999999999
 20
1606.3900000000001
 30
0.0
 70
    32
  0
VERTEX
  5
8779
  8
0
 10
2682.6599999999999
 20
1606.3900000000001
 30
0.0
 70
    32
  0
VERTEX
  5
877A
  8
0
 10
2682.6700000000001
 20
1606.3900000000001
 30
0.0
 70
    32
  0
VERTEX
  5
877B
  8
0
 10
2682.6700000000001
 20
1606.4000000000001
 30
0.0
 70
    32
  0
VERTEX
  5
877C
  8
0
 10
2682.6799999999998
 20
1606.4000000000001
 30
0.0
 70
    32
  0
VERTEX
  5
877D
  8
0
 10
2682.6799999999998
 20
1606.4000000000001
 30
0.0
 70
    32
  0
VERTEX
  5
877E
  8
0
 10
2682.6900000000001
 20
1606.4000000000001
 30
0.0
 70
    32
  0
VERTEX
  5
877F
  8
0
 10
2682.6900000000001
 20
1606.4100000000001
 30
0.0
 70
    32
  0
VERTEX
  5
8780
  8
0
 10
2682.6999999999998
 20
1606.4100000000001
 30
0.0
 70
    32
  0
VERTEX
  5
8781
  8
0
 10
2682.6999999999998
 20
1606.4100000000001
 30
0.0
 70
    32
  0
VERTEX
  5
8782
  8
0
 10
2682.71
 20
1606.4100000000001
 30
0.0
 70
    32
  0
VERTEX
  5
8783
  8
0
 10
2682.71
 20
1606.4200000000001
 30
0.0
 70
    32
  0
VERTEX
  5
8784
  8
0
 10
2682.7199999999998
 20
1606.4200000000001
 30
0.0
 70
    32
  0
VERTEX
  5
8785
  8
0
 10
2682.7199999999998
 20
1606.4200000000001
 30
0.0
 70
    32
  0
VERTEX
  5
8786
  8
0
 10
2682.73
 20
1606.4200000000001
 30
0.0
 70
    32
  0
VERTEX
  5
8787
  8
0
 10
2682.73
 20
1606.4300000000001
 30
0.0
 70
    32
  0
VERTEX
  5
8788
  8
0
 10
2682.7399999999998
 20
1606.4300000000001
 30
0.0
 70
    32
  0
VERTEX
  5
8789
  8
0
 10
2682.7399999999998
 20
1606.4300000000001
 30
0.0
 70
    32
  0
VERTEX
  5
878A
  8
0
 10
2682.75
 20
1606.4400000000001
 30
0.0
 70
    32
  0
VERTEX
  5
878B
  8
0
 10
2682.75
 20
1606.4400000000001
 30
0.0
 70
    32
  0
VERTEX
  5
878C
  8
0
 10
2682.7600000000002
 20
1606.4400000000001
 30
0.0
 70
    32
  0
VERTEX
  5
878D
  8
0
 10
2682.7600000000002
 20
1606.45
 30
0.0
 70
    32
  0
VERTEX
  5
878E
  8
0
 10
2682.77
 20
1606.45
 30
0.0
 70
    32
  0
VERTEX
  5
878F
  8
0
 10
2682.77
 20
1606.45
 30
0.0
 70
    32
  0
VERTEX
  5
8790
  8
0
 10
2682.7800000000011
 20
1606.46
 30
0.0
 70
    32
  0
VERTEX
  5
8791
  8
0
 10
2682.7800000000011
 20
1606.46
 30
0.0
 70
    32
  0
VERTEX
  5
8792
  8
0
 10
2682.79
 20
1606.46
 30
0.0
 70
    32
  0
VERTEX
  5
8793
  8
0
 10
2682.79
 20
1606.47
 30
0.0
 70
    32
  0
VERTEX
  5
8794
  8
0
 10
2682.8000000000002
 20
1606.47
 30
0.0
 70
    32
  0
VERTEX
  5
8795
  8
0
 10
2682.8000000000002
 20
1606.47
 30
0.0
 70
    32
  0
SEQEND
  5
8796
  8
0
  0
LINE
  5
81FD
  8
0
 10
2683.079971354191
 20
1606.1987731722199
 30
0.0
 11
2683.3000201526711
 21
1606.1987731722199
 31
0.0
  0
LINE
  5
81FE
  8
0
 10
2683.3049101259721
 20
1605.5811886153831
 30
0.0
 11
2683.084861327492
 21
1605.5811886153831
 31
0.0
  0
POLYLINE
  5
8797
  8
0
 66
     1
 10
0.0
 20
0.0
 30
0.0
 70
     8
  0
VERTEX
  5
8798
  8
0
 10
2683.0799999999999
 20
1606.2
 30
0.0
 70
    32
  0
VERTEX
  5
8799
  8
0
 10
2683.0799999999999
 20
1606.1900000000001
 30
0.0
 70
    32
  0
VERTEX
  5
879A
  8
0
 10
2683.0700000000011
 20
1606.1900000000001
 30
0.0
 70
    32
  0
VERTEX
  5
879B
  8
0
 10
2683.0700000000011
 20
1606.1900000000001
 30
0.0
 70
    32
  0
VERTEX
  5
879C
  8
0
 10
2683.0700000000011
 20
1606.1800000000001
 30
0.0
 70
    32
  0
VERTEX
  5
879D
  8
0
 10
2683.0599999999999
 20
1606.1800000000001
 30
0.0
 70
    32
  0
VERTEX
  5
879E
  8
0
 10
2683.0599999999999
 20
1606.1700000000001
 30
0.0
 70
    32
  0
VERTEX
  5
879F
  8
0
 10
2683.0599999999999
 20
1606.1700000000001
 30
0.0
 70
    32
  0
VERTEX
  5
87A0
  8
0
 10
2683.0500000000002
 20
1606.1600000000001
 30
0.0
 70
    32
  0
VERTEX
  5
87A1
  8
0
 10
2683.0500000000002
 20
1606.1600000000001
 30
0.0
 70
    32
  0
VERTEX
  5
87A2
  8
0
 10
2683.0500000000002
 20
1606.1500000000001
 30
0.0
 70
    32
  0
VERTEX
  5
87A3
  8
0
 10
2683.04
 20
1606.1500000000001
 30
0.0
 70
    32
  0
VERTEX
  5
87A4
  8
0
 10
2683.04
 20
1606.1400000000001
 30
0.0
 70
    32
  0
VERTEX
  5
87A5
  8
0
 10
2683.04
 20
1606.1400000000001
 30
0.0
 70
    32
  0
VERTEX
  5
87A6
  8
0
 10
2683.04
 20
1606.1400000000001
 30
0.0
 70
    32
  0
VERTEX
  5
87A7
  8
0
 10
2683.0300000000002
 20
1606.1300000000001
 30
0.0
 70
    32
  0
VERTEX
  5
87A8
  8
0
 10
2683.0300000000002
 20
1606.1300000000001
 30
0.0
 70
    32
  0
VERTEX
  5
87A9
  8
0
 10
2683.0300000000002
 20
1606.1199999999999
 30
0.0
 70
    32
  0
VERTEX
  5
87AA
  8
0
 10
2683.02
 20
1606.1199999999999
 30
0.0
 70
    32
  0
VERTEX
  5
87AB
  8
0
 10
2683.02
 20
1606.1099999999999
 30
0.0
 70
    32
  0
VERTEX
  5
87AC
  8
0
 10
2683.02
 20
1606.1099999999999
 30
0.0
 70
    32
  0
VERTEX
  5
87AD
  8
0
 10
2683.02
 20
1606.0999999999999
 30
0.0
 70
    32
  0
VERTEX
  5
87AE
  8
0
 10
2683.0100000000002
 20
1606.0999999999999
 30
0.0
 70
    32
  0
VERTEX
  5
87AF
  8
0
 10
2683.0100000000002
 20
1606.0899999999999
 30
0.0
 70
    32
  0
VERTEX
  5
87B0
  8
0
 10
2683.0100000000002
 20
1606.0899999999999
 30
0.0
 70
    32
  0
VERTEX
  5
87B1
  8
0
 10
2683.0100000000002
 20
1606.0799999999999
 30
0.0
 70
    32
  0
VERTEX
  5
87B2
  8
0
 10
2683.0100000000002
 20
1606.0799999999999
 30
0.0
 70
    32
  0
VERTEX
  5
87B3
  8
0
 10
2683.0
 20
1606.0699999999999
 30
0.0
 70
    32
  0
VERTEX
  5
87B4
  8
0
 10
2683.0
 20
1606.0699999999999
 30
0.0
 70
    32
  0
VERTEX
  5
87B5
  8
0
 10
2683.0
 20
1606.0599999999999
 30
0.0
 70
    32
  0
VERTEX
  5
87B6
  8
0
 10
2683.0
 20
1606.0599999999999
 30
0.0
 70
    32
  0
VERTEX
  5
87B7
  8
0
 10
2683.0
 20
1606.05
 30
0.0
 70
    32
  0
VERTEX
  5
87B8
  8
0
 10
2682.9899999999998
 20
1606.05
 30
0.0
 70
    32
  0
VERTEX
  5
87B9
  8
0
 10
2682.9899999999998
 20
1606.04
 30
0.0
 70
    32
  0
VERTEX
  5
87BA
  8
0
 10
2682.9899999999998
 20
1606.04
 30
0.0
 70
    32
  0
VERTEX
  5
87BB
  8
0
 10
2682.9899999999998
 20
1606.03
 30
0.0
 70
    32
  0
VERTEX
  5
87BC
  8
0
 10
2682.9899999999998
 20
1606.03
 30
0.0
 70
    32
  0
VERTEX
  5
87BD
  8
0
 10
2682.9899999999998
 20
1606.02
 30
0.0
 70
    32
  0
VERTEX
  5
87BE
  8
0
 10
2682.9800000000009
 20
1606.02
 30
0.0
 70
    32
  0
VERTEX
  5
87BF
  8
0
 10
2682.9800000000009
 20
1606.01
 30
0.0
 70
    32
  0
VERTEX
  5
87C0
  8
0
 10
2682.9800000000009
 20
1606.01
 30
0.0
 70
    32
  0
VERTEX
  5
87C1
  8
0
 10
2682.9800000000009
 20
1606.0
 30
0.0
 70
    32
  0
VERTEX
  5
87C2
  8
0
 10
2682.9800000000009
 20
1606.0
 30
0.0
 70
    32
  0
VERTEX
  5
87C3
  8
0
 10
2682.9800000000009
 20
1605.99
 30
0.0
 70
    32
  0
VERTEX
  5
87C4
  8
0
 10
2682.9800000000009
 20
1605.99
 30
0.0
 70
    32
  0
VERTEX
  5
87C5
  8
0
 10
2682.9800000000009
 20
1605.98
 30
0.0
 70
    32
  0
VERTEX
  5
87C6
  8
0
 10
2682.9699999999998
 20
1605.98
 30
0.0
 70
    32
  0
VERTEX
  5
87C7
  8
0
 10
2682.9699999999998
 20
1605.97
 30
0.0
 70
    32
  0
VERTEX
  5
87C8
  8
0
 10
2682.9699999999998
 20
1605.97
 30
0.0
 70
    32
  0
VERTEX
  5
87C9
  8
0
 10
2682.9699999999998
 20
1605.96
 30
0.0
 70
    32
  0
VERTEX
  5
87CA
  8
0
 10
2682.9699999999998
 20
1605.96
 30
0.0
 70
    32
  0
VERTEX
  5
87CB
  8
0
 10
2682.9699999999998
 20
1605.95
 30
0.0
 70
    32
  0
VERTEX
  5
87CC
  8
0
 10
2682.9699999999998
 20
1605.95
 30
0.0
 70
    32
  0
VERTEX
  5
87CD
  8
0
 10
2682.9699999999998
 20
1605.9400000000001
 30
0.0
 70
    32
  0
VERTEX
  5
87CE
  8
0
 10
2682.9699999999998
 20
1605.9400000000001
 30
0.0
 70
    32
  0
VERTEX
  5
87CF
  8
0
 10
2682.9699999999998
 20
1605.9300000000001
 30
0.0
 70
    32
  0
VERTEX
  5
87D0
  8
0
 10
2682.9699999999998
 20
1605.9300000000001
 30
0.0
 70
    32
  0
VERTEX
  5
87D1
  8
0
 10
2682.9699999999998
 20
1605.9200000000001
 30
0.0
 70
    32
  0
VERTEX
  5
87D2
  8
0
 10
2682.9699999999998
 20
1605.9200000000001
 30
0.0
 70
    32
  0
VERTEX
  5
87D3
  8
0
 10
2682.9699999999998
 20
1605.9100000000001
 30
0.0
 70
    32
  0
VERTEX
  5
87D4
  8
0
 10
2682.9699999999998
 20
1605.9100000000001
 30
0.0
 70
    32
  0
VERTEX
  5
87D5
  8
0
 10
2682.9699999999998
 20
1605.9000000000001
 30
0.0
 70
    32
  0
VERTEX
  5
87D6
  8
0
 10
2682.9699999999998
 20
1605.9000000000001
 30
0.0
 70
    32
  0
VERTEX
  5
87D7
  8
0
 10
2682.9699999999998
 20
1605.8900000000001
 30
0.0
 70
    32
  0
VERTEX
  5
87D8
  8
0
 10
2682.9699999999998
 20
1605.8900000000001
 30
0.0
 70
    32
  0
VERTEX
  5
87D9
  8
0
 10
2682.9699999999998
 20
1605.8800000000001
 30
0.0
 70
    32
  0
VERTEX
  5
87DA
  8
0
 10
2682.9699999999998
 20
1605.8800000000001
 30
0.0
 70
    32
  0
VERTEX
  5
87DB
  8
0
 10
2682.9699999999998
 20
1605.8699999999999
 30
0.0
 70
    32
  0
VERTEX
  5
87DC
  8
0
 10
2682.9699999999998
 20
1605.8699999999999
 30
0.0
 70
    32
  0
VERTEX
  5
87DD
  8
0
 10
2682.9699999999998
 20
1605.8599999999999
 30
0.0
 70
    32
  0
VERTEX
  5
87DE
  8
0
 10
2682.9699999999998
 20
1605.8599999999999
 30
0.0
 70
    32
  0
VERTEX
  5
87DF
  8
0
 10
2682.9699999999998
 20
1605.8499999999999
 30
0.0
 70
    32
  0
VERTEX
  5
87E0
  8
0
 10
2682.9699999999998
 20
1605.8399999999999
 30
0.0
 70
    32
  0
VERTEX
  5
87E1
  8
0
 10
2682.9699999999998
 20
1605.8399999999999
 30
0.0
 70
    32
  0
VERTEX
  5
87E2
  8
0
 10
2682.9699999999998
 20
1605.8299999999999
 30
0.0
 70
    32
  0
VERTEX
  5
87E3
  8
0
 10
2682.9699999999998
 20
1605.8299999999999
 30
0.0
 70
    32
  0
VERTEX
  5
87E4
  8
0
 10
2682.9699999999998
 20
1605.8199999999999
 30
0.0
 70
    32
  0
VERTEX
  5
87E5
  8
0
 10
2682.9699999999998
 20
1605.8199999999999
 30
0.0
 70
    32
  0
VERTEX
  5
87E6
  8
0
 10
2682.9699999999998
 20
1605.8099999999999
 30
0.0
 70
    32
  0
VERTEX
  5
87E7
  8
0
 10
2682.9699999999998
 20
1605.8099999999999
 30
0.0
 70
    32
  0
VERTEX
  5
87E8
  8
0
 10
2682.9699999999998
 20
1605.8
 30
0.0
 70
    32
  0
VERTEX
  5
87E9
  8
0
 10
2682.9699999999998
 20
1605.8
 30
0.0
 70
    32
  0
VERTEX
  5
87EA
  8
0
 10
2682.9800000000009
 20
1605.79
 30
0.0
 70
    32
  0
VERTEX
  5
87EB
  8
0
 10
2682.9800000000009
 20
1605.79
 30
0.0
 70
    32
  0
VERTEX
  5
87EC
  8
0
 10
2682.9800000000009
 20
1605.78
 30
0.0
 70
    32
  0
VERTEX
  5
87ED
  8
0
 10
2682.9800000000009
 20
1605.78
 30
0.0
 70
    32
  0
VERTEX
  5
87EE
  8
0
 10
2682.9800000000009
 20
1605.77
 30
0.0
 70
    32
  0
VERTEX
  5
87EF
  8
0
 10
2682.9800000000009
 20
1605.77
 30
0.0
 70
    32
  0
VERTEX
  5
87F0
  8
0
 10
2682.9800000000009
 20
1605.76
 30
0.0
 70
    32
  0
VERTEX
  5
87F1
  8
0
 10
2682.9800000000009
 20
1605.76
 30
0.0
 70
    32
  0
VERTEX
  5
87F2
  8
0
 10
2682.9899999999998
 20
1605.75
 30
0.0
 70
    32
  0
VERTEX
  5
87F3
  8
0
 10
2682.9899999999998
 20
1605.75
 30
0.0
 70
    32
  0
VERTEX
  5
87F4
  8
0
 10
2682.9899999999998
 20
1605.74
 30
0.0
 70
    32
  0
VERTEX
  5
87F5
  8
0
 10
2682.9899999999998
 20
1605.74
 30
0.0
 70
    32
  0
VERTEX
  5
87F6
  8
0
 10
2682.9899999999998
 20
1605.73
 30
0.0
 70
    32
  0
VERTEX
  5
87F7
  8
0
 10
2682.9899999999998
 20
1605.73
 30
0.0
 70
    32
  0
VERTEX
  5
87F8
  8
0
 10
2683.0
 20
1605.72
 30
0.0
 70
    32
  0
VERTEX
  5
87F9
  8
0
 10
2683.0
 20
1605.72
 30
0.0
 70
    32
  0
VERTEX
  5
87FA
  8
0
 10
2683.0
 20
1605.71
 30
0.0
 70
    32
  0
VERTEX
  5
87FB
  8
0
 10
2683.0
 20
1605.71
 30
0.0
 70
    32
  0
VERTEX
  5
87FC
  8
0
 10
2683.0
 20
1605.7
 30
0.0
 70
    32
  0
VERTEX
  5
87FD
  8
0
 10
2683.0100000000002
 20
1605.7
 30
0.0
 70
    32
  0
VERTEX
  5
87FE
  8
0
 10
2683.0100000000002
 20
1605.6900000000001
 30
0.0
 70
    32
  0
VERTEX
  5
87FF
  8
0
 10
2683.0100000000002
 20
1605.6900000000001
 30
0.0
 70
    32
  0
VERTEX
  5
8800
  8
0
 10
2683.0100000000002
 20
1605.6800000000001
 30
0.0
 70
    32
  0
VERTEX
  5
8801
  8
0
 10
2683.0100000000002
 20
1605.6800000000001
 30
0.0
 70
    32
  0
VERTEX
  5
8802
  8
0
 10
2683.02
 20
1605.6700000000001
 30
0.0
 70
    32
  0
VERTEX
  5
8803
  8
0
 10
2683.02
 20
1605.6700000000001
 30
0.0
 70
    32
  0
VERTEX
  5
8804
  8
0
 10
2683.02
 20
1605.6600000000001
 30
0.0
 70
    32
  0
VERTEX
  5
8805
  8
0
 10
2683.02
 20
1605.6600000000001
 30
0.0
 70
    32
  0
VERTEX
  5
8806
  8
0
 10
2683.0300000000002
 20
1605.6500000000001
 30
0.0
 70
    32
  0
VERTEX
  5
8807
  8
0
 10
2683.0300000000002
 20
1605.6500000000001
 30
0.0
 70
    32
  0
VERTEX
  5
8808
  8
0
 10
2683.0300000000002
 20
1605.6400000000001
 30
0.0
 70
    32
  0
VERTEX
  5
8809
  8
0
 10
2683.04
 20
1605.6400000000001
 30
0.0
 70
    32
  0
VERTEX
  5
880A
  8
0
 10
2683.04
 20
1605.6300000000001
 30
0.0
 70
    32
  0
VERTEX
  5
880B
  8
0
 10
2683.04
 20
1605.6300000000001
 30
0.0
 70
    32
  0
VERTEX
  5
880C
  8
0
 10
2683.04
 20
1605.6199999999999
 30
0.0
 70
    32
  0
VERTEX
  5
880D
  8
0
 10
2683.0500000000002
 20
1605.6199999999999
 30
0.0
 70
    32
  0
VERTEX
  5
880E
  8
0
 10
2683.0500000000002
 20
1605.6099999999999
 30
0.0
 70
    32
  0
VERTEX
  5
880F
  8
0
 10
2683.0500000000002
 20
1605.6099999999999
 30
0.0
 70
    32
  0
VERTEX
  5
8810
  8
0
 10
2683.0599999999999
 20
1605.5999999999999
 30
0.0
 70
    32
  0
VERTEX
  5
8811
  8
0
 10
2683.0599999999999
 20
1605.5999999999999
 30
0.0
 70
    32
  0
VERTEX
  5
8812
  8
0
 10
2683.0599999999999
 20
1605.5899999999999
 30
0.0
 70
    32
  0
VERTEX
  5
8813
  8
0
 10
2683.0700000000011
 20
1605.5899999999999
 30
0.0
 70
    32
  0
VERTEX
  5
8814
  8
0
 10
2683.0700000000011
 20
1605.5899999999999
 30
0.0
 70
    32
  0
VERTEX
  5
8815
  8
0
 10
2683.0700000000011
 20
1605.579999999999
 30
0.0
 70
    32
  0
VERTEX
  5
8816
  8
0
 10
2683.0799999999999
 20
1605.579999999999
 30
0.0
 70
    32
  0
VERTEX
  5
8817
  8
0
 10
2683.0799999999999
 20
1605.5699999999999
 30
0.0
 70
    32
  0
SEQEND
  5
8818
  8
0
  0
LINE
  5
8200
  8
0
 10
2682.796352902817
 20
1605.24788901328
 30
0.0
 11
2682.796352902817
 21
1605.0812392122291
 31
0.0
  0
LINE
  5
8201
  8
0
 10
2682.131316534078
 20
1605.0812392122291
 30
0.0
 11
2682.131316534078
 21
1605.3067065901221
 31
0.0
  0
LINE
  5
8202
  8
0
 10
2682.796352902817
 20
1605.24788901328
 30
0.0
 11
2682.757233116421
 21
1605.3067065901221
 31
0.0
  0
LINE
  5
8203
  8
0
 10
2682.757233116421
 20
1605.3067065901221
 30
0.0
 11
2682.6447637305309
 21
1605.365524166964
 31
0.0
  0
LINE
  5
8204
  8
0
 10
2682.6447637305309
 20
1605.365524166964
 30
0.0
 11
2682.5860840509372
 21
1605.414538814332
 31
0.0
  0
LINE
  5
8205
  8
0
 10
2682.5860840509372
 20
1605.414538814332
 30
0.0
 11
2682.414934985452
 21
1605.414538814332
 31
0.0
  0
LINE
  5
8206
  8
0
 10
2682.414934985452
 20
1605.414538814332
 30
0.0
 11
2682.307355572862
 21
1605.365524166964
 31
0.0
  0
LINE
  5
8207
  8
0
 10
2682.307355572862
 20
1605.365524166964
 30
0.0
 11
2682.253565866567
 21
1605.365524166964
 31
0.0
  0
LINE
  5
8208
  8
0
 10
2682.253565866567
 20
1605.365524166964
 30
0.0
 11
2682.1362065073772
 21
1605.3067065901221
 31
0.0
  0
LINE
  5
8209
  8
0
 10
2681.466280165339
 20
1607.4241393564221
 30
0.0
 11
2681.466280165339
 21
1607.247686625896
 31
0.0
  0
LINE
  5
820A
  8
0
 10
2681.466280165339
 20
1607.247686625896
 30
0.0
 11
2682.185106240373
 21
1606.5320727743231
 31
0.0
  0
LINE
  5
820B
  8
0
 10
2680.9772828353839
 20
1606.9732046006361
 30
0.0
 11
2681.1875516872651
 21
1606.914387023794
 31
0.0
  0
LINE
  5
820C
  8
0
 10
2681.1875516872651
 20
1606.914387023794
 30
0.0
 11
2681.8574780293029
 21
1606.1987731722199
 31
0.0
  0
LINE
  5
820D
  8
0
 10
2683.9699464947089
 20
1604.865574763809
 30
0.0
 11
2683.7890174826271
 21
1604.865574763809
 31
0.0
  0
LINE
  5
820E
  8
0
 10
2683.7890174826271
 20
1604.865574763809
 30
0.0
 11
2683.079971354191
 21
1605.5811886153831
 31
0.0
  0
LINE
  5
820F
  8
0
 10
2684.0286261743049
 20
1606.914387023794
 30
0.0
 11
2683.798797429225
 21
1606.914387023794
 31
0.0
  0
LINE
  5
8210
  8
0
 10
2683.798797429225
 20
1606.914387023794
 30
0.0
 11
2683.079971354191
 21
1606.1987731722199
 31
0.0
  0
LINE
  5
8211
  8
0
 10
2681.4173804323432
 20
1604.4146400080231
 30
0.0
 11
2681.4173804323432
 21
1604.5812898090751
 31
0.0
  0
LINE
  5
8212
  8
0
 10
2681.4173804323432
 20
1604.5812898090751
 30
0.0
 11
2682.1264265607779
 21
1605.3067065901221
 31
0.0
  0
LINE
  5
8213
  8
0
 10
2683.5200689511498
 20
1607.36532177958
 30
0.0
 11
2683.5200689511498
 21
1607.198671978528
 31
0.0
  0
LINE
  5
8214
  8
0
 10
2683.5200689511498
 20
1607.198671978528
 30
0.0
 11
2682.8012428761158
 21
1606.473255197481
 31
0.0
  0
LINE
  5
8215
  8
0
 10
2680.9772828353839
 20
1604.865574763809
 30
0.0
 11
2681.1386519542689
 21
1604.865574763809
 31
0.0
  0
LINE
  5
8216
  8
0
 10
2681.1386519542689
 20
1604.865574763809
 30
0.0
 11
2681.8574780293029
 21
1605.5811886153831
 31
0.0
  0
LINE
  5
8217
  8
0
 10
2683.5200689511498
 20
1604.365625360655
 30
0.0
 11
2683.5200689511498
 21
1604.532275161707
 31
0.0
  0
LINE
  5
8218
  8
0
 10
2683.5200689511498
 20
1604.532275161707
 30
0.0
 11
2682.8012428761158
 21
1605.24788901328
 31
0.0
  0
LINE
  5
8219
  8
0
 10
2683.5200689511498
 20
1604.532275161707
 30
0.0
 11
2683.7890174826271
 21
1604.865574763809
 31
0.0
  0
LINE
  5
821A
  8
0
 10
2683.7939074559258
 20
1606.914387023794
 30
0.0
 11
2683.524958924449
 21
1607.198671978528
 31
0.0
  0
LINE
  5
821B
  8
0
 10
2681.1337619809692
 20
1604.865574763809
 30
0.0
 11
2681.412490459044
 21
1604.5812898090751
 31
0.0
  0
LINE
  5
821C
  8
0
 10
2681.466280165339
 20
1607.247686625896
 30
0.0
 11
2681.197331633864
 21
1606.914387023794
 31
0.0
  0
LINE
  5
8223
  8
0
 10
2683.5200689511498
 20
2379.365625360655
 30
0.0
 11
2683.9699464947089
 21
2379.865574763809
 31
0.0
  0
LINE
  5
8224
  8
0
 10
2683.9699464947089
 20
2379.865574763809
 30
0.0
 11
2683.30980009927
 21
2380.5811886153829
 31
0.0
  0
LINE
  5
8225
  8
0
 10
2683.3049101259721
 20
2381.1987731722202
 30
0.0
 11
2683.1973307133799
 21
2380.865473570118
 31
0.0
  0
LINE
  5
8226
  8
0
 10
2683.1973307133799
 20
2380.865473570118
 30
0.0
 11
2683.3049101259721
 21
2380.5713856859088
 31
0.0
  0
LINE
  5
8227
  8
0
 10
2683.3049101259721
 20
2381.1987731722202
 30
0.0
 11
2684.0237362010039
 21
2381.914387023794
 31
0.0
  0
LINE
  5
8228
  8
0
 10
2684.0237362010039
 20
2381.914387023794
 30
0.0
 11
2683.5151789778511
 21
2382.36532177958
 31
0.0
  0
LINE
  5
8229
  8
0
 10
2683.5151789778511
 20
2382.36532177958
 30
0.0
 11
2682.796352902817
 21
2381.6987225753751
 31
0.0
  0
LINE
  5
822A
  8
0
 10
2682.1899962136731
 20
2381.747737222744
 30
0.0
 11
2682.5225143980419
 21
2381.5810874216909
 31
0.0
  0
LINE
  5
822B
  8
0
 10
2682.5225143980419
 20
2381.5810874216909
 30
0.0
 11
2682.8012428761158
 21
2381.6987225753751
 31
0.0
  0
LINE
  5
822C
  8
0
 10
2682.1899962136731
 20
2381.747737222744
 30
0.0
 11
2681.4711701386391
 21
2382.4241393564221
 31
0.0
  0
LINE
  5
822D
  8
0
 10
2681.4711701386391
 20
2382.4241393564221
 30
0.0
 11
2680.9772828353839
 21
2381.9732046006361
 31
0.0
  0
LINE
  5
822E
  8
0
 10
2680.9772828353839
 20
2381.9732046006361
 30
0.0
 11
2681.6912189371192
 21
2381.2477878195891
 31
0.0
  0
LINE
  5
822F
  8
0
 10
2681.6423192041229
 20
2380.5811886153829
 30
0.0
 11
2681.8134682696068
 21
2380.914488217486
 31
0.0
  0
LINE
  5
8230
  8
0
 10
2681.8134682696068
 20
2380.914488217486
 30
0.0
 11
2681.6912189371192
 21
2381.2477878195891
 31
0.0
  0
LINE
  5
8231
  8
0
 10
2681.6423192041229
 20
2380.5811886153829
 30
0.0
 11
2680.9821728086831
 21
2379.865574763809
 31
0.0
  0
LINE
  5
8232
  8
0
 10
2680.9821728086831
 20
2379.865574763809
 30
0.0
 11
2681.4222704056428
 21
2379.414640008024
 31
0.0
  0
LINE
  5
8233
  8
0
 10
2681.4222704056428
 20
2379.414640008024
 30
0.0
 11
2682.131316534078
 21
2380.0812392122289
 31
0.0
  0
LINE
  5
8234
  8
0
 10
2682.796352902817
 20
2380.0812392122289
 30
0.0
 11
2682.4638347184468
 21
2380.1988743659131
 31
0.0
  0
LINE
  5
8235
  8
0
 10
2682.4638347184468
 20
2380.1988743659131
 30
0.0
 11
2682.1362065073772
 21
2380.0812392122289
 31
0.0
  0
LINE
  5
8236
  8
0
 10
2683.5200689511498
 20
2379.365625360655
 30
0.0
 11
2682.8012428761158
 21
2380.0812392122289
 31
0.0
  0
LINE
  5
8239
  8
0
 10
2681.8574780293029
 20
2380.5811886153829
 30
0.0
 11
2681.6472091774231
 21
2380.5811886153829
 31
0.0
  0
LINE
  5
823A
  8
0
 10
2681.6912189371192
 20
2381.2477878195891
 30
0.0
 11
2681.8623680026021
 21
2381.1987731722202
 31
0.0
  0
POLYLINE
  5
8819
  8
0
 66
     1
 10
0.0
 20
0.0
 30
0.0
 70
     8
  0
VERTEX
  5
881A
  8
0
 10
2681.8600000000001
 20
2380.5799999999999
 30
0.0
 70
    32
  0
VERTEX
  5
881B
  8
0
 10
2681.8600000000001
 20
2380.5900000000001
 30
0.0
 70
    32
  0
VERTEX
  5
881C
  8
0
 10
2681.8699999999999
 20
2380.5900000000001
 30
0.0
 70
    32
  0
VERTEX
  5
881D
  8
0
 10
2681.8699999999999
 20
2380.5999999999999
 30
0.0
 70
    32
  0
VERTEX
  5
881E
  8
0
 10
2681.8800000000001
 20
2380.5999999999999
 30
0.0
 70
    32
  0
VERTEX
  5
881F
  8
0
 10
2681.8800000000001
 20
2380.6100000000001
 30
0.0
 70
    32
  0
VERTEX
  5
8820
  8
0
 10
2681.8899999999999
 20
2380.6100000000001
 30
0.0
 70
    32
  0
VERTEX
  5
8821
  8
0
 10
2681.8899999999999
 20
2380.6199999999999
 30
0.0
 70
    32
  0
VERTEX
  5
8822
  8
0
 10
2681.900000000001
 20
2380.6199999999999
 30
0.0
 70
    32
  0
VERTEX
  5
8823
  8
0
 10
2681.900000000001
 20
2380.6300000000001
 30
0.0
 70
    32
  0
VERTEX
  5
8824
  8
0
 10
2681.900000000001
 20
2380.6399999999999
 30
0.0
 70
    32
  0
VERTEX
  5
8825
  8
0
 10
2681.9099999999999
 20
2380.6399999999999
 30
0.0
 70
    32
  0
VERTEX
  5
8826
  8
0
 10
2681.9099999999999
 20
2380.6500000000001
 30
0.0
 70
    32
  0
VERTEX
  5
8827
  8
0
 10
2681.9200000000001
 20
2380.6500000000001
 30
0.0
 70
    32
  0
VERTEX
  5
8828
  8
0
 10
2681.9200000000001
 20
2380.6599999999999
 30
0.0
 70
    32
  0
VERTEX
  5
8829
  8
0
 10
2681.9200000000001
 20
2380.6599999999999
 30
0.0
 70
    32
  0
VERTEX
  5
882A
  8
0
 10
2681.9299999999998
 20
2380.6700000000001
 30
0.0
 70
    32
  0
VERTEX
  5
882B
  8
0
 10
2681.9299999999998
 20
2380.6700000000001
 30
0.0
 70
    32
  0
VERTEX
  5
882C
  8
0
 10
2681.9400000000001
 20
2380.6799999999998
 30
0.0
 70
    32
  0
VERTEX
  5
882D
  8
0
 10
2681.9400000000001
 20
2380.6799999999998
 30
0.0
 70
    32
  0
VERTEX
  5
882E
  8
0
 10
2681.9400000000001
 20
2380.6900000000001
 30
0.0
 70
    32
  0
VERTEX
  5
882F
  8
0
 10
2681.9499999999998
 20
2380.6900000000001
 30
0.0
 70
    32
  0
VERTEX
  5
8830
  8
0
 10
2681.9499999999998
 20
2380.6999999999998
 30
0.0
 70
    32
  0
VERTEX
  5
8831
  8
0
 10
2681.9499999999998
 20
2380.6999999999998
 30
0.0
 70
    32
  0
VERTEX
  5
8832
  8
0
 10
2681.96
 20
2380.71
 30
0.0
 70
    32
  0
VERTEX
  5
8833
  8
0
 10
2681.96
 20
2380.71
 30
0.0
 70
    32
  0
VERTEX
  5
8834
  8
0
 10
2681.96
 20
2380.7199999999998
 30
0.0
 70
    32
  0
VERTEX
  5
8835
  8
0
 10
2681.9699999999998
 20
2380.7199999999998
 30
0.0
 70
    32
  0
VERTEX
  5
8836
  8
0
 10
2681.9699999999998
 20
2380.73
 30
0.0
 70
    32
  0
VERTEX
  5
8837
  8
0
 10
2681.9699999999998
 20
2380.73
 30
0.0
 70
    32
  0
VERTEX
  5
8838
  8
0
 10
2681.98
 20
2380.7399999999998
 30
0.0
 70
    32
  0
VERTEX
  5
8839
  8
0
 10
2681.98
 20
2380.7399999999998
 30
0.0
 70
    32
  0
VERTEX
  5
883A
  8
0
 10
2681.98
 20
2380.75
 30
0.0
 70
    32
  0
VERTEX
  5
883B
  8
0
 10
2681.98
 20
2380.75
 30
0.0
 70
    32
  0
VERTEX
  5
883C
  8
0
 10
2681.9899999999998
 20
2380.7600000000002
 30
0.0
 70
    32
  0
VERTEX
  5
883D
  8
0
 10
2681.9899999999998
 20
2380.7600000000002
 30
0.0
 70
    32
  0
VERTEX
  5
883E
  8
0
 10
2681.9899999999998
 20
2380.77
 30
0.0
 70
    32
  0
VERTEX
  5
883F
  8
0
 10
2681.9899999999998
 20
2380.77
 30
0.0
 70
    32
  0
VERTEX
  5
8840
  8
0
 10
2682.0
 20
2380.7800000000011
 30
0.0
 70
    32
  0
VERTEX
  5
8841
  8
0
 10
2682.0
 20
2380.7800000000011
 30
0.0
 70
    32
  0
VERTEX
  5
8842
  8
0
 10
2682.0
 20
2380.79
 30
0.0
 70
    32
  0
VERTEX
  5
8843
  8
0
 10
2682.0
 20
2380.79
 30
0.0
 70
    32
  0
VERTEX
  5
8844
  8
0
 10
2682.0100000000002
 20
2380.79
 30
0.0
 70
    32
  0
VERTEX
  5
8845
  8
0
 10
2682.0100000000002
 20
2380.8000000000002
 30
0.0
 70
    32
  0
VERTEX
  5
8846
  8
0
 10
2682.0100000000002
 20
2380.8000000000002
 30
0.0
 70
    32
  0
VERTEX
  5
8847
  8
0
 10
2682.0100000000002
 20
2380.8099999999999
 30
0.0
 70
    32
  0
VERTEX
  5
8848
  8
0
 10
2682.0100000000002
 20
2380.8099999999999
 30
0.0
 70
    32
  0
VERTEX
  5
8849
  8
0
 10
2682.0100000000002
 20
2380.8200000000002
 30
0.0
 70
    32
  0
VERTEX
  5
884A
  8
0
 10
2682.02
 20
2380.8200000000002
 30
0.0
 70
    32
  0
VERTEX
  5
884B
  8
0
 10
2682.02
 20
2380.8299999999999
 30
0.0
 70
    32
  0
VERTEX
  5
884C
  8
0
 10
2682.02
 20
2380.8299999999999
 30
0.0
 70
    32
  0
VERTEX
  5
884D
  8
0
 10
2682.02
 20
2380.8400000000001
 30
0.0
 70
    32
  0
VERTEX
  5
884E
  8
0
 10
2682.02
 20
2380.8400000000001
 30
0.0
 70
    32
  0
VERTEX
  5
884F
  8
0
 10
2682.02
 20
2380.8499999999999
 30
0.0
 70
    32
  0
VERTEX
  5
8850
  8
0
 10
2682.02
 20
2380.8499999999999
 30
0.0
 70
    32
  0
VERTEX
  5
8851
  8
0
 10
2682.02
 20
2380.8600000000001
 30
0.0
 70
    32
  0
VERTEX
  5
8852
  8
0
 10
2682.0300000000011
 20
2380.8600000000001
 30
0.0
 70
    32
  0
VERTEX
  5
8853
  8
0
 10
2682.0300000000011
 20
2380.8600000000001
 30
0.0
 70
    32
  0
VERTEX
  5
8854
  8
0
 10
2682.0300000000011
 20
2380.8699999999999
 30
0.0
 70
    32
  0
VERTEX
  5
8855
  8
0
 10
2682.0300000000011
 20
2380.8699999999999
 30
0.0
 70
    32
  0
VERTEX
  5
8856
  8
0
 10
2682.0300000000011
 20
2380.8800000000001
 30
0.0
 70
    32
  0
VERTEX
  5
8857
  8
0
 10
2682.0300000000011
 20
2380.8800000000001
 30
0.0
 70
    32
  0
VERTEX
  5
8858
  8
0
 10
2682.0300000000011
 20
2380.8899999999999
 30
0.0
 70
    32
  0
VERTEX
  5
8859
  8
0
 10
2682.0300000000011
 20
2380.8899999999999
 30
0.0
 70
    32
  0
VERTEX
  5
885A
  8
0
 10
2682.0300000000011
 20
2380.9000000000001
 30
0.0
 70
    32
  0
VERTEX
  5
885B
  8
0
 10
2682.0300000000011
 20
2380.9000000000001
 30
0.0
 70
    32
  0
VERTEX
  5
885C
  8
0
 10
2682.0300000000011
 20
2380.9099999999999
 30
0.0
 70
    32
  0
VERTEX
  5
885D
  8
0
 10
2682.0300000000011
 20
2380.9099999999999
 30
0.0
 70
    32
  0
VERTEX
  5
885E
  8
0
 10
2682.0300000000011
 20
2380.9200000000001
 30
0.0
 70
    32
  0
VERTEX
  5
885F
  8
0
 10
2682.0300000000011
 20
2380.9200000000001
 30
0.0
 70
    32
  0
VERTEX
  5
8860
  8
0
 10
2682.0300000000011
 20
2380.9299999999998
 30
0.0
 70
    32
  0
VERTEX
  5
8861
  8
0
 10
2682.0300000000011
 20
2380.9299999999998
 30
0.0
 70
    32
  0
VERTEX
  5
8862
  8
0
 10
2682.0300000000011
 20
2380.9299999999998
 30
0.0
 70
    32
  0
VERTEX
  5
8863
  8
0
 10
2682.0300000000011
 20
2380.9400000000001
 30
0.0
 70
    32
  0
VERTEX
  5
8864
  8
0
 10
2682.0300000000011
 20
2380.9400000000001
 30
0.0
 70
    32
  0
VERTEX
  5
8865
  8
0
 10
2682.0300000000011
 20
2380.9499999999998
 30
0.0
 70
    32
  0
VERTEX
  5
8866
  8
0
 10
2682.0300000000011
 20
2380.9499999999998
 30
0.0
 70
    32
  0
VERTEX
  5
8867
  8
0
 10
2682.0300000000011
 20
2380.96
 30
0.0
 70
    32
  0
VERTEX
  5
8868
  8
0
 10
2682.02
 20
2380.96
 30
0.0
 70
    32
  0
VERTEX
  5
8869
  8
0
 10
2682.02
 20
2380.9699999999998
 30
0.0
 70
    32
  0
VERTEX
  5
886A
  8
0
 10
2682.02
 20
2380.9699999999998
 30
0.0
 70
    32
  0
VERTEX
  5
886B
  8
0
 10
2682.02
 20
2380.98
 30
0.0
 70
    32
  0
VERTEX
  5
886C
  8
0
 10
2682.02
 20
2380.98
 30
0.0
 70
    32
  0
VERTEX
  5
886D
  8
0
 10
2682.02
 20
2380.9899999999998
 30
0.0
 70
    32
  0
VERTEX
  5
886E
  8
0
 10
2682.02
 20
2380.9899999999998
 30
0.0
 70
    32
  0
VERTEX
  5
886F
  8
0
 10
2682.0100000000002
 20
2381.0
 30
0.0
 70
    32
  0
VERTEX
  5
8870
  8
0
 10
2682.0100000000002
 20
2381.0
 30
0.0
 70
    32
  0
VERTEX
  5
8871
  8
0
 10
2682.0100000000002
 20
2381.0
 30
0.0
 70
    32
  0
VERTEX
  5
8872
  8
0
 10
2682.0100000000002
 20
2381.0100000000002
 30
0.0
 70
    32
  0
VERTEX
  5
8873
  8
0
 10
2682.0100000000002
 20
2381.0100000000002
 30
0.0
 70
    32
  0
VERTEX
  5
8874
  8
0
 10
2682.0
 20
2381.02
 30
0.0
 70
    32
  0
VERTEX
  5
8875
  8
0
 10
2682.0
 20
2381.02
 30
0.0
 70
    32
  0
VERTEX
  5
8876
  8
0
 10
2682.0
 20
2381.0300000000002
 30
0.0
 70
    32
  0
VERTEX
  5
8877
  8
0
 10
2682.0
 20
2381.0300000000002
 30
0.0
 70
    32
  0
VERTEX
  5
8878
  8
0
 10
2682.0
 20
2381.04
 30
0.0
 70
    32
  0
VERTEX
  5
8879
  8
0
 10
2681.9899999999998
 20
2381.04
 30
0.0
 70
    32
  0
VERTEX
  5
887A
  8
0
 10
2681.9899999999998
 20
2381.0500000000002
 30
0.0
 70
    32
  0
VERTEX
  5
887B
  8
0
 10
2681.9899999999998
 20
2381.0500000000002
 30
0.0
 70
    32
  0
VERTEX
  5
887C
  8
0
 10
2681.98
 20
2381.0599999999999
 30
0.0
 70
    32
  0
VERTEX
  5
887D
  8
0
 10
2681.98
 20
2381.0599999999999
 30
0.0
 70
    32
  0
VERTEX
  5
887E
  8
0
 10
2681.98
 20
2381.0700000000002
 30
0.0
 70
    32
  0
VERTEX
  5
887F
  8
0
 10
2681.98
 20
2381.0700000000002
 30
0.0
 70
    32
  0
VERTEX
  5
8880
  8
0
 10
2681.9699999999998
 20
2381.0799999999999
 30
0.0
 70
    32
  0
VERTEX
  5
8881
  8
0
 10
2681.9699999999998
 20
2381.0799999999999
 30
0.0
 70
    32
  0
VERTEX
  5
8882
  8
0
 10
2681.9699999999998
 20
2381.0900000000001
 30
0.0
 70
    32
  0
VERTEX
  5
8883
  8
0
 10
2681.96
 20
2381.0900000000001
 30
0.0
 70
    32
  0
VERTEX
  5
8884
  8
0
 10
2681.96
 20
2381.0999999999999
 30
0.0
 70
    32
  0
VERTEX
  5
8885
  8
0
 10
2681.9499999999998
 20
2381.0999999999999
 30
0.0
 70
    32
  0
VERTEX
  5
8886
  8
0
 10
2681.9499999999998
 20
2381.1100000000001
 30
0.0
 70
    32
  0
VERTEX
  5
8887
  8
0
 10
2681.9499999999998
 20
2381.1100000000001
 30
0.0
 70
    32
  0
VERTEX
  5
8888
  8
0
 10
2681.9400000000001
 20
2381.1199999999999
 30
0.0
 70
    32
  0
VERTEX
  5
8889
  8
0
 10
2681.9400000000001
 20
2381.1199999999999
 30
0.0
 70
    32
  0
VERTEX
  5
888A
  8
0
 10
2681.9299999999998
 20
2381.1300000000001
 30
0.0
 70
    32
  0
VERTEX
  5
888B
  8
0
 10
2681.9299999999998
 20
2381.1300000000001
 30
0.0
 70
    32
  0
VERTEX
  5
888C
  8
0
 10
2681.9299999999998
 20
2381.1399999999999
 30
0.0
 70
    32
  0
VERTEX
  5
888D
  8
0
 10
2681.9200000000001
 20
2381.1399999999999
 30
0.0
 70
    32
  0
VERTEX
  5
888E
  8
0
 10
2681.9200000000001
 20
2381.1500000000001
 30
0.0
 70
    32
  0
VERTEX
  5
888F
  8
0
 10
2681.9099999999999
 20
2381.1500000000001
 30
0.0
 70
    32
  0
VERTEX
  5
8890
  8
0
 10
2681.9099999999999
 20
2381.1599999999999
 30
0.0
 70
    32
  0
VERTEX
  5
8891
  8
0
 10
2681.900000000001
 20
2381.1700000000001
 30
0.0
 70
    32
  0
VERTEX
  5
8892
  8
0
 10
2681.900000000001
 20
2381.1700000000001
 30
0.0
 70
    32
  0
VERTEX
  5
8893
  8
0
 10
2681.8899999999999
 20
2381.1799999999998
 30
0.0
 70
    32
  0
VERTEX
  5
8894
  8
0
 10
2681.8899999999999
 20
2381.1799999999998
 30
0.0
 70
    32
  0
VERTEX
  5
8895
  8
0
 10
2681.8800000000001
 20
2381.1900000000001
 30
0.0
 70
    32
  0
VERTEX
  5
8896
  8
0
 10
2681.8699999999999
 20
2381.1900000000001
 30
0.0
 70
    32
  0
VERTEX
  5
8897
  8
0
 10
2681.8699999999999
 20
2381.1999999999998
 30
0.0
 70
    32
  0
VERTEX
  5
8898
  8
0
 10
2681.8600000000001
 20
2381.1999999999998
 30
0.0
 70
    32
  0
VERTEX
  5
8899
  8
0
 10
2681.8600000000001
 20
2381.21
 30
0.0
 70
    32
  0
SEQEND
  5
889A
  8
0
  0
LINE
  5
823C
  8
0
 10
2682.1899962136731
 20
2381.5320727743228
 30
0.0
 11
2682.1899962136731
 21
2381.7379342932691
 31
0.0
  0
LINE
  5
823D
  8
0
 10
2682.796352902817
 20
2381.6987225753751
 30
0.0
 11
2682.796352902817
 21
2381.4732551974821
 31
0.0
  0
POLYLINE
  5
889B
  8
0
 66
     1
 10
0.0
 20
0.0
 30
0.0
 70
     8
  0
VERTEX
  5
889C
  8
0
 10
2682.1900000000001
 20
2381.5300000000011
 30
0.0
 70
    32
  0
VERTEX
  5
889D
  8
0
 10
2682.1900000000001
 20
2381.5300000000011
 30
0.0
 70
    32
  0
VERTEX
  5
889E
  8
0
 10
2682.1999999999998
 20
2381.52
 30
0.0
 70
    32
  0
VERTEX
  5
889F
  8
0
 10
2682.1999999999998
 20
2381.52
 30
0.0
 70
    32
  0
VERTEX
  5
88A0
  8
0
 10
2682.21
 20
2381.5100000000002
 30
0.0
 70
    32
  0
VERTEX
  5
88A1
  8
0
 10
2682.21
 20
2381.5100000000002
 30
0.0
 70
    32
  0
VERTEX
  5
88A2
  8
0
 10
2682.21
 20
2381.5
 30
0.0
 70
    32
  0
VERTEX
  5
88A3
  8
0
 10
2682.2199999999998
 20
2381.5
 30
0.0
 70
    32
  0
VERTEX
  5
88A4
  8
0
 10
2682.2199999999998
 20
2381.4899999999998
 30
0.0
 70
    32
  0
VERTEX
  5
88A5
  8
0
 10
2682.2300000000009
 20
2381.4899999999998
 30
0.0
 70
    32
  0
VERTEX
  5
88A6
  8
0
 10
2682.2300000000009
 20
2381.48
 30
0.0
 70
    32
  0
VERTEX
  5
88A7
  8
0
 10
2682.2399999999998
 20
2381.48
 30
0.0
 70
    32
  0
VERTEX
  5
88A8
  8
0
 10
2682.2399999999998
 20
2381.4699999999998
 30
0.0
 70
    32
  0
VERTEX
  5
88A9
  8
0
 10
2682.2399999999998
 20
2381.4699999999998
 30
0.0
 70
    32
  0
VERTEX
  5
88AA
  8
0
 10
2682.25
 20
2381.4699999999998
 30
0.0
 70
    32
  0
VERTEX
  5
88AB
  8
0
 10
2682.25
 20
2381.46
 30
0.0
 70
    32
  0
VERTEX
  5
88AC
  8
0
 10
2682.2600000000002
 20
2381.46
 30
0.0
 70
    32
  0
VERTEX
  5
88AD
  8
0
 10
2682.2600000000002
 20
2381.4499999999998
 30
0.0
 70
    32
  0
VERTEX
  5
88AE
  8
0
 10
2682.27
 20
2381.4499999999998
 30
0.0
 70
    32
  0
VERTEX
  5
88AF
  8
0
 10
2682.27
 20
2381.4499999999998
 30
0.0
 70
    32
  0
VERTEX
  5
88B0
  8
0
 10
2682.2800000000002
 20
2381.4400000000001
 30
0.0
 70
    32
  0
VERTEX
  5
88B1
  8
0
 10
2682.2800000000002
 20
2381.4400000000001
 30
0.0
 70
    32
  0
VERTEX
  5
88B2
  8
0
 10
2682.2800000000002
 20
2381.4400000000001
 30
0.0
 70
    32
  0
VERTEX
  5
88B3
  8
0
 10
2682.29
 20
2381.4299999999998
 30
0.0
 70
    32
  0
VERTEX
  5
88B4
  8
0
 10
2682.29
 20
2381.4299999999998
 30
0.0
 70
    32
  0
VERTEX
  5
88B5
  8
0
 10
2682.3000000000011
 20
2381.4299999999998
 30
0.0
 70
    32
  0
VERTEX
  5
88B6
  8
0
 10
2682.3000000000011
 20
2381.4200000000001
 30
0.0
 70
    32
  0
VERTEX
  5
88B7
  8
0
 10
2682.3099999999999
 20
2381.4200000000001
 30
0.0
 70
    32
  0
VERTEX
  5
88B8
  8
0
 10
2682.3099999999999
 20
2381.4200000000001
 30
0.0
 70
    32
  0
VERTEX
  5
88B9
  8
0
 10
2682.3200000000011
 20
2381.4099999999999
 30
0.0
 70
    32
  0
VERTEX
  5
88BA
  8
0
 10
2682.3200000000011
 20
2381.4099999999999
 30
0.0
 70
    32
  0
VERTEX
  5
88BB
  8
0
 10
2682.3299999999999
 20
2381.4099999999999
 30
0.0
 70
    32
  0
VERTEX
  5
88BC
  8
0
 10
2682.3299999999999
 20
2381.4099999999999
 30
0.0
 70
    32
  0
VERTEX
  5
88BD
  8
0
 10
2682.3400000000001
 20
2381.4000000000001
 30
0.0
 70
    32
  0
VERTEX
  5
88BE
  8
0
 10
2682.3400000000001
 20
2381.4000000000001
 30
0.0
 70
    32
  0
VERTEX
  5
88BF
  8
0
 10
2682.3400000000001
 20
2381.4000000000001
 30
0.0
 70
    32
  0
VERTEX
  5
88C0
  8
0
 10
2682.3499999999999
 20
2381.4000000000001
 30
0.0
 70
    32
  0
VERTEX
  5
88C1
  8
0
 10
2682.3499999999999
 20
2381.3899999999999
 30
0.0
 70
    32
  0
VERTEX
  5
88C2
  8
0
 10
2682.3600000000001
 20
2381.3899999999999
 30
0.0
 70
    32
  0
VERTEX
  5
88C3
  8
0
 10
2682.3600000000001
 20
2381.3899999999999
 30
0.0
 70
    32
  0
VERTEX
  5
88C4
  8
0
 10
2682.3699999999999
 20
2381.3899999999999
 30
0.0
 70
    32
  0
VERTEX
  5
88C5
  8
0
 10
2682.3699999999999
 20
2381.3800000000001
 30
0.0
 70
    32
  0
VERTEX
  5
88C6
  8
0
 10
2682.3800000000001
 20
2381.3800000000001
 30
0.0
 70
    32
  0
VERTEX
  5
88C7
  8
0
 10
2682.3800000000001
 20
2381.3800000000001
 30
0.0
 70
    32
  0
VERTEX
  5
88C8
  8
0
 10
2682.3899999999999
 20
2381.3800000000001
 30
0.0
 70
    32
  0
VERTEX
  5
88C9
  8
0
 10
2682.3899999999999
 20
2381.3800000000001
 30
0.0
 70
    32
  0
VERTEX
  5
88CA
  8
0
 10
2682.4000000000001
 20
2381.3800000000001
 30
0.0
 70
    32
  0
VERTEX
  5
88CB
  8
0
 10
2682.4000000000001
 20
2381.3699999999999
 30
0.0
 70
    32
  0
VERTEX
  5
88CC
  8
0
 10
2682.4099999999999
 20
2381.3699999999999
 30
0.0
 70
    32
  0
VERTEX
  5
88CD
  8
0
 10
2682.4099999999999
 20
2381.3699999999999
 30
0.0
 70
    32
  0
VERTEX
  5
88CE
  8
0
 10
2682.4200000000001
 20
2381.3699999999999
 30
0.0
 70
    32
  0
VERTEX
  5
88CF
  8
0
 10
2682.4200000000001
 20
2381.3699999999999
 30
0.0
 70
    32
  0
VERTEX
  5
88D0
  8
0
 10
2682.4299999999998
 20
2381.3699999999999
 30
0.0
 70
    32
  0
VERTEX
  5
88D1
  8
0
 10
2682.4299999999998
 20
2381.3699999999999
 30
0.0
 70
    32
  0
VERTEX
  5
88D2
  8
0
 10
2682.4400000000001
 20
2381.3699999999999
 30
0.0
 70
    32
  0
VERTEX
  5
88D3
  8
0
 10
2682.4400000000001
 20
2381.3600000000001
 30
0.0
 70
    32
  0
VERTEX
  5
88D4
  8
0
 10
2682.4499999999998
 20
2381.3600000000001
 30
0.0
 70
    32
  0
VERTEX
  5
88D5
  8
0
 10
2682.4499999999998
 20
2381.3600000000001
 30
0.0
 70
    32
  0
VERTEX
  5
88D6
  8
0
 10
2682.46
 20
2381.3600000000001
 30
0.0
 70
    32
  0
VERTEX
  5
88D7
  8
0
 10
2682.46
 20
2381.3600000000001
 30
0.0
 70
    32
  0
VERTEX
  5
88D8
  8
0
 10
2682.4699999999998
 20
2381.3600000000001
 30
0.0
 70
    32
  0
VERTEX
  5
88D9
  8
0
 10
2682.4699999999998
 20
2381.3600000000001
 30
0.0
 70
    32
  0
VERTEX
  5
88DA
  8
0
 10
2682.48
 20
2381.3600000000001
 30
0.0
 70
    32
  0
VERTEX
  5
88DB
  8
0
 10
2682.48
 20
2381.3600000000001
 30
0.0
 70
    32
  0
VERTEX
  5
88DC
  8
0
 10
2682.4899999999998
 20
2381.3600000000001
 30
0.0
 70
    32
  0
VERTEX
  5
88DD
  8
0
 10
2682.4899999999998
 20
2381.3600000000001
 30
0.0
 70
    32
  0
VERTEX
  5
88DE
  8
0
 10
2682.5
 20
2381.3600000000001
 30
0.0
 70
    32
  0
VERTEX
  5
88DF
  8
0
 10
2682.5
 20
2381.3600000000001
 30
0.0
 70
    32
  0
VERTEX
  5
88E0
  8
0
 10
2682.5100000000011
 20
2381.3600000000001
 30
0.0
 70
    32
  0
VERTEX
  5
88E1
  8
0
 10
2682.5100000000011
 20
2381.3600000000001
 30
0.0
 70
    32
  0
VERTEX
  5
88E2
  8
0
 10
2682.52
 20
2381.3600000000001
 30
0.0
 70
    32
  0
VERTEX
  5
88E3
  8
0
 10
2682.52
 20
2381.3600000000001
 30
0.0
 70
    32
  0
VERTEX
  5
88E4
  8
0
 10
2682.5300000000002
 20
2381.3600000000001
 30
0.0
 70
    32
  0
VERTEX
  5
88E5
  8
0
 10
2682.5300000000002
 20
2381.3600000000001
 30
0.0
 70
    32
  0
VERTEX
  5
88E6
  8
0
 10
2682.54
 20
2381.3600000000001
 30
0.0
 70
    32
  0
VERTEX
  5
88E7
  8
0
 10
2682.54
 20
2381.3600000000001
 30
0.0
 70
    32
  0
VERTEX
  5
88E8
  8
0
 10
2682.5500000000002
 20
2381.3600000000001
 30
0.0
 70
    32
  0
VERTEX
  5
88E9
  8
0
 10
2682.5500000000002
 20
2381.3600000000001
 30
0.0
 70
    32
  0
VERTEX
  5
88EA
  8
0
 10
2682.5599999999999
 20
2381.3600000000001
 30
0.0
 70
    32
  0
VERTEX
  5
88EB
  8
0
 10
2682.5599999999999
 20
2381.3600000000001
 30
0.0
 70
    32
  0
VERTEX
  5
88EC
  8
0
 10
2682.5700000000002
 20
2381.3600000000001
 30
0.0
 70
    32
  0
VERTEX
  5
88ED
  8
0
 10
2682.5700000000002
 20
2381.3600000000001
 30
0.0
 70
    32
  0
VERTEX
  5
88EE
  8
0
 10
2682.5799999999999
 20
2381.3699999999999
 30
0.0
 70
    32
  0
VERTEX
  5
88EF
  8
0
 10
2682.5799999999999
 20
2381.3699999999999
 30
0.0
 70
    32
  0
VERTEX
  5
88F0
  8
0
 10
2682.5900000000001
 20
2381.3699999999999
 30
0.0
 70
    32
  0
VERTEX
  5
88F1
  8
0
 10
2682.5900000000001
 20
2381.3699999999999
 30
0.0
 70
    32
  0
VERTEX
  5
88F2
  8
0
 10
2682.5999999999999
 20
2381.3699999999999
 30
0.0
 70
    32
  0
VERTEX
  5
88F3
  8
0
 10
2682.5999999999999
 20
2381.3699999999999
 30
0.0
 70
    32
  0
VERTEX
  5
88F4
  8
0
 10
2682.6100000000001
 20
2381.3699999999999
 30
0.0
 70
    32
  0
VERTEX
  5
88F5
  8
0
 10
2682.6100000000001
 20
2381.3699999999999
 30
0.0
 70
    32
  0
VERTEX
  5
88F6
  8
0
 10
2682.6199999999999
 20
2381.3800000000001
 30
0.0
 70
    32
  0
VERTEX
  5
88F7
  8
0
 10
2682.6199999999999
 20
2381.3800000000001
 30
0.0
 70
    32
  0
VERTEX
  5
88F8
  8
0
 10
2682.6300000000001
 20
2381.3800000000001
 30
0.0
 70
    32
  0
VERTEX
  5
88F9
  8
0
 10
2682.6300000000001
 20
2381.3800000000001
 30
0.0
 70
    32
  0
VERTEX
  5
88FA
  8
0
 10
2682.6399999999999
 20
2381.3800000000001
 30
0.0
 70
    32
  0
VERTEX
  5
88FB
  8
0
 10
2682.6399999999999
 20
2381.3800000000001
 30
0.0
 70
    32
  0
VERTEX
  5
88FC
  8
0
 10
2682.650000000001
 20
2381.3899999999999
 30
0.0
 70
    32
  0
VERTEX
  5
88FD
  8
0
 10
2682.650000000001
 20
2381.3899999999999
 30
0.0
 70
    32
  0
VERTEX
  5
88FE
  8
0
 10
2682.6599999999999
 20
2381.3899999999999
 30
0.0
 70
    32
  0
VERTEX
  5
88FF
  8
0
 10
2682.6599999999999
 20
2381.3899999999999
 30
0.0
 70
    32
  0
VERTEX
  5
8900
  8
0
 10
2682.6700000000001
 20
2381.3899999999999
 30
0.0
 70
    32
  0
VERTEX
  5
8901
  8
0
 10
2682.6700000000001
 20
2381.4000000000001
 30
0.0
 70
    32
  0
VERTEX
  5
8902
  8
0
 10
2682.6799999999998
 20
2381.4000000000001
 30
0.0
 70
    32
  0
VERTEX
  5
8903
  8
0
 10
2682.6799999999998
 20
2381.4000000000001
 30
0.0
 70
    32
  0
VERTEX
  5
8904
  8
0
 10
2682.6900000000001
 20
2381.4000000000001
 30
0.0
 70
    32
  0
VERTEX
  5
8905
  8
0
 10
2682.6900000000001
 20
2381.4099999999999
 30
0.0
 70
    32
  0
VERTEX
  5
8906
  8
0
 10
2682.6999999999998
 20
2381.4099999999999
 30
0.0
 70
    32
  0
VERTEX
  5
8907
  8
0
 10
2682.6999999999998
 20
2381.4099999999999
 30
0.0
 70
    32
  0
VERTEX
  5
8908
  8
0
 10
2682.71
 20
2381.4099999999999
 30
0.0
 70
    32
  0
VERTEX
  5
8909
  8
0
 10
2682.71
 20
2381.4200000000001
 30
0.0
 70
    32
  0
VERTEX
  5
890A
  8
0
 10
2682.7199999999998
 20
2381.4200000000001
 30
0.0
 70
    32
  0
VERTEX
  5
890B
  8
0
 10
2682.7199999999998
 20
2381.4200000000001
 30
0.0
 70
    32
  0
VERTEX
  5
890C
  8
0
 10
2682.73
 20
2381.4200000000001
 30
0.0
 70
    32
  0
VERTEX
  5
890D
  8
0
 10
2682.73
 20
2381.4299999999998
 30
0.0
 70
    32
  0
VERTEX
  5
890E
  8
0
 10
2682.7399999999998
 20
2381.4299999999998
 30
0.0
 70
    32
  0
VERTEX
  5
890F
  8
0
 10
2682.7399999999998
 20
2381.4299999999998
 30
0.0
 70
    32
  0
VERTEX
  5
8910
  8
0
 10
2682.75
 20
2381.4400000000001
 30
0.0
 70
    32
  0
VERTEX
  5
8911
  8
0
 10
2682.75
 20
2381.4400000000001
 30
0.0
 70
    32
  0
VERTEX
  5
8912
  8
0
 10
2682.7600000000002
 20
2381.4400000000001
 30
0.0
 70
    32
  0
VERTEX
  5
8913
  8
0
 10
2682.7600000000002
 20
2381.4499999999998
 30
0.0
 70
    32
  0
VERTEX
  5
8914
  8
0
 10
2682.77
 20
2381.4499999999998
 30
0.0
 70
    32
  0
VERTEX
  5
8915
  8
0
 10
2682.77
 20
2381.4499999999998
 30
0.0
 70
    32
  0
VERTEX
  5
8916
  8
0
 10
2682.7800000000011
 20
2381.46
 30
0.0
 70
    32
  0
VERTEX
  5
8917
  8
0
 10
2682.7800000000011
 20
2381.46
 30
0.0
 70
    32
  0
VERTEX
  5
8918
  8
0
 10
2682.79
 20
2381.46
 30
0.0
 70
    32
  0
VERTEX
  5
8919
  8
0
 10
2682.79
 20
2381.4699999999998
 30
0.0
 70
    32
  0
VERTEX
  5
891A
  8
0
 10
2682.8000000000002
 20
2381.4699999999998
 30
0.0
 70
    32
  0
VERTEX
  5
891B
  8
0
 10
2682.8000000000002
 20
2381.4699999999998
 30
0.0
 70
    32
  0
SEQEND
  5
891C
  8
0
  0
LINE
  5
823F
  8
0
 10
2683.079971354191
 20
2381.1987731722202
 30
0.0
 11
2683.3000201526711
 21
2381.1987731722202
 31
0.0
  0
LINE
  5
8240
  8
0
 10
2683.3049101259721
 20
2380.5811886153829
 30
0.0
 11
2683.084861327492
 21
2380.5811886153829
 31
0.0
  0
POLYLINE
  5
891D
  8
0
 66
     1
 10
0.0
 20
0.0
 30
0.0
 70
     8
  0
VERTEX
  5
891E
  8
0
 10
2683.0799999999999
 20
2381.1999999999998
 30
0.0
 70
    32
  0
VERTEX
  5
891F
  8
0
 10
2683.0799999999999
 20
2381.1900000000001
 30
0.0
 70
    32
  0
VERTEX
  5
8920
  8
0
 10
2683.0700000000011
 20
2381.1900000000001
 30
0.0
 70
    32
  0
VERTEX
  5
8921
  8
0
 10
2683.0700000000011
 20
2381.1900000000001
 30
0.0
 70
    32
  0
VERTEX
  5
8922
  8
0
 10
2683.0700000000011
 20
2381.1799999999998
 30
0.0
 70
    32
  0
VERTEX
  5
8923
  8
0
 10
2683.0599999999999
 20
2381.1799999999998
 30
0.0
 70
    32
  0
VERTEX
  5
8924
  8
0
 10
2683.0599999999999
 20
2381.1700000000001
 30
0.0
 70
    32
  0
VERTEX
  5
8925
  8
0
 10
2683.0599999999999
 20
2381.1700000000001
 30
0.0
 70
    32
  0
VERTEX
  5
8926
  8
0
 10
2683.0500000000002
 20
2381.1599999999999
 30
0.0
 70
    32
  0
VERTEX
  5
8927
  8
0
 10
2683.0500000000002
 20
2381.1599999999999
 30
0.0
 70
    32
  0
VERTEX
  5
8928
  8
0
 10
2683.0500000000002
 20
2381.1500000000001
 30
0.0
 70
    32
  0
VERTEX
  5
8929
  8
0
 10
2683.04
 20
2381.1500000000001
 30
0.0
 70
    32
  0
VERTEX
  5
892A
  8
0
 10
2683.04
 20
2381.1399999999999
 30
0.0
 70
    32
  0
VERTEX
  5
892B
  8
0
 10
2683.04
 20
2381.1399999999999
 30
0.0
 70
    32
  0
VERTEX
  5
892C
  8
0
 10
2683.04
 20
2381.1399999999999
 30
0.0
 70
    32
  0
VERTEX
  5
892D
  8
0
 10
2683.0300000000002
 20
2381.1300000000001
 30
0.0
 70
    32
  0
VERTEX
  5
892E
  8
0
 10
2683.0300000000002
 20
2381.1300000000001
 30
0.0
 70
    32
  0
VERTEX
  5
892F
  8
0
 10
2683.0300000000002
 20
2381.1199999999999
 30
0.0
 70
    32
  0
VERTEX
  5
8930
  8
0
 10
2683.02
 20
2381.1199999999999
 30
0.0
 70
    32
  0
VERTEX
  5
8931
  8
0
 10
2683.02
 20
2381.1100000000001
 30
0.0
 70
    32
  0
VERTEX
  5
8932
  8
0
 10
2683.02
 20
2381.1100000000001
 30
0.0
 70
    32
  0
VERTEX
  5
8933
  8
0
 10
2683.02
 20
2381.0999999999999
 30
0.0
 70
    32
  0
VERTEX
  5
8934
  8
0
 10
2683.0100000000002
 20
2381.0999999999999
 30
0.0
 70
    32
  0
VERTEX
  5
8935
  8
0
 10
2683.0100000000002
 20
2381.0900000000001
 30
0.0
 70
    32
  0
VERTEX
  5
8936
  8
0
 10
2683.0100000000002
 20
2381.0900000000001
 30
0.0
 70
    32
  0
VERTEX
  5
8937
  8
0
 10
2683.0100000000002
 20
2381.0799999999999
 30
0.0
 70
    32
  0
VERTEX
  5
8938
  8
0
 10
2683.0100000000002
 20
2381.0799999999999
 30
0.0
 70
    32
  0
VERTEX
  5
8939
  8
0
 10
2683.0
 20
2381.0700000000002
 30
0.0
 70
    32
  0
VERTEX
  5
893A
  8
0
 10
2683.0
 20
2381.0700000000002
 30
0.0
 70
    32
  0
VERTEX
  5
893B
  8
0
 10
2683.0
 20
2381.0599999999999
 30
0.0
 70
    32
  0
VERTEX
  5
893C
  8
0
 10
2683.0
 20
2381.0599999999999
 30
0.0
 70
    32
  0
VERTEX
  5
893D
  8
0
 10
2683.0
 20
2381.0500000000002
 30
0.0
 70
    32
  0
VERTEX
  5
893E
  8
0
 10
2682.9899999999998
 20
2381.0500000000002
 30
0.0
 70
    32
  0
VERTEX
  5
893F
  8
0
 10
2682.9899999999998
 20
2381.04
 30
0.0
 70
    32
  0
VERTEX
  5
8940
  8
0
 10
2682.9899999999998
 20
2381.04
 30
0.0
 70
    32
  0
VERTEX
  5
8941
  8
0
 10
2682.9899999999998
 20
2381.0300000000002
 30
0.0
 70
    32
  0
VERTEX
  5
8942
  8
0
 10
2682.9899999999998
 20
2381.0300000000002
 30
0.0
 70
    32
  0
VERTEX
  5
8943
  8
0
 10
2682.9899999999998
 20
2381.02
 30
0.0
 70
    32
  0
VERTEX
  5
8944
  8
0
 10
2682.9800000000009
 20
2381.02
 30
0.0
 70
    32
  0
VERTEX
  5
8945
  8
0
 10
2682.9800000000009
 20
2381.0100000000002
 30
0.0
 70
    32
  0
VERTEX
  5
8946
  8
0
 10
2682.9800000000009
 20
2381.0100000000002
 30
0.0
 70
    32
  0
VERTEX
  5
8947
  8
0
 10
2682.9800000000009
 20
2381.0
 30
0.0
 70
    32
  0
VERTEX
  5
8948
  8
0
 10
2682.9800000000009
 20
2381.0
 30
0.0
 70
    32
  0
VERTEX
  5
8949
  8
0
 10
2682.9800000000009
 20
2380.9899999999998
 30
0.0
 70
    32
  0
VERTEX
  5
894A
  8
0
 10
2682.9800000000009
 20
2380.9899999999998
 30
0.0
 70
    32
  0
VERTEX
  5
894B
  8
0
 10
2682.9800000000009
 20
2380.98
 30
0.0
 70
    32
  0
VERTEX
  5
894C
  8
0
 10
2682.9699999999998
 20
2380.98
 30
0.0
 70
    32
  0
VERTEX
  5
894D
  8
0
 10
2682.9699999999998
 20
2380.9699999999998
 30
0.0
 70
    32
  0
VERTEX
  5
894E
  8
0
 10
2682.9699999999998
 20
2380.9699999999998
 30
0.0
 70
    32
  0
VERTEX
  5
894F
  8
0
 10
2682.9699999999998
 20
2380.96
 30
0.0
 70
    32
  0
VERTEX
  5
8950
  8
0
 10
2682.9699999999998
 20
2380.96
 30
0.0
 70
    32
  0
VERTEX
  5
8951
  8
0
 10
2682.9699999999998
 20
2380.9499999999998
 30
0.0
 70
    32
  0
VERTEX
  5
8952
  8
0
 10
2682.9699999999998
 20
2380.9499999999998
 30
0.0
 70
    32
  0
VERTEX
  5
8953
  8
0
 10
2682.9699999999998
 20
2380.9400000000001
 30
0.0
 70
    32
  0
VERTEX
  5
8954
  8
0
 10
2682.9699999999998
 20
2380.9400000000001
 30
0.0
 70
    32
  0
VERTEX
  5
8955
  8
0
 10
2682.9699999999998
 20
2380.9299999999998
 30
0.0
 70
    32
  0
VERTEX
  5
8956
  8
0
 10
2682.9699999999998
 20
2380.9299999999998
 30
0.0
 70
    32
  0
VERTEX
  5
8957
  8
0
 10
2682.9699999999998
 20
2380.9200000000001
 30
0.0
 70
    32
  0
VERTEX
  5
8958
  8
0
 10
2682.9699999999998
 20
2380.9200000000001
 30
0.0
 70
    32
  0
VERTEX
  5
8959
  8
0
 10
2682.9699999999998
 20
2380.9099999999999
 30
0.0
 70
    32
  0
VERTEX
  5
895A
  8
0
 10
2682.9699999999998
 20
2380.9099999999999
 30
0.0
 70
    32
  0
VERTEX
  5
895B
  8
0
 10
2682.9699999999998
 20
2380.9000000000001
 30
0.0
 70
    32
  0
VERTEX
  5
895C
  8
0
 10
2682.9699999999998
 20
2380.9000000000001
 30
0.0
 70
    32
  0
VERTEX
  5
895D
  8
0
 10
2682.9699999999998
 20
2380.8899999999999
 30
0.0
 70
    32
  0
VERTEX
  5
895E
  8
0
 10
2682.9699999999998
 20
2380.8899999999999
 30
0.0
 70
    32
  0
VERTEX
  5
895F
  8
0
 10
2682.9699999999998
 20
2380.8800000000001
 30
0.0
 70
    32
  0
VERTEX
  5
8960
  8
0
 10
2682.9699999999998
 20
2380.8800000000001
 30
0.0
 70
    32
  0
VERTEX
  5
8961
  8
0
 10
2682.9699999999998
 20
2380.8699999999999
 30
0.0
 70
    32
  0
VERTEX
  5
8962
  8
0
 10
2682.9699999999998
 20
2380.8699999999999
 30
0.0
 70
    32
  0
VERTEX
  5
8963
  8
0
 10
2682.9699999999998
 20
2380.8600000000001
 30
0.0
 70
    32
  0
VERTEX
  5
8964
  8
0
 10
2682.9699999999998
 20
2380.8600000000001
 30
0.0
 70
    32
  0
VERTEX
  5
8965
  8
0
 10
2682.9699999999998
 20
2380.8499999999999
 30
0.0
 70
    32
  0
VERTEX
  5
8966
  8
0
 10
2682.9699999999998
 20
2380.8400000000001
 30
0.0
 70
    32
  0
VERTEX
  5
8967
  8
0
 10
2682.9699999999998
 20
2380.8400000000001
 30
0.0
 70
    32
  0
VERTEX
  5
8968
  8
0
 10
2682.9699999999998
 20
2380.8299999999999
 30
0.0
 70
    32
  0
VERTEX
  5
8969
  8
0
 10
2682.9699999999998
 20
2380.8299999999999
 30
0.0
 70
    32
  0
VERTEX
  5
896A
  8
0
 10
2682.9699999999998
 20
2380.8200000000002
 30
0.0
 70
    32
  0
VERTEX
  5
896B
  8
0
 10
2682.9699999999998
 20
2380.8200000000002
 30
0.0
 70
    32
  0
VERTEX
  5
896C
  8
0
 10
2682.9699999999998
 20
2380.8099999999999
 30
0.0
 70
    32
  0
VERTEX
  5
896D
  8
0
 10
2682.9699999999998
 20
2380.8099999999999
 30
0.0
 70
    32
  0
VERTEX
  5
896E
  8
0
 10
2682.9699999999998
 20
2380.8000000000002
 30
0.0
 70
    32
  0
VERTEX
  5
896F
  8
0
 10
2682.9699999999998
 20
2380.8000000000002
 30
0.0
 70
    32
  0
VERTEX
  5
8970
  8
0
 10
2682.9800000000009
 20
2380.79
 30
0.0
 70
    32
  0
VERTEX
  5
8971
  8
0
 10
2682.9800000000009
 20
2380.79
 30
0.0
 70
    32
  0
VERTEX
  5
8972
  8
0
 10
2682.9800000000009
 20
2380.7800000000011
 30
0.0
 70
    32
  0
VERTEX
  5
8973
  8
0
 10
2682.9800000000009
 20
2380.7800000000011
 30
0.0
 70
    32
  0
VERTEX
  5
8974
  8
0
 10
2682.9800000000009
 20
2380.77
 30
0.0
 70
    32
  0
VERTEX
  5
8975
  8
0
 10
2682.9800000000009
 20
2380.77
 30
0.0
 70
    32
  0
VERTEX
  5
8976
  8
0
 10
2682.9800000000009
 20
2380.7600000000002
 30
0.0
 70
    32
  0
VERTEX
  5
8977
  8
0
 10
2682.9800000000009
 20
2380.7600000000002
 30
0.0
 70
    32
  0
VERTEX
  5
8978
  8
0
 10
2682.9899999999998
 20
2380.75
 30
0.0
 70
    32
  0
VERTEX
  5
8979
  8
0
 10
2682.9899999999998
 20
2380.75
 30
0.0
 70
    32
  0
VERTEX
  5
897A
  8
0
 10
2682.9899999999998
 20
2380.7399999999998
 30
0.0
 70
    32
  0
VERTEX
  5
897B
  8
0
 10
2682.9899999999998
 20
2380.7399999999998
 30
0.0
 70
    32
  0
VERTEX
  5
897C
  8
0
 10
2682.9899999999998
 20
2380.73
 30
0.0
 70
    32
  0
VERTEX
  5
897D
  8
0
 10
2682.9899999999998
 20
2380.73
 30
0.0
 70
    32
  0
VERTEX
  5
897E
  8
0
 10
2683.0
 20
2380.7199999999998
 30
0.0
 70
    32
  0
VERTEX
  5
897F
  8
0
 10
2683.0
 20
2380.7199999999998
 30
0.0
 70
    32
  0
VERTEX
  5
8980
  8
0
 10
2683.0
 20
2380.71
 30
0.0
 70
    32
  0
VERTEX
  5
8981
  8
0
 10
2683.0
 20
2380.71
 30
0.0
 70
    32
  0
VERTEX
  5
8982
  8
0
 10
2683.0
 20
2380.6999999999998
 30
0.0
 70
    32
  0
VERTEX
  5
8983
  8
0
 10
2683.0100000000002
 20
2380.6999999999998
 30
0.0
 70
    32
  0
VERTEX
  5
8984
  8
0
 10
2683.0100000000002
 20
2380.6900000000001
 30
0.0
 70
    32
  0
VERTEX
  5
8985
  8
0
 10
2683.0100000000002
 20
2380.6900000000001
 30
0.0
 70
    32
  0
VERTEX
  5
8986
  8
0
 10
2683.0100000000002
 20
2380.6799999999998
 30
0.0
 70
    32
  0
VERTEX
  5
8987
  8
0
 10
2683.0100000000002
 20
2380.6799999999998
 30
0.0
 70
    32
  0
VERTEX
  5
8988
  8
0
 10
2683.02
 20
2380.6700000000001
 30
0.0
 70
    32
  0
VERTEX
  5
8989
  8
0
 10
2683.02
 20
2380.6700000000001
 30
0.0
 70
    32
  0
VERTEX
  5
898A
  8
0
 10
2683.02
 20
2380.6599999999999
 30
0.0
 70
    32
  0
VERTEX
  5
898B
  8
0
 10
2683.02
 20
2380.6599999999999
 30
0.0
 70
    32
  0
VERTEX
  5
898C
  8
0
 10
2683.0300000000002
 20
2380.6500000000001
 30
0.0
 70
    32
  0
VERTEX
  5
898D
  8
0
 10
2683.0300000000002
 20
2380.6500000000001
 30
0.0
 70
    32
  0
VERTEX
  5
898E
  8
0
 10
2683.0300000000002
 20
2380.6399999999999
 30
0.0
 70
    32
  0
VERTEX
  5
898F
  8
0
 10
2683.04
 20
2380.6399999999999
 30
0.0
 70
    32
  0
VERTEX
  5
8990
  8
0
 10
2683.04
 20
2380.6300000000001
 30
0.0
 70
    32
  0
VERTEX
  5
8991
  8
0
 10
2683.04
 20
2380.6300000000001
 30
0.0
 70
    32
  0
VERTEX
  5
8992
  8
0
 10
2683.04
 20
2380.6199999999999
 30
0.0
 70
    32
  0
VERTEX
  5
8993
  8
0
 10
2683.0500000000002
 20
2380.6199999999999
 30
0.0
 70
    32
  0
VERTEX
  5
8994
  8
0
 10
2683.0500000000002
 20
2380.6100000000001
 30
0.0
 70
    32
  0
VERTEX
  5
8995
  8
0
 10
2683.0500000000002
 20
2380.6100000000001
 30
0.0
 70
    32
  0
VERTEX
  5
8996
  8
0
 10
2683.0599999999999
 20
2380.5999999999999
 30
0.0
 70
    32
  0
VERTEX
  5
8997
  8
0
 10
2683.0599999999999
 20
2380.5999999999999
 30
0.0
 70
    32
  0
VERTEX
  5
8998
  8
0
 10
2683.0599999999999
 20
2380.5900000000001
 30
0.0
 70
    32
  0
VERTEX
  5
8999
  8
0
 10
2683.0700000000011
 20
2380.5900000000001
 30
0.0
 70
    32
  0
VERTEX
  5
899A
  8
0
 10
2683.0700000000011
 20
2380.5900000000001
 30
0.0
 70
    32
  0
VERTEX
  5
899B
  8
0
 10
2683.0700000000011
 20
2380.5799999999999
 30
0.0
 70
    32
  0
VERTEX
  5
899C
  8
0
 10
2683.0799999999999
 20
2380.5799999999999
 30
0.0
 70
    32
  0
VERTEX
  5
899D
  8
0
 10
2683.0799999999999
 20
2380.5700000000002
 30
0.0
 70
    32
  0
SEQEND
  5
899E
  8
0
  0
LINE
  5
8242
  8
0
 10
2682.796352902817
 20
2380.2478890132802
 30
0.0
 11
2682.796352902817
 21
2380.0812392122289
 31
0.0
  0
LINE
  5
8243
  8
0
 10
2682.131316534078
 20
2380.0812392122289
 30
0.0
 11
2682.131316534078
 21
2380.3067065901218
 31
0.0
  0
LINE
  5
8244
  8
0
 10
2682.796352902817
 20
2380.2478890132802
 30
0.0
 11
2682.757233116421
 21
2380.3067065901218
 31
0.0
  0
LINE
  5
8245
  8
0
 10
2682.757233116421
 20
2380.3067065901218
 30
0.0
 11
2682.6447637305309
 21
2380.365524166964
 31
0.0
  0
LINE
  5
8246
  8
0
 10
2682.6447637305309
 20
2380.365524166964
 30
0.0
 11
2682.5860840509372
 21
2380.4145388143311
 31
0.0
  0
LINE
  5
8247
  8
0
 10
2682.5860840509372
 20
2380.4145388143311
 30
0.0
 11
2682.414934985452
 21
2380.4145388143311
 31
0.0
  0
LINE
  5
8248
  8
0
 10
2682.414934985452
 20
2380.4145388143311
 30
0.0
 11
2682.307355572862
 21
2380.365524166964
 31
0.0
  0
LINE
  5
8249
  8
0
 10
2682.307355572862
 20
2380.365524166964
 30
0.0
 11
2682.253565866567
 21
2380.365524166964
 31
0.0
  0
LINE
  5
824A
  8
0
 10
2682.253565866567
 20
2380.365524166964
 30
0.0
 11
2682.1362065073772
 21
2380.3067065901218
 31
0.0
  0
LINE
  5
824B
  8
0
 10
2681.466280165339
 20
2382.4241393564221
 30
0.0
 11
2681.466280165339
 21
2382.2476866258971
 31
0.0
  0
LINE
  5
824C
  8
0
 10
2681.466280165339
 20
2382.2476866258971
 30
0.0
 11
2682.185106240373
 21
2381.5320727743228
 31
0.0
  0
LINE
  5
824D
  8
0
 10
2680.9772828353839
 20
2381.9732046006361
 30
0.0
 11
2681.1875516872651
 21
2381.914387023794
 31
0.0
  0
LINE
  5
824E
  8
0
 10
2681.1875516872651
 20
2381.914387023794
 30
0.0
 11
2681.8574780293029
 21
2381.1987731722202
 31
0.0
  0
LINE
  5
824F
  8
0
 10
2683.9699464947089
 20
2379.865574763809
 30
0.0
 11
2683.7890174826271
 21
2379.865574763809
 31
0.0
  0
LINE
  5
8250
  8
0
 10
2683.7890174826271
 20
2379.865574763809
 30
0.0
 11
2683.079971354191
 21
2380.5811886153829
 31
0.0
  0
LINE
  5
8251
  8
0
 10
2684.0286261743049
 20
2381.914387023794
 30
0.0
 11
2683.798797429225
 21
2381.914387023794
 31
0.0
  0
LINE
  5
8252
  8
0
 10
2683.798797429225
 20
2381.914387023794
 30
0.0
 11
2683.079971354191
 21
2381.1987731722202
 31
0.0
  0
LINE
  5
8253
  8
0
 10
2681.4173804323432
 20
2379.414640008024
 30
0.0
 11
2681.4173804323432
 21
2379.5812898090749
 31
0.0
  0
LINE
  5
8254
  8
0
 10
2681.4173804323432
 20
2379.5812898090749
 30
0.0
 11
2682.1264265607779
 21
2380.3067065901218
 31
0.0
  0
LINE
  5
8255
  8
0
 10
2683.5200689511498
 20
2382.36532177958
 30
0.0
 11
2683.5200689511498
 21
2382.1986719785291
 31
0.0
  0
LINE
  5
8256
  8
0
 10
2683.5200689511498
 20
2382.1986719785291
 30
0.0
 11
2682.8012428761158
 21
2381.4732551974821
 31
0.0
  0
LINE
  5
8257
  8
0
 10
2680.9772828353839
 20
2379.865574763809
 30
0.0
 11
2681.1386519542689
 21
2379.865574763809
 31
0.0
  0
LINE
  5
8258
  8
0
 10
2681.1386519542689
 20
2379.865574763809
 30
0.0
 11
2681.8574780293029
 21
2380.5811886153829
 31
0.0
  0
LINE
  5
8259
  8
0
 10
2683.5200689511498
 20
2379.365625360655
 30
0.0
 11
2683.5200689511498
 21
2379.5322751617068
 31
0.0
  0
LINE
  5
825A
  8
0
 10
2683.5200689511498
 20
2379.5322751617068
 30
0.0
 11
2682.8012428761158
 21
2380.2478890132802
 31
0.0
  0
LINE
  5
825B
  8
0
 10
2683.5200689511498
 20
2379.5322751617068
 30
0.0
 11
2683.7890174826271
 21
2379.865574763809
 31
0.0
  0
LINE
  5
825C
  8
0
 10
2683.7939074559258
 20
2381.914387023794
 30
0.0
 11
2683.524958924449
 21
2382.1986719785291
 31
0.0
  0
LINE
  5
825D
  8
0
 10
2681.1337619809692
 20
2379.865574763809
 30
0.0
 11
2681.412490459044
 21
2379.5812898090749
 31
0.0
  0
LINE
  5
825E
  8
0
 10
2681.466280165339
 20
2382.2476866258971
 30
0.0
 11
2681.197331633864
 21
2381.914387023794
 31
0.0
  0
LINE
  5
8265
  8
0
 10
2652.5200689511498
 20
2379.365625360655
 30
0.0
 11
2652.9699464947089
 21
2379.865574763809
 31
0.0
  0
LINE
  5
8266
  8
0
 10
2652.9699464947089
 20
2379.865574763809
 30
0.0
 11
2652.30980009927
 21
2380.5811886153829
 31
0.0
  0
LINE
  5
8267
  8
0
 10
2652.3049101259712
 20
2381.1987731722202
 30
0.0
 11
2652.1973307133808
 21
2380.865473570118
 31
0.0
  0
LINE
  5
8268
  8
0
 10
2652.1973307133808
 20
2380.865473570118
 30
0.0
 11
2652.3049101259712
 21
2380.5713856859088
 31
0.0
  0
LINE
  5
8269
  8
0
 10
2652.3049101259712
 20
2381.1987731722202
 30
0.0
 11
2653.0237362010039
 21
2381.914387023794
 31
0.0
  0
LINE
  5
826A
  8
0
 10
2653.0237362010039
 20
2381.914387023794
 30
0.0
 11
2652.5151789778511
 21
2382.36532177958
 31
0.0
  0
LINE
  5
826B
  8
0
 10
2652.5151789778511
 20
2382.36532177958
 30
0.0
 11
2651.796352902817
 21
2381.6987225753751
 31
0.0
  0
LINE
  5
826C
  8
0
 10
2651.1899962136722
 20
2381.747737222744
 30
0.0
 11
2651.5225143980419
 21
2381.5810874216909
 31
0.0
  0
LINE
  5
826D
  8
0
 10
2651.5225143980419
 20
2381.5810874216909
 30
0.0
 11
2651.8012428761158
 21
2381.6987225753751
 31
0.0
  0
LINE
  5
826E
  8
0
 10
2651.1899962136722
 20
2381.747737222744
 30
0.0
 11
2650.4711701386391
 21
2382.4241393564221
 31
0.0
  0
LINE
  5
826F
  8
0
 10
2650.4711701386391
 20
2382.4241393564221
 30
0.0
 11
2649.977282835383
 21
2381.9732046006361
 31
0.0
  0
LINE
  5
8270
  8
0
 10
2649.977282835383
 20
2381.9732046006361
 30
0.0
 11
2650.6912189371192
 21
2381.2477878195891
 31
0.0
  0
LINE
  5
8271
  8
0
 10
2650.6423192041229
 20
2380.5811886153829
 30
0.0
 11
2650.8134682696068
 21
2380.914488217486
 31
0.0
  0
LINE
  5
8272
  8
0
 10
2650.8134682696068
 20
2380.914488217486
 30
0.0
 11
2650.6912189371192
 21
2381.2477878195891
 31
0.0
  0
LINE
  5
8273
  8
0
 10
2650.6423192041229
 20
2380.5811886153829
 30
0.0
 11
2649.9821728086831
 21
2379.865574763809
 31
0.0
  0
LINE
  5
8274
  8
0
 10
2649.9821728086831
 20
2379.865574763809
 30
0.0
 11
2650.4222704056428
 21
2379.414640008024
 31
0.0
  0
LINE
  5
8275
  8
0
 10
2650.4222704056428
 20
2379.414640008024
 30
0.0
 11
2651.131316534078
 21
2380.0812392122289
 31
0.0
  0
LINE
  5
8276
  8
0
 10
2651.796352902817
 20
2380.0812392122289
 30
0.0
 11
2651.4638347184468
 21
2380.1988743659131
 31
0.0
  0
LINE
  5
8277
  8
0
 10
2651.4638347184468
 20
2380.1988743659131
 30
0.0
 11
2651.1362065073781
 21
2380.0812392122289
 31
0.0
  0
LINE
  5
8278
  8
0
 10
2652.5200689511498
 20
2379.365625360655
 30
0.0
 11
2651.8012428761158
 21
2380.0812392122289
 31
0.0
  0
LINE
  5
827B
  8
0
 10
2650.8574780293029
 20
2380.5811886153829
 30
0.0
 11
2650.6472091774231
 21
2380.5811886153829
 31
0.0
  0
LINE
  5
827C
  8
0
 10
2650.6912189371192
 20
2381.2477878195891
 30
0.0
 11
2650.862368002603
 21
2381.1987731722202
 31
0.0
  0
POLYLINE
  5
899F
  8
0
 66
     1
 10
0.0
 20
0.0
 30
0.0
 70
     8
  0
VERTEX
  5
89A0
  8
0
 10
2650.8600000000001
 20
2380.5799999999999
 30
0.0
 70
    32
  0
VERTEX
  5
89A1
  8
0
 10
2650.8600000000001
 20
2380.5900000000001
 30
0.0
 70
    32
  0
VERTEX
  5
89A2
  8
0
 10
2650.8699999999999
 20
2380.5900000000001
 30
0.0
 70
    32
  0
VERTEX
  5
89A3
  8
0
 10
2650.8699999999999
 20
2380.5999999999999
 30
0.0
 70
    32
  0
VERTEX
  5
89A4
  8
0
 10
2650.8800000000001
 20
2380.5999999999999
 30
0.0
 70
    32
  0
VERTEX
  5
89A5
  8
0
 10
2650.8800000000001
 20
2380.6100000000001
 30
0.0
 70
    32
  0
VERTEX
  5
89A6
  8
0
 10
2650.8899999999999
 20
2380.6100000000001
 30
0.0
 70
    32
  0
VERTEX
  5
89A7
  8
0
 10
2650.8899999999999
 20
2380.6199999999999
 30
0.0
 70
    32
  0
VERTEX
  5
89A8
  8
0
 10
2650.9000000000001
 20
2380.6199999999999
 30
0.0
 70
    32
  0
VERTEX
  5
89A9
  8
0
 10
2650.9000000000001
 20
2380.6300000000001
 30
0.0
 70
    32
  0
VERTEX
  5
89AA
  8
0
 10
2650.9000000000001
 20
2380.6399999999999
 30
0.0
 70
    32
  0
VERTEX
  5
89AB
  8
0
 10
2650.9099999999999
 20
2380.6399999999999
 30
0.0
 70
    32
  0
VERTEX
  5
89AC
  8
0
 10
2650.9099999999999
 20
2380.6500000000001
 30
0.0
 70
    32
  0
VERTEX
  5
89AD
  8
0
 10
2650.9200000000001
 20
2380.6500000000001
 30
0.0
 70
    32
  0
VERTEX
  5
89AE
  8
0
 10
2650.9200000000001
 20
2380.6599999999999
 30
0.0
 70
    32
  0
VERTEX
  5
89AF
  8
0
 10
2650.9200000000001
 20
2380.6599999999999
 30
0.0
 70
    32
  0
VERTEX
  5
89B0
  8
0
 10
2650.9299999999998
 20
2380.6700000000001
 30
0.0
 70
    32
  0
VERTEX
  5
89B1
  8
0
 10
2650.9299999999998
 20
2380.6700000000001
 30
0.0
 70
    32
  0
VERTEX
  5
89B2
  8
0
 10
2650.9400000000001
 20
2380.6799999999998
 30
0.0
 70
    32
  0
VERTEX
  5
89B3
  8
0
 10
2650.9400000000001
 20
2380.6799999999998
 30
0.0
 70
    32
  0
VERTEX
  5
89B4
  8
0
 10
2650.9400000000001
 20
2380.6900000000001
 30
0.0
 70
    32
  0
VERTEX
  5
89B5
  8
0
 10
2650.9499999999998
 20
2380.6900000000001
 30
0.0
 70
    32
  0
VERTEX
  5
89B6
  8
0
 10
2650.9499999999998
 20
2380.6999999999998
 30
0.0
 70
    32
  0
VERTEX
  5
89B7
  8
0
 10
2650.9499999999998
 20
2380.6999999999998
 30
0.0
 70
    32
  0
VERTEX
  5
89B8
  8
0
 10
2650.96
 20
2380.71
 30
0.0
 70
    32
  0
VERTEX
  5
89B9
  8
0
 10
2650.96
 20
2380.71
 30
0.0
 70
    32
  0
VERTEX
  5
89BA
  8
0
 10
2650.96
 20
2380.7199999999998
 30
0.0
 70
    32
  0
VERTEX
  5
89BB
  8
0
 10
2650.9699999999998
 20
2380.7199999999998
 30
0.0
 70
    32
  0
VERTEX
  5
89BC
  8
0
 10
2650.9699999999998
 20
2380.73
 30
0.0
 70
    32
  0
VERTEX
  5
89BD
  8
0
 10
2650.9699999999998
 20
2380.73
 30
0.0
 70
    32
  0
VERTEX
  5
89BE
  8
0
 10
2650.9800000000009
 20
2380.7399999999998
 30
0.0
 70
    32
  0
VERTEX
  5
89BF
  8
0
 10
2650.9800000000009
 20
2380.7399999999998
 30
0.0
 70
    32
  0
VERTEX
  5
89C0
  8
0
 10
2650.9800000000009
 20
2380.75
 30
0.0
 70
    32
  0
VERTEX
  5
89C1
  8
0
 10
2650.9800000000009
 20
2380.75
 30
0.0
 70
    32
  0
VERTEX
  5
89C2
  8
0
 10
2650.9899999999998
 20
2380.7600000000002
 30
0.0
 70
    32
  0
VERTEX
  5
89C3
  8
0
 10
2650.9899999999998
 20
2380.7600000000002
 30
0.0
 70
    32
  0
VERTEX
  5
89C4
  8
0
 10
2650.9899999999998
 20
2380.77
 30
0.0
 70
    32
  0
VERTEX
  5
89C5
  8
0
 10
2650.9899999999998
 20
2380.77
 30
0.0
 70
    32
  0
VERTEX
  5
89C6
  8
0
 10
2651.0
 20
2380.7800000000011
 30
0.0
 70
    32
  0
VERTEX
  5
89C7
  8
0
 10
2651.0
 20
2380.7800000000011
 30
0.0
 70
    32
  0
VERTEX
  5
89C8
  8
0
 10
2651.0
 20
2380.79
 30
0.0
 70
    32
  0
VERTEX
  5
89C9
  8
0
 10
2651.0
 20
2380.79
 30
0.0
 70
    32
  0
VERTEX
  5
89CA
  8
0
 10
2651.0100000000002
 20
2380.79
 30
0.0
 70
    32
  0
VERTEX
  5
89CB
  8
0
 10
2651.0100000000002
 20
2380.8000000000002
 30
0.0
 70
    32
  0
VERTEX
  5
89CC
  8
0
 10
2651.0100000000002
 20
2380.8000000000002
 30
0.0
 70
    32
  0
VERTEX
  5
89CD
  8
0
 10
2651.0100000000002
 20
2380.8099999999999
 30
0.0
 70
    32
  0
VERTEX
  5
89CE
  8
0
 10
2651.0100000000002
 20
2380.8099999999999
 30
0.0
 70
    32
  0
VERTEX
  5
89CF
  8
0
 10
2651.0100000000002
 20
2380.8200000000002
 30
0.0
 70
    32
  0
VERTEX
  5
89D0
  8
0
 10
2651.02
 20
2380.8200000000002
 30
0.0
 70
    32
  0
VERTEX
  5
89D1
  8
0
 10
2651.02
 20
2380.8299999999999
 30
0.0
 70
    32
  0
VERTEX
  5
89D2
  8
0
 10
2651.02
 20
2380.8299999999999
 30
0.0
 70
    32
  0
VERTEX
  5
89D3
  8
0
 10
2651.02
 20
2380.8400000000001
 30
0.0
 70
    32
  0
VERTEX
  5
89D4
  8
0
 10
2651.02
 20
2380.8400000000001
 30
0.0
 70
    32
  0
VERTEX
  5
89D5
  8
0
 10
2651.02
 20
2380.8499999999999
 30
0.0
 70
    32
  0
VERTEX
  5
89D6
  8
0
 10
2651.02
 20
2380.8499999999999
 30
0.0
 70
    32
  0
VERTEX
  5
89D7
  8
0
 10
2651.02
 20
2380.8600000000001
 30
0.0
 70
    32
  0
VERTEX
  5
89D8
  8
0
 10
2651.0300000000002
 20
2380.8600000000001
 30
0.0
 70
    32
  0
VERTEX
  5
89D9
  8
0
 10
2651.0300000000002
 20
2380.8600000000001
 30
0.0
 70
    32
  0
VERTEX
  5
89DA
  8
0
 10
2651.0300000000002
 20
2380.8699999999999
 30
0.0
 70
    32
  0
VERTEX
  5
89DB
  8
0
 10
2651.0300000000002
 20
2380.8699999999999
 30
0.0
 70
    32
  0
VERTEX
  5
89DC
  8
0
 10
2651.0300000000002
 20
2380.8800000000001
 30
0.0
 70
    32
  0
VERTEX
  5
89DD
  8
0
 10
2651.0300000000002
 20
2380.8800000000001
 30
0.0
 70
    32
  0
VERTEX
  5
89DE
  8
0
 10
2651.0300000000002
 20
2380.8899999999999
 30
0.0
 70
    32
  0
VERTEX
  5
89DF
  8
0
 10
2651.0300000000002
 20
2380.8899999999999
 30
0.0
 70
    32
  0
VERTEX
  5
89E0
  8
0
 10
2651.0300000000002
 20
2380.9000000000001
 30
0.0
 70
    32
  0
VERTEX
  5
89E1
  8
0
 10
2651.0300000000002
 20
2380.9000000000001
 30
0.0
 70
    32
  0
VERTEX
  5
89E2
  8
0
 10
2651.0300000000002
 20
2380.9099999999999
 30
0.0
 70
    32
  0
VERTEX
  5
89E3
  8
0
 10
2651.0300000000002
 20
2380.9099999999999
 30
0.0
 70
    32
  0
VERTEX
  5
89E4
  8
0
 10
2651.0300000000002
 20
2380.9200000000001
 30
0.0
 70
    32
  0
VERTEX
  5
89E5
  8
0
 10
2651.0300000000002
 20
2380.9200000000001
 30
0.0
 70
    32
  0
VERTEX
  5
89E6
  8
0
 10
2651.0300000000002
 20
2380.9299999999998
 30
0.0
 70
    32
  0
VERTEX
  5
89E7
  8
0
 10
2651.0300000000002
 20
2380.9299999999998
 30
0.0
 70
    32
  0
VERTEX
  5
89E8
  8
0
 10
2651.0300000000002
 20
2380.9299999999998
 30
0.0
 70
    32
  0
VERTEX
  5
89E9
  8
0
 10
2651.0300000000002
 20
2380.9400000000001
 30
0.0
 70
    32
  0
VERTEX
  5
89EA
  8
0
 10
2651.0300000000002
 20
2380.9400000000001
 30
0.0
 70
    32
  0
VERTEX
  5
89EB
  8
0
 10
2651.0300000000002
 20
2380.9499999999998
 30
0.0
 70
    32
  0
VERTEX
  5
89EC
  8
0
 10
2651.0300000000002
 20
2380.9499999999998
 30
0.0
 70
    32
  0
VERTEX
  5
89ED
  8
0
 10
2651.0300000000002
 20
2380.96
 30
0.0
 70
    32
  0
VERTEX
  5
89EE
  8
0
 10
2651.02
 20
2380.96
 30
0.0
 70
    32
  0
VERTEX
  5
89EF
  8
0
 10
2651.02
 20
2380.9699999999998
 30
0.0
 70
    32
  0
VERTEX
  5
89F0
  8
0
 10
2651.02
 20
2380.9699999999998
 30
0.0
 70
    32
  0
VERTEX
  5
89F1
  8
0
 10
2651.02
 20
2380.98
 30
0.0
 70
    32
  0
VERTEX
  5
89F2
  8
0
 10
2651.02
 20
2380.98
 30
0.0
 70
    32
  0
VERTEX
  5
89F3
  8
0
 10
2651.02
 20
2380.9899999999998
 30
0.0
 70
    32
  0
VERTEX
  5
89F4
  8
0
 10
2651.02
 20
2380.9899999999998
 30
0.0
 70
    32
  0
VERTEX
  5
89F5
  8
0
 10
2651.0100000000002
 20
2381.0
 30
0.0
 70
    32
  0
VERTEX
  5
89F6
  8
0
 10
2651.0100000000002
 20
2381.0
 30
0.0
 70
    32
  0
VERTEX
  5
89F7
  8
0
 10
2651.0100000000002
 20
2381.0
 30
0.0
 70
    32
  0
VERTEX
  5
89F8
  8
0
 10
2651.0100000000002
 20
2381.0100000000002
 30
0.0
 70
    32
  0
VERTEX
  5
89F9
  8
0
 10
2651.0100000000002
 20
2381.0100000000002
 30
0.0
 70
    32
  0
VERTEX
  5
89FA
  8
0
 10
2651.0
 20
2381.02
 30
0.0
 70
    32
  0
VERTEX
  5
89FB
  8
0
 10
2651.0
 20
2381.02
 30
0.0
 70
    32
  0
VERTEX
  5
89FC
  8
0
 10
2651.0
 20
2381.0300000000002
 30
0.0
 70
    32
  0
VERTEX
  5
89FD
  8
0
 10
2651.0
 20
2381.0300000000002
 30
0.0
 70
    32
  0
VERTEX
  5
89FE
  8
0
 10
2651.0
 20
2381.04
 30
0.0
 70
    32
  0
VERTEX
  5
89FF
  8
0
 10
2650.9899999999998
 20
2381.04
 30
0.0
 70
    32
  0
VERTEX
  5
8A00
  8
0
 10
2650.9899999999998
 20
2381.0500000000002
 30
0.0
 70
    32
  0
VERTEX
  5
8A01
  8
0
 10
2650.9899999999998
 20
2381.0500000000002
 30
0.0
 70
    32
  0
VERTEX
  5
8A02
  8
0
 10
2650.9800000000009
 20
2381.0599999999999
 30
0.0
 70
    32
  0
VERTEX
  5
8A03
  8
0
 10
2650.9800000000009
 20
2381.0599999999999
 30
0.0
 70
    32
  0
VERTEX
  5
8A04
  8
0
 10
2650.9800000000009
 20
2381.0700000000002
 30
0.0
 70
    32
  0
VERTEX
  5
8A05
  8
0
 10
2650.9800000000009
 20
2381.0700000000002
 30
0.0
 70
    32
  0
VERTEX
  5
8A06
  8
0
 10
2650.9699999999998
 20
2381.0799999999999
 30
0.0
 70
    32
  0
VERTEX
  5
8A07
  8
0
 10
2650.9699999999998
 20
2381.0799999999999
 30
0.0
 70
    32
  0
VERTEX
  5
8A08
  8
0
 10
2650.9699999999998
 20
2381.0900000000001
 30
0.0
 70
    32
  0
VERTEX
  5
8A09
  8
0
 10
2650.96
 20
2381.0900000000001
 30
0.0
 70
    32
  0
VERTEX
  5
8A0A
  8
0
 10
2650.96
 20
2381.0999999999999
 30
0.0
 70
    32
  0
VERTEX
  5
8A0B
  8
0
 10
2650.9499999999998
 20
2381.0999999999999
 30
0.0
 70
    32
  0
VERTEX
  5
8A0C
  8
0
 10
2650.9499999999998
 20
2381.1100000000001
 30
0.0
 70
    32
  0
VERTEX
  5
8A0D
  8
0
 10
2650.9499999999998
 20
2381.1100000000001
 30
0.0
 70
    32
  0
VERTEX
  5
8A0E
  8
0
 10
2650.9400000000001
 20
2381.1199999999999
 30
0.0
 70
    32
  0
VERTEX
  5
8A0F
  8
0
 10
2650.9400000000001
 20
2381.1199999999999
 30
0.0
 70
    32
  0
VERTEX
  5
8A10
  8
0
 10
2650.9299999999998
 20
2381.1300000000001
 30
0.0
 70
    32
  0
VERTEX
  5
8A11
  8
0
 10
2650.9299999999998
 20
2381.1300000000001
 30
0.0
 70
    32
  0
VERTEX
  5
8A12
  8
0
 10
2650.9299999999998
 20
2381.1399999999999
 30
0.0
 70
    32
  0
VERTEX
  5
8A13
  8
0
 10
2650.9200000000001
 20
2381.1399999999999
 30
0.0
 70
    32
  0
VERTEX
  5
8A14
  8
0
 10
2650.9200000000001
 20
2381.1500000000001
 30
0.0
 70
    32
  0
VERTEX
  5
8A15
  8
0
 10
2650.9099999999999
 20
2381.1500000000001
 30
0.0
 70
    32
  0
VERTEX
  5
8A16
  8
0
 10
2650.9099999999999
 20
2381.1599999999999
 30
0.0
 70
    32
  0
VERTEX
  5
8A17
  8
0
 10
2650.9000000000001
 20
2381.1700000000001
 30
0.0
 70
    32
  0
VERTEX
  5
8A18
  8
0
 10
2650.9000000000001
 20
2381.1700000000001
 30
0.0
 70
    32
  0
VERTEX
  5
8A19
  8
0
 10
2650.8899999999999
 20
2381.1799999999998
 30
0.0
 70
    32
  0
VERTEX
  5
8A1A
  8
0
 10
2650.8899999999999
 20
2381.1799999999998
 30
0.0
 70
    32
  0
VERTEX
  5
8A1B
  8
0
 10
2650.8800000000001
 20
2381.1900000000001
 30
0.0
 70
    32
  0
VERTEX
  5
8A1C
  8
0
 10
2650.8699999999999
 20
2381.1900000000001
 30
0.0
 70
    32
  0
VERTEX
  5
8A1D
  8
0
 10
2650.8699999999999
 20
2381.1999999999998
 30
0.0
 70
    32
  0
VERTEX
  5
8A1E
  8
0
 10
2650.8600000000001
 20
2381.1999999999998
 30
0.0
 70
    32
  0
VERTEX
  5
8A1F
  8
0
 10
2650.8600000000001
 20
2381.21
 30
0.0
 70
    32
  0
SEQEND
  5
8A20
  8
0
  0
LINE
  5
827E
  8
0
 10
2651.1899962136722
 20
2381.5320727743228
 30
0.0
 11
2651.1899962136722
 21
2381.7379342932691
 31
0.0
  0
LINE
  5
827F
  8
0
 10
2651.796352902817
 20
2381.6987225753751
 30
0.0
 11
2651.796352902817
 21
2381.4732551974821
 31
0.0
  0
POLYLINE
  5
8A21
  8
0
 66
     1
 10
0.0
 20
0.0
 30
0.0
 70
     8
  0
VERTEX
  5
8A22
  8
0
 10
2651.1900000000001
 20
2381.5300000000011
 30
0.0
 70
    32
  0
VERTEX
  5
8A23
  8
0
 10
2651.1900000000001
 20
2381.5300000000011
 30
0.0
 70
    32
  0
VERTEX
  5
8A24
  8
0
 10
2651.1999999999998
 20
2381.52
 30
0.0
 70
    32
  0
VERTEX
  5
8A25
  8
0
 10
2651.1999999999998
 20
2381.52
 30
0.0
 70
    32
  0
VERTEX
  5
8A26
  8
0
 10
2651.21
 20
2381.5100000000002
 30
0.0
 70
    32
  0
VERTEX
  5
8A27
  8
0
 10
2651.21
 20
2381.5100000000002
 30
0.0
 70
    32
  0
VERTEX
  5
8A28
  8
0
 10
2651.21
 20
2381.5
 30
0.0
 70
    32
  0
VERTEX
  5
8A29
  8
0
 10
2651.2199999999998
 20
2381.5
 30
0.0
 70
    32
  0
VERTEX
  5
8A2A
  8
0
 10
2651.2199999999998
 20
2381.4899999999998
 30
0.0
 70
    32
  0
VERTEX
  5
8A2B
  8
0
 10
2651.23
 20
2381.4899999999998
 30
0.0
 70
    32
  0
VERTEX
  5
8A2C
  8
0
 10
2651.23
 20
2381.48
 30
0.0
 70
    32
  0
VERTEX
  5
8A2D
  8
0
 10
2651.2399999999998
 20
2381.48
 30
0.0
 70
    32
  0
VERTEX
  5
8A2E
  8
0
 10
2651.2399999999998
 20
2381.4699999999998
 30
0.0
 70
    32
  0
VERTEX
  5
8A2F
  8
0
 10
2651.2399999999998
 20
2381.4699999999998
 30
0.0
 70
    32
  0
VERTEX
  5
8A30
  8
0
 10
2651.25
 20
2381.4699999999998
 30
0.0
 70
    32
  0
VERTEX
  5
8A31
  8
0
 10
2651.25
 20
2381.46
 30
0.0
 70
    32
  0
VERTEX
  5
8A32
  8
0
 10
2651.2600000000011
 20
2381.46
 30
0.0
 70
    32
  0
VERTEX
  5
8A33
  8
0
 10
2651.2600000000011
 20
2381.4499999999998
 30
0.0
 70
    32
  0
VERTEX
  5
8A34
  8
0
 10
2651.27
 20
2381.4499999999998
 30
0.0
 70
    32
  0
VERTEX
  5
8A35
  8
0
 10
2651.27
 20
2381.4499999999998
 30
0.0
 70
    32
  0
VERTEX
  5
8A36
  8
0
 10
2651.2800000000002
 20
2381.4400000000001
 30
0.0
 70
    32
  0
VERTEX
  5
8A37
  8
0
 10
2651.2800000000002
 20
2381.4400000000001
 30
0.0
 70
    32
  0
VERTEX
  5
8A38
  8
0
 10
2651.2800000000002
 20
2381.4400000000001
 30
0.0
 70
    32
  0
VERTEX
  5
8A39
  8
0
 10
2651.29
 20
2381.4299999999998
 30
0.0
 70
    32
  0
VERTEX
  5
8A3A
  8
0
 10
2651.29
 20
2381.4299999999998
 30
0.0
 70
    32
  0
VERTEX
  5
8A3B
  8
0
 10
2651.3000000000002
 20
2381.4299999999998
 30
0.0
 70
    32
  0
VERTEX
  5
8A3C
  8
0
 10
2651.3000000000002
 20
2381.4200000000001
 30
0.0
 70
    32
  0
VERTEX
  5
8A3D
  8
0
 10
2651.3099999999999
 20
2381.4200000000001
 30
0.0
 70
    32
  0
VERTEX
  5
8A3E
  8
0
 10
2651.3099999999999
 20
2381.4200000000001
 30
0.0
 70
    32
  0
VERTEX
  5
8A3F
  8
0
 10
2651.3200000000002
 20
2381.4099999999999
 30
0.0
 70
    32
  0
VERTEX
  5
8A40
  8
0
 10
2651.3200000000002
 20
2381.4099999999999
 30
0.0
 70
    32
  0
VERTEX
  5
8A41
  8
0
 10
2651.3299999999999
 20
2381.4099999999999
 30
0.0
 70
    32
  0
VERTEX
  5
8A42
  8
0
 10
2651.3299999999999
 20
2381.4099999999999
 30
0.0
 70
    32
  0
VERTEX
  5
8A43
  8
0
 10
2651.3400000000001
 20
2381.4000000000001
 30
0.0
 70
    32
  0
VERTEX
  5
8A44
  8
0
 10
2651.3400000000001
 20
2381.4000000000001
 30
0.0
 70
    32
  0
VERTEX
  5
8A45
  8
0
 10
2651.3400000000001
 20
2381.4000000000001
 30
0.0
 70
    32
  0
VERTEX
  5
8A46
  8
0
 10
2651.3499999999999
 20
2381.4000000000001
 30
0.0
 70
    32
  0
VERTEX
  5
8A47
  8
0
 10
2651.3499999999999
 20
2381.3899999999999
 30
0.0
 70
    32
  0
VERTEX
  5
8A48
  8
0
 10
2651.3600000000001
 20
2381.3899999999999
 30
0.0
 70
    32
  0
VERTEX
  5
8A49
  8
0
 10
2651.3600000000001
 20
2381.3899999999999
 30
0.0
 70
    32
  0
VERTEX
  5
8A4A
  8
0
 10
2651.3699999999999
 20
2381.3899999999999
 30
0.0
 70
    32
  0
VERTEX
  5
8A4B
  8
0
 10
2651.3699999999999
 20
2381.3800000000001
 30
0.0
 70
    32
  0
VERTEX
  5
8A4C
  8
0
 10
2651.3800000000001
 20
2381.3800000000001
 30
0.0
 70
    32
  0
VERTEX
  5
8A4D
  8
0
 10
2651.3800000000001
 20
2381.3800000000001
 30
0.0
 70
    32
  0
VERTEX
  5
8A4E
  8
0
 10
2651.3899999999999
 20
2381.3800000000001
 30
0.0
 70
    32
  0
VERTEX
  5
8A4F
  8
0
 10
2651.3899999999999
 20
2381.3800000000001
 30
0.0
 70
    32
  0
VERTEX
  5
8A50
  8
0
 10
2651.400000000001
 20
2381.3800000000001
 30
0.0
 70
    32
  0
VERTEX
  5
8A51
  8
0
 10
2651.400000000001
 20
2381.3699999999999
 30
0.0
 70
    32
  0
VERTEX
  5
8A52
  8
0
 10
2651.4099999999999
 20
2381.3699999999999
 30
0.0
 70
    32
  0
VERTEX
  5
8A53
  8
0
 10
2651.4099999999999
 20
2381.3699999999999
 30
0.0
 70
    32
  0
VERTEX
  5
8A54
  8
0
 10
2651.4200000000001
 20
2381.3699999999999
 30
0.0
 70
    32
  0
VERTEX
  5
8A55
  8
0
 10
2651.4200000000001
 20
2381.3699999999999
 30
0.0
 70
    32
  0
VERTEX
  5
8A56
  8
0
 10
2651.4299999999998
 20
2381.3699999999999
 30
0.0
 70
    32
  0
VERTEX
  5
8A57
  8
0
 10
2651.4299999999998
 20
2381.3699999999999
 30
0.0
 70
    32
  0
VERTEX
  5
8A58
  8
0
 10
2651.4400000000001
 20
2381.3699999999999
 30
0.0
 70
    32
  0
VERTEX
  5
8A59
  8
0
 10
2651.4400000000001
 20
2381.3600000000001
 30
0.0
 70
    32
  0
VERTEX
  5
8A5A
  8
0
 10
2651.4499999999998
 20
2381.3600000000001
 30
0.0
 70
    32
  0
VERTEX
  5
8A5B
  8
0
 10
2651.4499999999998
 20
2381.3600000000001
 30
0.0
 70
    32
  0
VERTEX
  5
8A5C
  8
0
 10
2651.46
 20
2381.3600000000001
 30
0.0
 70
    32
  0
VERTEX
  5
8A5D
  8
0
 10
2651.46
 20
2381.3600000000001
 30
0.0
 70
    32
  0
VERTEX
  5
8A5E
  8
0
 10
2651.4699999999998
 20
2381.3600000000001
 30
0.0
 70
    32
  0
VERTEX
  5
8A5F
  8
0
 10
2651.4699999999998
 20
2381.3600000000001
 30
0.0
 70
    32
  0
VERTEX
  5
8A60
  8
0
 10
2651.48
 20
2381.3600000000001
 30
0.0
 70
    32
  0
VERTEX
  5
8A61
  8
0
 10
2651.48
 20
2381.3600000000001
 30
0.0
 70
    32
  0
VERTEX
  5
8A62
  8
0
 10
2651.4899999999998
 20
2381.3600000000001
 30
0.0
 70
    32
  0
VERTEX
  5
8A63
  8
0
 10
2651.4899999999998
 20
2381.3600000000001
 30
0.0
 70
    32
  0
VERTEX
  5
8A64
  8
0
 10
2651.5
 20
2381.3600000000001
 30
0.0
 70
    32
  0
VERTEX
  5
8A65
  8
0
 10
2651.5
 20
2381.3600000000001
 30
0.0
 70
    32
  0
VERTEX
  5
8A66
  8
0
 10
2651.5100000000002
 20
2381.3600000000001
 30
0.0
 70
    32
  0
VERTEX
  5
8A67
  8
0
 10
2651.5100000000002
 20
2381.3600000000001
 30
0.0
 70
    32
  0
VERTEX
  5
8A68
  8
0
 10
2651.52
 20
2381.3600000000001
 30
0.0
 70
    32
  0
VERTEX
  5
8A69
  8
0
 10
2651.52
 20
2381.3600000000001
 30
0.0
 70
    32
  0
VERTEX
  5
8A6A
  8
0
 10
2651.5300000000011
 20
2381.3600000000001
 30
0.0
 70
    32
  0
VERTEX
  5
8A6B
  8
0
 10
2651.5300000000011
 20
2381.3600000000001
 30
0.0
 70
    32
  0
VERTEX
  5
8A6C
  8
0
 10
2651.54
 20
2381.3600000000001
 30
0.0
 70
    32
  0
VERTEX
  5
8A6D
  8
0
 10
2651.54
 20
2381.3600000000001
 30
0.0
 70
    32
  0
VERTEX
  5
8A6E
  8
0
 10
2651.5500000000002
 20
2381.3600000000001
 30
0.0
 70
    32
  0
VERTEX
  5
8A6F
  8
0
 10
2651.5500000000002
 20
2381.3600000000001
 30
0.0
 70
    32
  0
VERTEX
  5
8A70
  8
0
 10
2651.5599999999999
 20
2381.3600000000001
 30
0.0
 70
    32
  0
VERTEX
  5
8A71
  8
0
 10
2651.5599999999999
 20
2381.3600000000001
 30
0.0
 70
    32
  0
VERTEX
  5
8A72
  8
0
 10
2651.5700000000002
 20
2381.3600000000001
 30
0.0
 70
    32
  0
VERTEX
  5
8A73
  8
0
 10
2651.5700000000002
 20
2381.3600000000001
 30
0.0
 70
    32
  0
VERTEX
  5
8A74
  8
0
 10
2651.5799999999999
 20
2381.3699999999999
 30
0.0
 70
    32
  0
VERTEX
  5
8A75
  8
0
 10
2651.5799999999999
 20
2381.3699999999999
 30
0.0
 70
    32
  0
VERTEX
  5
8A76
  8
0
 10
2651.5900000000011
 20
2381.3699999999999
 30
0.0
 70
    32
  0
VERTEX
  5
8A77
  8
0
 10
2651.5900000000011
 20
2381.3699999999999
 30
0.0
 70
    32
  0
VERTEX
  5
8A78
  8
0
 10
2651.5999999999999
 20
2381.3699999999999
 30
0.0
 70
    32
  0
VERTEX
  5
8A79
  8
0
 10
2651.5999999999999
 20
2381.3699999999999
 30
0.0
 70
    32
  0
VERTEX
  5
8A7A
  8
0
 10
2651.6100000000001
 20
2381.3699999999999
 30
0.0
 70
    32
  0
VERTEX
  5
8A7B
  8
0
 10
2651.6100000000001
 20
2381.3699999999999
 30
0.0
 70
    32
  0
VERTEX
  5
8A7C
  8
0
 10
2651.6199999999999
 20
2381.3800000000001
 30
0.0
 70
    32
  0
VERTEX
  5
8A7D
  8
0
 10
2651.6199999999999
 20
2381.3800000000001
 30
0.0
 70
    32
  0
VERTEX
  5
8A7E
  8
0
 10
2651.6300000000001
 20
2381.3800000000001
 30
0.0
 70
    32
  0
VERTEX
  5
8A7F
  8
0
 10
2651.6300000000001
 20
2381.3800000000001
 30
0.0
 70
    32
  0
VERTEX
  5
8A80
  8
0
 10
2651.6399999999999
 20
2381.3800000000001
 30
0.0
 70
    32
  0
VERTEX
  5
8A81
  8
0
 10
2651.6399999999999
 20
2381.3800000000001
 30
0.0
 70
    32
  0
VERTEX
  5
8A82
  8
0
 10
2651.6500000000001
 20
2381.3899999999999
 30
0.0
 70
    32
  0
VERTEX
  5
8A83
  8
0
 10
2651.6500000000001
 20
2381.3899999999999
 30
0.0
 70
    32
  0
VERTEX
  5
8A84
  8
0
 10
2651.6599999999999
 20
2381.3899999999999
 30
0.0
 70
    32
  0
VERTEX
  5
8A85
  8
0
 10
2651.6599999999999
 20
2381.3899999999999
 30
0.0
 70
    32
  0
VERTEX
  5
8A86
  8
0
 10
2651.6700000000001
 20
2381.3899999999999
 30
0.0
 70
    32
  0
VERTEX
  5
8A87
  8
0
 10
2651.6700000000001
 20
2381.4000000000001
 30
0.0
 70
    32
  0
VERTEX
  5
8A88
  8
0
 10
2651.6799999999998
 20
2381.4000000000001
 30
0.0
 70
    32
  0
VERTEX
  5
8A89
  8
0
 10
2651.6799999999998
 20
2381.4000000000001
 30
0.0
 70
    32
  0
VERTEX
  5
8A8A
  8
0
 10
2651.6900000000001
 20
2381.4000000000001
 30
0.0
 70
    32
  0
VERTEX
  5
8A8B
  8
0
 10
2651.6900000000001
 20
2381.4099999999999
 30
0.0
 70
    32
  0
VERTEX
  5
8A8C
  8
0
 10
2651.6999999999998
 20
2381.4099999999999
 30
0.0
 70
    32
  0
VERTEX
  5
8A8D
  8
0
 10
2651.6999999999998
 20
2381.4099999999999
 30
0.0
 70
    32
  0
VERTEX
  5
8A8E
  8
0
 10
2651.71
 20
2381.4099999999999
 30
0.0
 70
    32
  0
VERTEX
  5
8A8F
  8
0
 10
2651.71
 20
2381.4200000000001
 30
0.0
 70
    32
  0
VERTEX
  5
8A90
  8
0
 10
2651.7199999999998
 20
2381.4200000000001
 30
0.0
 70
    32
  0
VERTEX
  5
8A91
  8
0
 10
2651.7199999999998
 20
2381.4200000000001
 30
0.0
 70
    32
  0
VERTEX
  5
8A92
  8
0
 10
2651.7300000000009
 20
2381.4200000000001
 30
0.0
 70
    32
  0
VERTEX
  5
8A93
  8
0
 10
2651.7300000000009
 20
2381.4299999999998
 30
0.0
 70
    32
  0
VERTEX
  5
8A94
  8
0
 10
2651.7399999999998
 20
2381.4299999999998
 30
0.0
 70
    32
  0
VERTEX
  5
8A95
  8
0
 10
2651.7399999999998
 20
2381.4299999999998
 30
0.0
 70
    32
  0
VERTEX
  5
8A96
  8
0
 10
2651.75
 20
2381.4400000000001
 30
0.0
 70
    32
  0
VERTEX
  5
8A97
  8
0
 10
2651.75
 20
2381.4400000000001
 30
0.0
 70
    32
  0
VERTEX
  5
8A98
  8
0
 10
2651.7600000000002
 20
2381.4400000000001
 30
0.0
 70
    32
  0
VERTEX
  5
8A99
  8
0
 10
2651.7600000000002
 20
2381.4499999999998
 30
0.0
 70
    32
  0
VERTEX
  5
8A9A
  8
0
 10
2651.77
 20
2381.4499999999998
 30
0.0
 70
    32
  0
VERTEX
  5
8A9B
  8
0
 10
2651.77
 20
2381.4499999999998
 30
0.0
 70
    32
  0
VERTEX
  5
8A9C
  8
0
 10
2651.7800000000002
 20
2381.46
 30
0.0
 70
    32
  0
VERTEX
  5
8A9D
  8
0
 10
2651.7800000000002
 20
2381.46
 30
0.0
 70
    32
  0
VERTEX
  5
8A9E
  8
0
 10
2651.79
 20
2381.46
 30
0.0
 70
    32
  0
VERTEX
  5
8A9F
  8
0
 10
2651.79
 20
2381.4699999999998
 30
0.0
 70
    32
  0
VERTEX
  5
8AA0
  8
0
 10
2651.8000000000002
 20
2381.4699999999998
 30
0.0
 70
    32
  0
VERTEX
  5
8AA1
  8
0
 10
2651.8000000000002
 20
2381.4699999999998
 30
0.0
 70
    32
  0
SEQEND
  5
8AA2
  8
0
  0
LINE
  5
8281
  8
0
 10
2652.079971354191
 20
2381.1987731722202
 30
0.0
 11
2652.3000201526711
 21
2381.1987731722202
 31
0.0
  0
LINE
  5
8282
  8
0
 10
2652.3049101259712
 20
2380.5811886153829
 30
0.0
 11
2652.0848613274911
 21
2380.5811886153829
 31
0.0
  0
POLYLINE
  5
8AA3
  8
0
 66
     1
 10
0.0
 20
0.0
 30
0.0
 70
     8
  0
VERTEX
  5
8AA4
  8
0
 10
2652.0799999999999
 20
2381.1999999999998
 30
0.0
 70
    32
  0
VERTEX
  5
8AA5
  8
0
 10
2652.0799999999999
 20
2381.1900000000001
 30
0.0
 70
    32
  0
VERTEX
  5
8AA6
  8
0
 10
2652.0700000000002
 20
2381.1900000000001
 30
0.0
 70
    32
  0
VERTEX
  5
8AA7
  8
0
 10
2652.0700000000002
 20
2381.1900000000001
 30
0.0
 70
    32
  0
VERTEX
  5
8AA8
  8
0
 10
2652.0700000000002
 20
2381.1799999999998
 30
0.0
 70
    32
  0
VERTEX
  5
8AA9
  8
0
 10
2652.0599999999999
 20
2381.1799999999998
 30
0.0
 70
    32
  0
VERTEX
  5
8AAA
  8
0
 10
2652.0599999999999
 20
2381.1700000000001
 30
0.0
 70
    32
  0
VERTEX
  5
8AAB
  8
0
 10
2652.0599999999999
 20
2381.1700000000001
 30
0.0
 70
    32
  0
VERTEX
  5
8AAC
  8
0
 10
2652.0500000000002
 20
2381.1599999999999
 30
0.0
 70
    32
  0
VERTEX
  5
8AAD
  8
0
 10
2652.0500000000002
 20
2381.1599999999999
 30
0.0
 70
    32
  0
VERTEX
  5
8AAE
  8
0
 10
2652.0500000000002
 20
2381.1500000000001
 30
0.0
 70
    32
  0
VERTEX
  5
8AAF
  8
0
 10
2652.04
 20
2381.1500000000001
 30
0.0
 70
    32
  0
VERTEX
  5
8AB0
  8
0
 10
2652.04
 20
2381.1399999999999
 30
0.0
 70
    32
  0
VERTEX
  5
8AB1
  8
0
 10
2652.04
 20
2381.1399999999999
 30
0.0
 70
    32
  0
VERTEX
  5
8AB2
  8
0
 10
2652.04
 20
2381.1399999999999
 30
0.0
 70
    32
  0
VERTEX
  5
8AB3
  8
0
 10
2652.0300000000002
 20
2381.1300000000001
 30
0.0
 70
    32
  0
VERTEX
  5
8AB4
  8
0
 10
2652.0300000000002
 20
2381.1300000000001
 30
0.0
 70
    32
  0
VERTEX
  5
8AB5
  8
0
 10
2652.0300000000002
 20
2381.1199999999999
 30
0.0
 70
    32
  0
VERTEX
  5
8AB6
  8
0
 10
2652.02
 20
2381.1199999999999
 30
0.0
 70
    32
  0
VERTEX
  5
8AB7
  8
0
 10
2652.02
 20
2381.1100000000001
 30
0.0
 70
    32
  0
VERTEX
  5
8AB8
  8
0
 10
2652.02
 20
2381.1100000000001
 30
0.0
 70
    32
  0
VERTEX
  5
8AB9
  8
0
 10
2652.02
 20
2381.0999999999999
 30
0.0
 70
    32
  0
VERTEX
  5
8ABA
  8
0
 10
2652.0100000000011
 20
2381.0999999999999
 30
0.0
 70
    32
  0
VERTEX
  5
8ABB
  8
0
 10
2652.0100000000011
 20
2381.0900000000001
 30
0.0
 70
    32
  0
VERTEX
  5
8ABC
  8
0
 10
2652.0100000000011
 20
2381.0900000000001
 30
0.0
 70
    32
  0
VERTEX
  5
8ABD
  8
0
 10
2652.0100000000011
 20
2381.0799999999999
 30
0.0
 70
    32
  0
VERTEX
  5
8ABE
  8
0
 10
2652.0100000000011
 20
2381.0799999999999
 30
0.0
 70
    32
  0
VERTEX
  5
8ABF
  8
0
 10
2652.0
 20
2381.0700000000002
 30
0.0
 70
    32
  0
VERTEX
  5
8AC0
  8
0
 10
2652.0
 20
2381.0700000000002
 30
0.0
 70
    32
  0
VERTEX
  5
8AC1
  8
0
 10
2652.0
 20
2381.0599999999999
 30
0.0
 70
    32
  0
VERTEX
  5
8AC2
  8
0
 10
2652.0
 20
2381.0599999999999
 30
0.0
 70
    32
  0
VERTEX
  5
8AC3
  8
0
 10
2652.0
 20
2381.0500000000002
 30
0.0
 70
    32
  0
VERTEX
  5
8AC4
  8
0
 10
2651.9899999999998
 20
2381.0500000000002
 30
0.0
 70
    32
  0
VERTEX
  5
8AC5
  8
0
 10
2651.9899999999998
 20
2381.04
 30
0.0
 70
    32
  0
VERTEX
  5
8AC6
  8
0
 10
2651.9899999999998
 20
2381.04
 30
0.0
 70
    32
  0
VERTEX
  5
8AC7
  8
0
 10
2651.9899999999998
 20
2381.0300000000002
 30
0.0
 70
    32
  0
VERTEX
  5
8AC8
  8
0
 10
2651.9899999999998
 20
2381.0300000000002
 30
0.0
 70
    32
  0
VERTEX
  5
8AC9
  8
0
 10
2651.9899999999998
 20
2381.02
 30
0.0
 70
    32
  0
VERTEX
  5
8ACA
  8
0
 10
2651.98
 20
2381.02
 30
0.0
 70
    32
  0
VERTEX
  5
8ACB
  8
0
 10
2651.98
 20
2381.0100000000002
 30
0.0
 70
    32
  0
VERTEX
  5
8ACC
  8
0
 10
2651.98
 20
2381.0100000000002
 30
0.0
 70
    32
  0
VERTEX
  5
8ACD
  8
0
 10
2651.98
 20
2381.0
 30
0.0
 70
    32
  0
VERTEX
  5
8ACE
  8
0
 10
2651.98
 20
2381.0
 30
0.0
 70
    32
  0
VERTEX
  5
8ACF
  8
0
 10
2651.98
 20
2380.9899999999998
 30
0.0
 70
    32
  0
VERTEX
  5
8AD0
  8
0
 10
2651.98
 20
2380.9899999999998
 30
0.0
 70
    32
  0
VERTEX
  5
8AD1
  8
0
 10
2651.98
 20
2380.98
 30
0.0
 70
    32
  0
VERTEX
  5
8AD2
  8
0
 10
2651.9699999999998
 20
2380.98
 30
0.0
 70
    32
  0
VERTEX
  5
8AD3
  8
0
 10
2651.9699999999998
 20
2380.9699999999998
 30
0.0
 70
    32
  0
VERTEX
  5
8AD4
  8
0
 10
2651.9699999999998
 20
2380.9699999999998
 30
0.0
 70
    32
  0
VERTEX
  5
8AD5
  8
0
 10
2651.9699999999998
 20
2380.96
 30
0.0
 70
    32
  0
VERTEX
  5
8AD6
  8
0
 10
2651.9699999999998
 20
2380.96
 30
0.0
 70
    32
  0
VERTEX
  5
8AD7
  8
0
 10
2651.9699999999998
 20
2380.9499999999998
 30
0.0
 70
    32
  0
VERTEX
  5
8AD8
  8
0
 10
2651.9699999999998
 20
2380.9499999999998
 30
0.0
 70
    32
  0
VERTEX
  5
8AD9
  8
0
 10
2651.9699999999998
 20
2380.9400000000001
 30
0.0
 70
    32
  0
VERTEX
  5
8ADA
  8
0
 10
2651.9699999999998
 20
2380.9400000000001
 30
0.0
 70
    32
  0
VERTEX
  5
8ADB
  8
0
 10
2651.9699999999998
 20
2380.9299999999998
 30
0.0
 70
    32
  0
VERTEX
  5
8ADC
  8
0
 10
2651.9699999999998
 20
2380.9299999999998
 30
0.0
 70
    32
  0
VERTEX
  5
8ADD
  8
0
 10
2651.9699999999998
 20
2380.9200000000001
 30
0.0
 70
    32
  0
VERTEX
  5
8ADE
  8
0
 10
2651.9699999999998
 20
2380.9200000000001
 30
0.0
 70
    32
  0
VERTEX
  5
8ADF
  8
0
 10
2651.9699999999998
 20
2380.9099999999999
 30
0.0
 70
    32
  0
VERTEX
  5
8AE0
  8
0
 10
2651.9699999999998
 20
2380.9099999999999
 30
0.0
 70
    32
  0
VERTEX
  5
8AE1
  8
0
 10
2651.9699999999998
 20
2380.9000000000001
 30
0.0
 70
    32
  0
VERTEX
  5
8AE2
  8
0
 10
2651.9699999999998
 20
2380.9000000000001
 30
0.0
 70
    32
  0
VERTEX
  5
8AE3
  8
0
 10
2651.9699999999998
 20
2380.8899999999999
 30
0.0
 70
    32
  0
VERTEX
  5
8AE4
  8
0
 10
2651.9699999999998
 20
2380.8899999999999
 30
0.0
 70
    32
  0
VERTEX
  5
8AE5
  8
0
 10
2651.9699999999998
 20
2380.8800000000001
 30
0.0
 70
    32
  0
VERTEX
  5
8AE6
  8
0
 10
2651.9699999999998
 20
2380.8800000000001
 30
0.0
 70
    32
  0
VERTEX
  5
8AE7
  8
0
 10
2651.9699999999998
 20
2380.8699999999999
 30
0.0
 70
    32
  0
VERTEX
  5
8AE8
  8
0
 10
2651.9699999999998
 20
2380.8699999999999
 30
0.0
 70
    32
  0
VERTEX
  5
8AE9
  8
0
 10
2651.9699999999998
 20
2380.8600000000001
 30
0.0
 70
    32
  0
VERTEX
  5
8AEA
  8
0
 10
2651.9699999999998
 20
2380.8600000000001
 30
0.0
 70
    32
  0
VERTEX
  5
8AEB
  8
0
 10
2651.9699999999998
 20
2380.8499999999999
 30
0.0
 70
    32
  0
VERTEX
  5
8AEC
  8
0
 10
2651.9699999999998
 20
2380.8400000000001
 30
0.0
 70
    32
  0
VERTEX
  5
8AED
  8
0
 10
2651.9699999999998
 20
2380.8400000000001
 30
0.0
 70
    32
  0
VERTEX
  5
8AEE
  8
0
 10
2651.9699999999998
 20
2380.8299999999999
 30
0.0
 70
    32
  0
VERTEX
  5
8AEF
  8
0
 10
2651.9699999999998
 20
2380.8299999999999
 30
0.0
 70
    32
  0
VERTEX
  5
8AF0
  8
0
 10
2651.9699999999998
 20
2380.8200000000002
 30
0.0
 70
    32
  0
VERTEX
  5
8AF1
  8
0
 10
2651.9699999999998
 20
2380.8200000000002
 30
0.0
 70
    32
  0
VERTEX
  5
8AF2
  8
0
 10
2651.9699999999998
 20
2380.8099999999999
 30
0.0
 70
    32
  0
VERTEX
  5
8AF3
  8
0
 10
2651.9699999999998
 20
2380.8099999999999
 30
0.0
 70
    32
  0
VERTEX
  5
8AF4
  8
0
 10
2651.9699999999998
 20
2380.8000000000002
 30
0.0
 70
    32
  0
VERTEX
  5
8AF5
  8
0
 10
2651.9699999999998
 20
2380.8000000000002
 30
0.0
 70
    32
  0
VERTEX
  5
8AF6
  8
0
 10
2651.98
 20
2380.79
 30
0.0
 70
    32
  0
VERTEX
  5
8AF7
  8
0
 10
2651.98
 20
2380.79
 30
0.0
 70
    32
  0
VERTEX
  5
8AF8
  8
0
 10
2651.98
 20
2380.7800000000011
 30
0.0
 70
    32
  0
VERTEX
  5
8AF9
  8
0
 10
2651.98
 20
2380.7800000000011
 30
0.0
 70
    32
  0
VERTEX
  5
8AFA
  8
0
 10
2651.98
 20
2380.77
 30
0.0
 70
    32
  0
VERTEX
  5
8AFB
  8
0
 10
2651.98
 20
2380.77
 30
0.0
 70
    32
  0
VERTEX
  5
8AFC
  8
0
 10
2651.98
 20
2380.7600000000002
 30
0.0
 70
    32
  0
VERTEX
  5
8AFD
  8
0
 10
2651.98
 20
2380.7600000000002
 30
0.0
 70
    32
  0
VERTEX
  5
8AFE
  8
0
 10
2651.9899999999998
 20
2380.75
 30
0.0
 70
    32
  0
VERTEX
  5
8AFF
  8
0
 10
2651.9899999999998
 20
2380.75
 30
0.0
 70
    32
  0
VERTEX
  5
8B00
  8
0
 10
2651.9899999999998
 20
2380.7399999999998
 30
0.0
 70
    32
  0
VERTEX
  5
8B01
  8
0
 10
2651.9899999999998
 20
2380.7399999999998
 30
0.0
 70
    32
  0
VERTEX
  5
8B02
  8
0
 10
2651.9899999999998
 20
2380.73
 30
0.0
 70
    32
  0
VERTEX
  5
8B03
  8
0
 10
2651.9899999999998
 20
2380.73
 30
0.0
 70
    32
  0
VERTEX
  5
8B04
  8
0
 10
2652.0
 20
2380.7199999999998
 30
0.0
 70
    32
  0
VERTEX
  5
8B05
  8
0
 10
2652.0
 20
2380.7199999999998
 30
0.0
 70
    32
  0
VERTEX
  5
8B06
  8
0
 10
2652.0
 20
2380.71
 30
0.0
 70
    32
  0
VERTEX
  5
8B07
  8
0
 10
2652.0
 20
2380.71
 30
0.0
 70
    32
  0
VERTEX
  5
8B08
  8
0
 10
2652.0
 20
2380.6999999999998
 30
0.0
 70
    32
  0
VERTEX
  5
8B09
  8
0
 10
2652.0100000000011
 20
2380.6999999999998
 30
0.0
 70
    32
  0
VERTEX
  5
8B0A
  8
0
 10
2652.0100000000011
 20
2380.6900000000001
 30
0.0
 70
    32
  0
VERTEX
  5
8B0B
  8
0
 10
2652.0100000000011
 20
2380.6900000000001
 30
0.0
 70
    32
  0
VERTEX
  5
8B0C
  8
0
 10
2652.0100000000011
 20
2380.6799999999998
 30
0.0
 70
    32
  0
VERTEX
  5
8B0D
  8
0
 10
2652.0100000000011
 20
2380.6799999999998
 30
0.0
 70
    32
  0
VERTEX
  5
8B0E
  8
0
 10
2652.02
 20
2380.6700000000001
 30
0.0
 70
    32
  0
VERTEX
  5
8B0F
  8
0
 10
2652.02
 20
2380.6700000000001
 30
0.0
 70
    32
  0
VERTEX
  5
8B10
  8
0
 10
2652.02
 20
2380.6599999999999
 30
0.0
 70
    32
  0
VERTEX
  5
8B11
  8
0
 10
2652.02
 20
2380.6599999999999
 30
0.0
 70
    32
  0
VERTEX
  5
8B12
  8
0
 10
2652.0300000000002
 20
2380.6500000000001
 30
0.0
 70
    32
  0
VERTEX
  5
8B13
  8
0
 10
2652.0300000000002
 20
2380.6500000000001
 30
0.0
 70
    32
  0
VERTEX
  5
8B14
  8
0
 10
2652.0300000000002
 20
2380.6399999999999
 30
0.0
 70
    32
  0
VERTEX
  5
8B15
  8
0
 10
2652.04
 20
2380.6399999999999
 30
0.0
 70
    32
  0
VERTEX
  5
8B16
  8
0
 10
2652.04
 20
2380.6300000000001
 30
0.0
 70
    32
  0
VERTEX
  5
8B17
  8
0
 10
2652.04
 20
2380.6300000000001
 30
0.0
 70
    32
  0
VERTEX
  5
8B18
  8
0
 10
2652.04
 20
2380.6199999999999
 30
0.0
 70
    32
  0
VERTEX
  5
8B19
  8
0
 10
2652.0500000000002
 20
2380.6199999999999
 30
0.0
 70
    32
  0
VERTEX
  5
8B1A
  8
0
 10
2652.0500000000002
 20
2380.6100000000001
 30
0.0
 70
    32
  0
VERTEX
  5
8B1B
  8
0
 10
2652.0500000000002
 20
2380.6100000000001
 30
0.0
 70
    32
  0
VERTEX
  5
8B1C
  8
0
 10
2652.0599999999999
 20
2380.5999999999999
 30
0.0
 70
    32
  0
VERTEX
  5
8B1D
  8
0
 10
2652.0599999999999
 20
2380.5999999999999
 30
0.0
 70
    32
  0
VERTEX
  5
8B1E
  8
0
 10
2652.0599999999999
 20
2380.5900000000001
 30
0.0
 70
    32
  0
VERTEX
  5
8B1F
  8
0
 10
2652.0700000000002
 20
2380.5900000000001
 30
0.0
 70
    32
  0
VERTEX
  5
8B20
  8
0
 10
2652.0700000000002
 20
2380.5900000000001
 30
0.0
 70
    32
  0
VERTEX
  5
8B21
  8
0
 10
2652.0700000000002
 20
2380.5799999999999
 30
0.0
 70
    32
  0
VERTEX
  5
8B22
  8
0
 10
2652.0799999999999
 20
2380.5799999999999
 30
0.0
 70
    32
  0
VERTEX
  5
8B23
  8
0
 10
2652.0799999999999
 20
2380.5700000000002
 30
0.0
 70
    32
  0
SEQEND
  5
8B24
  8
0
  0
LINE
  5
8284
  8
0
 10
2651.796352902817
 20
2380.2478890132802
 30
0.0
 11
2651.796352902817
 21
2380.0812392122289
 31
0.0
  0
LINE
  5
8285
  8
0
 10
2651.131316534078
 20
2380.0812392122289
 30
0.0
 11
2651.131316534078
 21
2380.3067065901218
 31
0.0
  0
LINE
  5
8286
  8
0
 10
2651.796352902817
 20
2380.2478890132802
 30
0.0
 11
2651.757233116421
 21
2380.3067065901218
 31
0.0
  0
LINE
  5
8287
  8
0
 10
2651.757233116421
 20
2380.3067065901218
 30
0.0
 11
2651.64476373053
 21
2380.365524166964
 31
0.0
  0
LINE
  5
8288
  8
0
 10
2651.64476373053
 20
2380.365524166964
 30
0.0
 11
2651.5860840509358
 21
2380.4145388143311
 31
0.0
  0
LINE
  5
8289
  8
0
 10
2651.5860840509358
 20
2380.4145388143311
 30
0.0
 11
2651.414934985452
 21
2380.4145388143311
 31
0.0
  0
LINE
  5
828A
  8
0
 10
2651.414934985452
 20
2380.4145388143311
 30
0.0
 11
2651.307355572862
 21
2380.365524166964
 31
0.0
  0
LINE
  5
828B
  8
0
 10
2651.307355572862
 20
2380.365524166964
 30
0.0
 11
2651.253565866567
 21
2380.365524166964
 31
0.0
  0
LINE
  5
828C
  8
0
 10
2651.253565866567
 20
2380.365524166964
 30
0.0
 11
2651.1362065073781
 21
2380.3067065901218
 31
0.0
  0
LINE
  5
828D
  8
0
 10
2650.466280165339
 20
2382.4241393564221
 30
0.0
 11
2650.466280165339
 21
2382.2476866258971
 31
0.0
  0
LINE
  5
828E
  8
0
 10
2650.466280165339
 20
2382.2476866258971
 30
0.0
 11
2651.185106240373
 21
2381.5320727743228
 31
0.0
  0
LINE
  5
828F
  8
0
 10
2649.977282835383
 20
2381.9732046006361
 30
0.0
 11
2650.1875516872651
 21
2381.914387023794
 31
0.0
  0
LINE
  5
8290
  8
0
 10
2650.1875516872651
 20
2381.914387023794
 30
0.0
 11
2650.8574780293029
 21
2381.1987731722202
 31
0.0
  0
LINE
  5
8291
  8
0
 10
2652.9699464947089
 20
2379.865574763809
 30
0.0
 11
2652.7890174826271
 21
2379.865574763809
 31
0.0
  0
LINE
  5
8292
  8
0
 10
2652.7890174826271
 20
2379.865574763809
 30
0.0
 11
2652.079971354191
 21
2380.5811886153829
 31
0.0
  0
LINE
  5
8293
  8
0
 10
2653.028626174304
 20
2381.914387023794
 30
0.0
 11
2652.798797429225
 21
2381.914387023794
 31
0.0
  0
LINE
  5
8294
  8
0
 10
2652.798797429225
 20
2381.914387023794
 30
0.0
 11
2652.079971354191
 21
2381.1987731722202
 31
0.0
  0
LINE
  5
8295
  8
0
 10
2650.4173804323432
 20
2379.414640008024
 30
0.0
 11
2650.4173804323432
 21
2379.5812898090749
 31
0.0
  0
LINE
  5
8296
  8
0
 10
2650.4173804323432
 20
2379.5812898090749
 30
0.0
 11
2651.1264265607788
 21
2380.3067065901218
 31
0.0
  0
LINE
  5
8297
  8
0
 10
2652.5200689511498
 20
2382.36532177958
 30
0.0
 11
2652.5200689511498
 21
2382.1986719785291
 31
0.0
  0
LINE
  5
8298
  8
0
 10
2652.5200689511498
 20
2382.1986719785291
 30
0.0
 11
2651.8012428761158
 21
2381.4732551974821
 31
0.0
  0
LINE
  5
8299
  8
0
 10
2649.977282835383
 20
2379.865574763809
 30
0.0
 11
2650.1386519542698
 21
2379.865574763809
 31
0.0
  0
LINE
  5
829A
  8
0
 10
2650.1386519542698
 20
2379.865574763809
 30
0.0
 11
2650.8574780293029
 21
2380.5811886153829
 31
0.0
  0
LINE
  5
829B
  8
0
 10
2652.5200689511498
 20
2379.365625360655
 30
0.0
 11
2652.5200689511498
 21
2379.5322751617068
 31
0.0
  0
LINE
  5
829C
  8
0
 10
2652.5200689511498
 20
2379.5322751617068
 30
0.0
 11
2651.8012428761158
 21
2380.2478890132802
 31
0.0
  0
LINE
  5
829D
  8
0
 10
2652.5200689511498
 20
2379.5322751617068
 30
0.0
 11
2652.7890174826271
 21
2379.865574763809
 31
0.0
  0
LINE
  5
829E
  8
0
 10
2652.7939074559249
 20
2381.914387023794
 30
0.0
 11
2652.5249589244499
 21
2382.1986719785291
 31
0.0
  0
LINE
  5
829F
  8
0
 10
2650.1337619809692
 20
2379.865574763809
 30
0.0
 11
2650.412490459044
 21
2379.5812898090749
 31
0.0
  0
LINE
  5
82A0
  8
0
 10
2650.466280165339
 20
2382.2476866258971
 30
0.0
 11
2650.197331633864
 21
2381.914387023794
 31
0.0
  0
CIRCLE
  5
8316
  8
0
 10
2682.4662797050969
 20
2380.888751933318
 30
0.0
 40
3.0
  0
CIRCLE
  5
8317
  8
0
 10
2651.4662797050969
 20
2380.888751933318
 30
0.0
 40
3.0
  0
CIRCLE
  5
8318
  8
0
 10
2651.4662797050969
 20
1605.8887519333171
 30
0.0
 40
3.0
  0
CIRCLE
  5
8319
  8
0
 10
2682.4662797050969
 20
1605.8887519333171
 30
0.0
 40
3.0
  0
LINE
  5
835C
  8
用紙枠
 10
0.0
 20
0.0
 30
0.0
 11
5940.0
 21
0.0
 31
0.0
  0
LINE
  5
835D
  8
用紙枠
 10
5940.0
 20
0.0
 30
0.0
 11
5940.0
 21
4200.0
 31
0.0
  0
LINE
  5
835E
  8
用紙枠
 10
5940.0
 20
4200.0
 30
0.0
 11
0.0
 21
4200.0
 31
0.0
  0
LINE
  5
835F
  8
用紙枠
 10
0.0
 20
4200.0
 30
0.0
 11
0.0
 21
0.0
 31
0.0
  0
LINE
  5
836A
  8
0
 10
2341.4662797050969
 20
2392.5137631715261
 30
0.0
 11
2341.4662797050969
 21
2592.748763171528
 31
0.0
  0
LINE
  5
836B
  8
0
 10
782.4662797050978
 20
2392.5137631715261
 30
0.0
 11
782.4662797050978
 21
2592.748763171528
 31
0.0
  0
LINE
  5
836C
  8
0
 10
2271.4662797050969
 20
2592.3887631715261
 30
0.0
 11
852.46627970509769
 21
2592.3887631715261
 31
0.0
  0
LINE
  5
8370
  8
0
 10
2341.5912797050969
 20
2392.3887631715261
 30
0.0
 11
2441.8262797050979
 21
2392.3887631715261
 31
0.0
  0
LINE
  5
8371
  8
0
 10
2341.5912797050969
 20
1594.3887519333171
 30
0.0
 11
2441.8262797050979
 21
1594.3887519333171
 31
0.0
  0
LINE
  5
8372
  8
0
 10
2441.4662797050969
 20
2322.3887631715261
 30
0.0
 11
2441.4662797050969
 21
1664.388751933318
 31
0.0
  0
LINE
  5
8376
  8
0
 10
2641.4662797050978
 20
2392.513751933318
 30
0.0
 11
2641.4662797050978
 21
2592.7487519333181
 31
0.0
  0
LINE
  5
8377
  8
0
 10
2687.4662797050969
 20
2392.513751933318
 30
0.0
 11
2687.4662797050969
 21
2592.7487519333181
 31
0.0
  0
LINE
  5
8378
  8
0
 10
2571.4662797050969
 20
2592.388751933318
 30
0.0
 11
2501.4662797050969
 21
2592.388751933318
 31
0.0
  0
LINE
  5
8379
  8
0
 10
2757.4662797050978
 20
2592.388751933318
 30
0.0
 11
2960.1367342505519
 21
2592.388751933318
 31
0.0
  0
LINE
  5
837A
  8
0
 10
2641.4662797050978
 20
2592.388751933318
 30
0.0
 11
2687.4662797050969
 21
2592.388751933318
 31
0.0
  0
LINE
  5
8394
  8
0
 10
3655.0
 20
2543.3887575524232
 30
0.0
 11
5155.0
 21
2543.3887575524232
 31
0.0
  0
LINE
  5
8395
  8
0
 10
3655.0
 20
2443.3887575524232
 30
0.0
 11
5155.0
 21
2443.3887575524232
 31
0.0
  0
LINE
  5
8396
  8
0
 10
3655.0
 20
2343.3887575524232
 30
0.0
 11
5155.0
 21
2343.3887575524232
 31
0.0
  0
LINE
  5
8397
  8
0
 10
3655.0
 20
2243.3887575524218
 30
0.0
 11
5155.0
 21
2243.3887575524218
 31
0.0
  0
LINE
  5
8398
  8
0
 10
3655.0
 20
2143.3887575524218
 30
0.0
 11
5155.0
 21
2143.3887575524218
 31
0.0
  0
LINE
  5
8399
  8
0
 10
3655.0
 20
2043.388757552422
 30
0.0
 11
5155.0
 21
2043.388757552422
 31
0.0
  0
LINE
  5
839A
  8
0
 10
3655.0
 20
1943.388757552422
 30
0.0
 11
5155.0
 21
1943.388757552422
 31
0.0
  0
LINE
  5
839B
  8
0
 10
3655.0
 20
1843.38875755242
 30
0.0
 11
5155.0
 21
1843.38875755242
 31
0.0
  0
LINE
  5
839C
  8
0
 10
3655.0
 20
1743.388757552422
 30
0.0
 11
5155.0
 21
1743.388757552422
 31
0.0
  0
LINE
  5
839D
  8
0
 10
3655.0
 20
1643.3887575524211
 30
0.0
 11
5155.0
 21
1643.3887575524211
 31
0.0
  0
LINE
  5
839E
  8
0
 10
3655.0
 20
1543.388757552422
 30
0.0
 11
5155.0
 21
1543.388757552422
 31
0.0
  0
LINE
  5
839F
  8
0
 10
3655.0
 20
1443.388757552422
 30
0.0
 11
5155.0
 21
1443.388757552422
 31
0.0
  0
LINE
  5
83A0
  8
0
 10
3655.0
 20
2543.3887575524232
 30
0.0
 11
3655.0
 21
1443.388757552422
 31
0.0
  0
LINE
  5
83A1
  8
0
 10
4355.0
 20
2543.3887575524232
 30
0.0
 11
4355.0
 21
1443.388757552422
 31
0.0
  0
LINE
  5
83A2
  8
0
 10
5155.0
 20
2543.3887575524232
 30
0.0
 11
5155.0
 21
1443.388757552422
 31
0.0
  0
LINE
  5
83A3
  8
0
 62
     8
 10
3655.0
 20
2543.3887575524232
 30
0.0
 11
3655.0
 21
2543.3887575524232
 31
0.0
  0
LINE
  5
83A4
  8
図面枠
 10
5740.0
 20
200.0
 30
0.0
 11
5740.0
 21
4000.0
 31
0.0
  0
LINE
  5
83A5
  8
図面枠
 10
5740.0
 20
4000.0
 30
0.0
 11
400.0
 21
4000.0
 31
0.0
  0
LINE
  5
83A6
  8
図面枠
 10
400.0
 20
4000.0
 30
0.0
 11
400.0
 21
200.0
 31
0.0
  0
LINE
  5
83A7
  8
図面枠
 10
400.0
 20
200.0
 30
0.0
 11
5740.0
 21
200.0
 31
0.0
  0
TEXT
  5
83A8
  8
0
 10
4674.659090909091
 20
1473.729666643331
 30
0.0
 40
40.0
  1
15.kg
  0
TEXT
  5
83A9
  8
0
 10
3658.0
 20
1473.047848461513
 30
0.0
 40
40.0
  1
  質量
  0
TEXT
  5
83AA
  8
0
 10
4536.022727272727
 20
1576.116030279695
 30
0.0
 40
40.0
  1
1,559x798x46ｍｍ
  0
TEXT
  5
83AB
  8
0
 10
3658.0
 20
1573.047848461513
 30
0.0
 40
40.0
  1
  外形寸法（WxHxD）
  0
TEXT
  5
83AD
  8
0
 10
3658.0
 20
1672.9342120978761
 30
0.0
 40
40.0
  1
  最大システム電圧
  0
TEXT
  5
83AF
  8
0
 10
3658.0
 20
1772.2523939160581
 30
0.0
 40
40.0
  1
  公称短絡電流
  0
TEXT
  5
83B1
  8
0
 10
3658.0
 20
1872.479666643331
 30
0.0
 40
40.0
  1
  公称開放電圧
  0
TEXT
  5
83B3
  8
0
 10
3658.0
 20
1972.593303006968
 30
0.0
 40
40.0
  1
  公称最大出力動作電流
  0
TEXT
  5
83B5
  8
0
 10
3658.0
 20
2072.5933030069682
 30
0.0
 40
40.0
  1
  公称最大出力動作電圧
  0
TEXT
  5
83B6
  8
0
 10
4688.5227272727279
 20
2173.3887575524218
 30
0.0
 40
40.0
  1
253W
  0
TEXT
  5
83B7
  8
0
 10
3658.0
 20
2172.4796666433308
 30
0.0
 40
40.0
  1
  公称最大出力
  0
TEXT
  5
83B8
  8
0
 10
4690.3409090909099
 20
2273.3887575524218
 30
0.0
 40
40.0
  1
20.3%%%
  0
TEXT
  5
83B9
  8
0
 10
3658.0
 20
2272.2523939160592
 30
0.0
 40
40.0
  1
  最大モジュール変換効率
  0
TEXT
  5
83BA
  8
0
 10
4543.0681818181802
 20
2372.2523939160578
 30
0.0
 40
40.0
  1
シリコン単結晶系
  0
TEXT
  5
83BB
  8
0
 10
3658.0
 20
2372.9342120978772
 30
0.0
 40
40.0
  1
  セル種類
  0
TEXT
  5
83BC
  8
0
 10
4506.136363636364
 20
2473.3887575524218
 30
0.0
 40
40.0
  1
SPR-253NX-WHT-J
  0
TEXT
  5
83BD
  8
0
 10
3658.0
 20
2471.9114848251488
 30
0.0
 40
40.0
  1
  型式
  0
TEXT
  5
83BE
  8
0
 10
2843.8867342505532
 20
2612.388751933318
 30
0.0
 40
70.0
  1
46
  0
LINE
  5
83BF
  8
0
 10
2757.4662797050978
 20
2580.7220852666519
 30
0.0
 11
2687.4662797050969
 21
2592.388751933318
 31
0.0
  0
LINE
  5
83C0
  8
0
 10
2757.4662797050978
 20
2604.0554185999849
 30
0.0
 11
2687.4662797050969
 21
2592.388751933318
 31
0.0
  0
LINE
  5
83C1
  8
0
 10
2687.4662797050969
 20
2592.388751933318
 30
0.0
 11
2757.4662797050978
 21
2592.388751933318
 31
0.0
  0
LINE
  5
83C2
  8
0
 10
2571.4662797050969
 20
2604.0554185999849
 30
0.0
 11
2641.4662797050978
 21
2592.388751933318
 31
0.0
  0
LINE
  5
83C3
  8
0
 10
2571.4662797050969
 20
2580.7220852666519
 30
0.0
 11
2641.4662797050978
 21
2592.388751933318
 31
0.0
  0
LINE
  5
83C4
  8
0
 10
2641.4662797050978
 20
2592.388751933318
 30
0.0
 11
2571.4662797050969
 21
2592.388751933318
 31
0.0
  0
TEXT
  5
83C5
  8
0
 10
2421.4662797050969
 20
1916.0308030069671
 30
0.0
 40
70.0
  1
798
 50
90.0
  0
LINE
  5
83C6
  8
0
 10
2453.1329463717648
 20
1664.388751933318
 30
0.0
 11
2441.4662797050969
 21
1594.3887519333171
 31
0.0
  0
LINE
  5
83C7
  8
0
 10
2429.7996130384322
 20
1664.388751933318
 30
0.0
 11
2441.4662797050969
 21
1594.3887519333171
 31
0.0
  0
LINE
  5
83C8
  8
0
 10
2441.4662797050969
 20
1594.3887519333171
 30
0.0
 11
2441.4662797050969
 21
1664.388751933318
 31
0.0
  0
LINE
  5
83C9
  8
0
 10
2429.7996130384322
 20
2322.3887631715261
 30
0.0
 11
2441.4662797050969
 21
2392.3887631715261
 31
0.0
  0
LINE
  5
83CA
  8
0
 10
2453.1329463717648
 20
2322.3887631715261
 30
0.0
 11
2441.4662797050969
 21
2392.3887631715261
 31
0.0
  0
LINE
  5
83CB
  8
0
 10
2441.4662797050969
 20
2392.3887631715261
 30
0.0
 11
2441.4662797050969
 21
2322.3887631715261
 31
0.0
  0
TEXT
  5
83CC
  8
0
 10
1457.562870614189
 20
2612.388763171527
 30
0.0
 40
70.0
  1
1559
  0
LINE
  5
83CD
  8
0
 10
852.46627970509769
 20
2580.72209650486
 30
0.0
 11
782.4662797050978
 21
2592.3887631715261
 31
0.0
  0
LINE
  5
83CE
  8
0
 10
852.46627970509769
 20
2604.055429838193
 30
0.0
 11
782.4662797050978
 21
2592.3887631715261
 31
0.0
  0
LINE
  5
83CF
  8
0
 10
782.4662797050978
 20
2592.3887631715261
 30
0.0
 11
852.46627970509769
 21
2592.3887631715261
 31
0.0
  0
LINE
  5
83D0
  8
0
 10
2271.4662797050969
 20
2604.055429838193
 30
0.0
 11
2341.4662797050969
 21
2592.3887631715261
 31
0.0
  0
LINE
  5
83D1
  8
0
 10
2271.4662797050969
 20
2580.72209650486
 30
0.0
 11
2341.4662797050969
 21
2592.3887631715261
 31
0.0
  0
LINE
  5
83D2
  8
0
 10
2341.4662797050969
 20
2592.3887631715261
 30
0.0
 11
2271.4662797050969
 21
2592.3887631715261
 31
0.0
  0
TEXT
  5
847A
  8
0
 10
4686.4772727272721
 20
2073.3887575524218
 30
0.0
 40
40.0
  1
42.8V
  0
TEXT
  5
847B
  8
0
 10
4685.795454545455
 20
1973.388757552422
 30
0.0
 40
40.0
  1
5.91A
  0
TEXT
  5
847C
  8
0
 10
4686.4772727272721
 20
1873.388757552422
 30
0.0
 40
40.0
  1
51.0V
  0
TEXT
  5
847D
  8
0
 10
4685.795454545455
 20
1773.388757552422
 30
0.0
 40
40.0
  1
6.28A
  0
TEXT
  5
847E
  8
0
 10
4686.4772727272721
 20
1673.3887575524211
 30
0.0
 40
40.0
  1
600V
  0
VIEWPORT
  5
2C13
 67
     1
  8
0
  6
CONTINUOUS
 10
145.33033752441401
 20
103.47009490293119
 30
0.0
 40
366.18481344492079
 41
225.47109861552431
 68
     1
 69
     1
1001
ACAD
1000
MVIEW
1002
{
1070
    16
1010
0.0
1020
0.0
1030
0.0
1010
0.0
1020
0.0
1030
1.0
1040
0.0
1040
225.47109861552431
1040
145.33033752441401
1040
103.47009490293119
1040
50.0
1040
0.0
1040
0.0
1070
     0
1070
   100
1070
     1
1070
     1
1070
     0
1070
     0
1070
     0
1070
     0
1040
0.0
1040
0.0
1040
0.0
1040
10.0
1040
10.0
1040
10.0
1040
10.0
1070
     0
1002
{
1002
}
1002
}
  0
VIEWPORT
  5
2C17
 67
     1
  8
0
  6
CONTINUOUS
 10
145.3303314447403
 20
101.8328338861465
 30
0.0
 40
232.5285303115844
 41
162.93253421783439
 68
     2
 69
     2
1001
ACAD
1000
MVIEW
1002
{
1070
    16
1010
0.0
1020
0.0
1030
0.0
1010
0.0
1020
0.0
1030
1.0
1040
0.0
1040
8205.767713711226
1040
5809.9651516428994
1040
1137.040193552135
1040
50.0
1040
0.0
1040
0.0
1070
     0
1070
   100
1070
     1
1070
     1
1070
     0
1070
     0
1070
     0
1070
     0
1040
0.0
1040
0.0
1040
0.0
1040
10.0
1040
10.0
1040
10.0
1040
10.0
1070
     0
1002
{
1002
}
1002
}
  0
ENDSEC
  0
EOF
