  0
SECTION
  2
HEADER
  9
$ACADVER
  1
AC1009
  9
$DWGCODEPAGE
  3
ansi_932
  9
$INSBASE
 10
0.0
 20
0.0
 30
0.0
  9
$EXTMIN
 10
0.0
 20
0.0
 30
0.0
  9
$EXTMAX
 10
5940.0
 20
4200.0
 30
0.0
  9
$LIMMIN
 10
109.6511881510417
 20
82.19722222222221
  9
$LIMMAX
 10
147.8903700086805
 20
96.5028089735243
  9
$ORTHOMODE
 70
     0
  9
$REGENMODE
 70
     1
  9
$FILLMODE
 70
     1
  9
$QTEXTMODE
 70
     0
  9
$MIRRTEXT
 70
     1
  9
$DRAGMODE
 70
     2
  9
$LTSCALE
 40
1.0
  9
$OSMODE
 70
   511
  9
$ATTMODE
 70
     1
  9
$TEXTSIZE
 40
0.0
  9
$TRACEWID
 40
0.05
  9
$TEXTSTYLE
  7
STANDARD
  9
$CLAYER
  8
0
  9
$CELTYPE
  6
BYLAYER
  9
$CECOLOR
 62
   256
  9
$DIMSCALE
 40
2.0
  9
$DIMASZ
 40
35.0
  9
$DIMEXO
 40
0.0625
  9
$DIMDLI
 40
10.0
  9
$DIMRND
 40
0.0
  9
$DIMDLE
 40
0.0
  9
$DIMEXE
 40
0.18
  9
$DIMTP
 40
0.0
  9
$DIMTM
 40
0.0
  9
$DIMTXT
 40
35.0
  9
$DIMCEN
 40
0.09
  9
$DIMTSZ
 40
0.0
  9
$DIMTOL
 70
     0
  9
$DIMLIM
 70
     0
  9
$DIMTIH
 70
     0
  9
$DIMTOH
 70
     0
  9
$DIMSE1
 70
     0
  9
$DIMSE2
 70
     0
  9
$DIMTAD
 70
     3
  9
$DIMZIN
 70
     0
  9
$DIMBLK
  1
OPEN
  9
$DIMASO
 70
     1
  9
$DIMSHO
 70
     1
  9
$DIMPOST
  1

  9
$DIMAPOST
  1

  9
$DIMALT
 70
     0
  9
$DIMALTD
 70
     2
  9
$DIMALTF
 40
25.4
  9
$DIMLFAC
 40
1.0
  9
$DIMTOFL
 70
     1
  9
$DIMTVP
 40
0.0
  9
$DIMTIX
 70
     0
  9
$DIMSOXD
 70
     0
  9
$DIMSAH
 70
     0
  9
$DIMBLK1
  1

  9
$DIMBLK2
  1

  9
$DIMSTYLE
  2
STANDARD
  9
$DIMCLRD
 70
     0
  9
$DIMCLRE
 70
     0
  9
$DIMCLRT
 70
     0
  9
$DIMTFAC
 40
1.0
  9
$DIMGAP
 40
10.0
  9
$LUNITS
 70
     2
  9
$LUPREC
 70
     4
  9
$SKETCHINC
 40
0.1
  9
$FILLETRAD
 40
100.0
  9
$AUNITS
 70
     0
  9
$AUPREC
 70
     0
  9
$MENU
  1
acad
  9
$ELEVATION
 40
0.0
  9
$PELEVATION
 40
0.0
  9
$THICKNESS
 40
0.0
  9
$LIMCHECK
 70
     0
  9
$CHAMFERA
 40
0.0
  9
$CHAMFERB
 40
0.0
  9
$SKPOLY
 70
     0
  9
$TDCREATE
 40
2456743.597399803
  9
$TDUPDATE
 40
2456794.693801562
  9
$TDINDWG
 40
0.6785081829
  9
$TDUSRTIMER
 40
2456794.318003773
  9
$USRTIMER
 70
     1
  9
$ANGBASE
 50
0.0
  9
$ANGDIR
 70
     0
  9
$PDMODE
 70
     1
  9
$PDSIZE
 40
0.0
  9
$PLINEWID
 40
0.0
  9
$COORDS
 70
     1
  9
$SPLFRAME
 70
     0
  9
$SPLINETYPE
 70
     6
  9
$SPLINESEGS
 70
     8
  9
$ATTDIA
 70
     0
  9
$ATTREQ
 70
     1
  9
$HANDLING
 70
     1
  9
$HANDSEED
  5
9258
  9
$SURFTAB1
 70
     6
  9
$SURFTAB2
 70
     6
  9
$SURFTYPE
 70
     6
  9
$SURFU
 70
     6
  9
$SURFV
 70
     6
  9
$UCSNAME
  2

  9
$UCSORG
 10
0.0
 20
0.0
 30
0.0
  9
$UCSXDIR
 10
1.0
 20
0.0
 30
0.0
  9
$UCSYDIR
 10
0.0
 20
1.0
 30
0.0
  9
$PUCSNAME
  2

  9
$PUCSORG
 10
0.0
 20
0.0
 30
0.0
  9
$PUCSXDIR
 10
1.0
 20
0.0
 30
0.0
  9
$PUCSYDIR
 10
0.0
 20
1.0
 30
0.0
  9
$USERI1
 70
     0
  9
$USERI2
 70
     0
  9
$USERI3
 70
     0
  9
$USERI4
 70
     0
  9
$USERI5
 70
     0
  9
$USERR1
 40
0.0
  9
$USERR2
 40
0.0
  9
$USERR3
 40
0.0
  9
$USERR4
 40
0.0
  9
$USERR5
 40
0.0
  9
$WORLDVIEW
 70
     1
  9
$SHADEDGE
 70
     3
  9
$SHADEDIF
 70
    70
  9
$TILEMODE
 70
     1
  9
$MAXACTVP
 70
    16
  9
$PLIMCHECK
 70
     0
  9
$PEXTMIN
 10
29.06606628894805
 20
20.36656677722931
 30
0.0
  9
$PEXTMAX
 10
261.5945966005326
 20
183.2991009950638
 30
0.0
  9
$PLIMMIN
 10
-0.0000000000000231
 20
0.0000000000000053
  9
$PLIMMAX
 10
420.0
 20
297.0
  9
$UNITMODE
 70
     0
  9
$VISRETAIN
 70
     0
  9
$PLINEGEN
 70
     1
  9
$PSLTSCALE
 70
     0
  0
ENDSEC
  0
SECTION
  2
TABLES
  0
TABLE
  2
VPORT
 70
     1
  0
VPORT
  2
*ACTIVE
 70
     0
 10
0.0
 20
0.0
 11
1.0
 21
1.0
 12
4135.329240983703
 22
1635.361901567961
 13
0.0
 23
0.0
 14
1.0
 24
1.0
 15
0.0
 25
0.0
 16
0.0
 26
0.0
 36
1.0
 17
0.0
 27
0.0
 37
0.0
 40
6204.225395531756
 41
1.615571776155718
 42
50.0
 43
0.0
 44
0.0
 50
0.0
 51
0.0
 71
     0
 72
   100
 73
     1
 74
     1
 75
     0
 76
     0
 77
     0
 78
     0
  0
ENDTAB
  0
TABLE
  2
LTYPE
 70
     1
  0
LTYPE
  2
CONTINUOUS
 70
     0
  3
Solid line
 72
    65
 73
     0
 40
0.0
  0
ENDTAB
  0
TABLE
  2
LAYER
 70
     4
  0
LAYER
  2
0
 70
     0
 62
     7
  6
CONTINUOUS
  0
LAYER
  2
DEFPOINTS
 70
     0
 62
     7
  6
CONTINUOUS
  0
LAYER
  2
用紙枠
 70
     4
 62
     7
  6
CONTINUOUS
  0
LAYER
  2
図面枠
 70
     0
 62
     7
  6
CONTINUOUS
  0
ENDTAB
  0
TABLE
  2
STYLE
 70
     1
  0
STYLE
  2
STANDARD
 70
     0
 40
0.0
 41
1.0
 50
0.0
 71
     0
 42
0.0
  3

  4

  0
ENDTAB
  0
TABLE
  2
VIEW
 70
     0
  0
ENDTAB
  0
TABLE
  2
UCS
 70
     0
  0
ENDTAB
  0
TABLE
  2
APPID
 70
    19
  0
APPID
  2
ACAD
 70
     0
  0
APPID
  2
ACAD_EXEMPT_FROM_CAD_STAND
 70
     0
  0
APPID
  2
ACAD_DSTYLE_DIMJAG
 70
     0
  0
APPID
  2
ACAD_DSTYLE_DIMTALN
 70
     0
  0
APPID
  2
ACAD_NAV_VCDISPLAY
 70
     0
  0
APPID
  2
ACAD_PSEXT
 70
     0
  0
APPID
  2
ACADANNOTATIVE
 70
     0
  0
APPID
  2
ACAECLAYERSTANDARD
 70
     0
  0
APPID
  2
ACCMTRANSPARENCY
 70
     0
  0
APPID
  2
ACADANNOAV
 70
     0
  0
APPID
  2
ACADANNOPO
 70
     0
  0
APPID
  2
ACAD_MLEADERVER
 70
     0
  0
APPID
  2
ACADSTRINGINFO
 70
     0
  0
APPID
  2
ACAD_DSTYLE_DIMBREAK
 70
     0
  0
APPID
  2
PLOTTRANSPARENCY
 70
     0
  0
APPID
  2
ACDBDYNAMICBLOCKGUID
 70
     0
  0
APPID
  2
ACAUTHENVIRON
 70
     0
  0
APPID
  2
ACLAYERTOOLS
 70
     0
  0
APPID
  2
ACDBDYNAMICBLOCKTRUENAME
 70
     0
  0
ENDTAB
  0
TABLE
  2
DIMSTYLE
 70
     1
  0
DIMSTYLE
  2
STANDARD
 70
     0
  3

  4

  5
OPEN
  6

  7

 40
2.0
 41
35.0
 42
0.0625
 43
10.0
 44
0.18
 45
0.0
 46
0.0
 47
0.0
 48
0.0
140
35.0
141
0.09
142
0.0
143
25.4
144
1.0
145
0.0
146
1.0
147
10.0
 71
     0
 72
     0
 73
     0
 74
     0
 75
     0
 76
     0
 77
     3
 78
     0
170
     0
171
     2
172
     1
173
     0
174
     0
175
     0
176
     0
177
     0
178
     0
  0
ENDTAB
  0
ENDSEC
  0
SECTION
  2
BLOCKS
  0
BLOCK
  8
0
  2
$MODEL_SPACE
 70
     0
 10
0.0
 20
0.0
 30
0.0
  3
$MODEL_SPACE
  1

  0
ENDBLK
  5
E
  8
0
  0
BLOCK
 67
     1
  8
0
  2
$PAPER_SPACE
 70
     0
 10
0.0
 20
0.0
 30
0.0
  3
$PAPER_SPACE
  1

  0
ENDBLK
  5
10
 67
     1
  8
0
  0
BLOCK
  8
0
  2
_OPEN
 70
     0
 10
0.0
 20
0.0
 30
0.0
  3
_OPEN
  1

  0
LINE
  5
AB0
  8
0
  6
BYBLOCK
 62
     0
 10
-1.0
 20
0.1666666666666667
 30
0.0
 11
0.0
 21
0.0
 31
0.0
  0
LINE
  5
AB1
  8
0
  6
BYBLOCK
 62
     0
 10
-1.0
 20
-0.1666666666666667
 30
0.0
 11
0.0
 21
0.0
 31
0.0
  0
LINE
  5
AB2
  8
0
  6
BYBLOCK
 62
     0
 10
0.0
 20
0.0
 30
0.0
 11
-1.0
 21
0.0
 31
0.0
  0
ENDBLK
  5
AB4
  8
0
  0
BLOCK
  8
0
  2
_CLOSED
 70
     0
 10
0.0
 20
0.0
 30
0.0
  3
_CLOSED
  1

  0
LINE
  5
AB6
  8
0
  6
BYBLOCK
 62
     0
 10
-1.0
 20
0.1666666666666667
 30
0.0
 11
0.0
 21
0.0
 31
0.0
  0
LINE
  5
AB7
  8
0
  6
BYBLOCK
 62
     0
 10
0.0
 20
0.0
 30
0.0
 11
-1.0
 21
-0.1666666666666667
 31
0.0
  0
LINE
  5
AB8
  8
0
  6
BYBLOCK
 62
     0
 10
-1.0
 20
0.1666666666666667
 30
0.0
 11
-1.0
 21
-0.1666666666666667
 31
0.0
  0
LINE
  5
AB9
  8
0
  6
BYBLOCK
 62
     0
 10
0.0
 20
0.0
 30
0.0
 11
-1.0
 21
0.0
 31
0.0
  0
ENDBLK
  5
ABB
  8
0
  0
ENDSEC
  0
SECTION
  2
ENTITIES
  0
LINE
  5
FCA
  8
図面枠
 10
5740.0
 20
3786.777515104844
 30
0.0
 11
400.0
 21
3786.777515104844
 31
0.0
  0
TEXT
  5
1230
  8
図面枠
 10
500.0
 20
3836.777515104844
 30
0.0
 40
100.0
  1
太陽電池モジュール　LPV-83RV-BLK-J
 11
500.0
 21
3886.777515104844
 31
0.0
 73
     2
  0
LINE
  5
8DFB
  8
0
 10
2327.000012394335
 20
2484.888757552422
 30
0.0
 11
2327.000012394335
 21
1501.888757552422
 31
0.0
  0
LINE
  5
8DFC
  8
0
 10
2327.000012394335
 20
1501.888757552422
 30
0.0
 11
2280.999987605665
 21
1501.888757552422
 31
0.0
  0
LINE
  5
8DFD
  8
0
 10
2280.999987605665
 20
1501.888757552422
 30
0.0
 11
2280.999987605665
 21
2484.888757552422
 31
0.0
  0
LINE
  5
8DFE
  8
0
 10
2280.999987605665
 20
2484.888757552422
 30
0.0
 11
2327.000012394335
 21
2484.888757552422
 31
0.0
  0
LINE
  5
8DFF
  8
0
 10
2303.058123666808
 20
2484.888757552422
 30
0.0
 11
2303.058123666808
 21
1501.888757552422
 31
0.0
  0
LINE
  5
8ED8
  8
0
 10
1150.781361186393
 20
2477.124307063323
 30
0.0
 11
1417.043015592003
 21
2477.124307063323
 31
0.0
  0
LINE
  5
8ED9
  8
0
 10
1417.043015592003
 20
2477.124307063323
 30
0.0
 11
1973.244299457439
 21
1827.58431647904
 31
0.0
  0
LINE
  5
8EDA
  8
0
 10
1973.244299457439
 20
1827.58431647904
 30
0.0
 11
1973.244299457439
 21
1509.653208041522
 31
0.0
  0
LINE
  5
8EDC
  8
0
 10
1150.781361186393
 20
1509.653208041522
 30
0.0
 11
1150.781361186393
 21
2477.124307063323
 31
0.0
  0
LINE
  5
8EDE
  8
0
 10
1142.999987605665
 20
1501.888757552422
 30
0.0
 11
1980.999987605665
 21
1501.888757552422
 31
0.0
  0
LINE
  5
8EDF
  8
0
 10
1142.999987605665
 20
1501.888757552422
 30
0.0
 11
1142.999987605665
 21
2484.888757552422
 31
0.0
  0
LINE
  5
8EE0
  8
0
 10
1142.999987605665
 20
2484.888757552422
 30
0.0
 11
1420.799987605664
 21
2484.888757552422
 31
0.0
  0
LINE
  5
8EE1
  8
0
 10
1980.999987605665
 20
1501.888757552422
 30
0.0
 11
1980.999987605665
 21
1828.988757552422
 31
0.0
  0
LINE
  5
8EE2
  8
0
 10
1420.799987605664
 20
2484.888757552422
 30
0.0
 11
1980.999987605665
 21
1828.988757552422
 31
0.0
  0
LINE
  5
8EE6
  8
0
 10
1150.781361186393
 20
1509.653208041522
 30
0.0
 11
1973.244299457439
 21
1509.653208041522
 31
0.0
  0
LINE
  5
9013
  8
0
 10
1324.334241247469
 20
2322.452339704434
 30
0.0
 11
1324.334241247469
 21
2444.652449554307
 31
0.0
  0
LINE
  5
9014
  8
0
 10
1324.334241247469
 20
2444.652449554307
 30
0.0
 11
1307.281990232294
 21
2461.569695984188
 31
0.0
  0
LINE
  5
9015
  8
0
 10
1307.281990232294
 20
2461.569695984188
 30
0.0
 11
1183.11386725282
 21
2461.569695984188
 31
0.0
  0
LINE
  5
9016
  8
0
 10
1183.11386725282
 20
2461.569695984188
 30
0.0
 11
1166.061616237646
 21
2444.652449554307
 31
0.0
  0
LINE
  5
9017
  8
0
 10
1166.061616237646
 20
2444.652449554307
 30
0.0
 11
1166.061616237646
 21
2322.452339704434
 31
0.0
  0
LINE
  5
9018
  8
0
 10
1166.061616237646
 20
2322.452339704434
 30
0.0
 11
1183.11386725282
 21
2305.535093274555
 31
0.0
  0
LINE
  5
9019
  8
0
 10
1183.11386725282
 20
2305.535093274555
 30
0.0
 11
1307.281990232294
 21
2305.535093274555
 31
0.0
  0
LINE
  5
901A
  8
0
 10
1307.281990232294
 20
2305.535093274555
 30
0.0
 11
1324.334241247469
 21
2322.452339704434
 31
0.0
  0
LINE
  5
901B
  8
0
 10
1166.267065045058
 20
2419.482260717146
 30
0.0
 11
1323.538127118747
 21
2419.482260717146
 31
0.0
  0
LINE
  5
901C
  8
0
 10
1166.267065045058
 20
2347.545398238724
 30
0.0
 11
1323.538127118747
 21
2347.545398238724
 31
0.0
  0
LINE
  5
901D
  8
0
 10
1482.606866257289
 20
2166.366316792888
 30
0.0
 11
1482.606866257289
 21
2288.617846844676
 31
0.0
  0
LINE
  5
901E
  8
0
 10
1482.606866257289
 20
2288.617846844676
 30
0.0
 11
1465.631658544893
 21
2305.535093274555
 31
0.0
  0
LINE
  5
901F
  8
0
 10
1465.631658544893
 20
2305.535093274555
 30
0.0
 11
1341.386492262644
 21
2305.535093274555
 31
0.0
  0
LINE
  5
9020
  8
0
 10
1341.386492262644
 20
2305.535093274555
 30
0.0
 11
1324.334241247469
 21
2288.617846844676
 31
0.0
  0
LINE
  5
9021
  8
0
 10
1324.334241247469
 20
2288.617846844676
 30
0.0
 11
1324.334241247469
 21
2166.366316792888
 31
0.0
  0
LINE
  5
9022
  8
0
 10
1324.334241247469
 20
2166.366316792888
 30
0.0
 11
1341.386492262644
 21
2149.474780463966
 31
0.0
  0
LINE
  5
9023
  8
0
 10
1341.386492262644
 20
2149.474780463966
 30
0.0
 11
1465.631658544893
 21
2149.474780463966
 31
0.0
  0
LINE
  5
9024
  8
0
 10
1465.631658544893
 20
2149.474780463966
 30
0.0
 11
1482.606866257289
 21
2166.366316792888
 31
0.0
  0
LINE
  5
9025
  8
0
 10
1324.591052256734
 20
2263.421947906558
 30
0.0
 11
1481.836433229495
 21
2263.421947906558
 31
0.0
  0
LINE
  5
9026
  8
0
 10
1324.591052256734
 20
2191.485085428134
 30
0.0
 11
1481.836433229495
 21
2191.485085428134
 31
0.0
  0
LINE
  5
9027
  8
0
 10
1324.334241247469
 20
2166.366316792888
 30
0.0
 11
1324.334241247469
 21
2288.617846844676
 31
0.0
  0
LINE
  5
9028
  8
0
 10
1324.334241247469
 20
2288.617846844676
 30
0.0
 11
1307.281990232294
 21
2305.535093274555
 31
0.0
  0
LINE
  5
9029
  8
0
 10
1307.281990232294
 20
2305.535093274555
 30
0.0
 11
1183.11386725282
 21
2305.535093274555
 31
0.0
  0
LINE
  5
902A
  8
0
 10
1183.11386725282
 20
2305.535093274555
 30
0.0
 11
1166.061616237646
 21
2288.617846844676
 31
0.0
  0
LINE
  5
902B
  8
0
 10
1166.061616237646
 20
2288.617846844676
 30
0.0
 11
1166.061616237646
 21
2166.366316792888
 31
0.0
  0
LINE
  5
902C
  8
0
 10
1166.061616237646
 20
2166.366316792888
 30
0.0
 11
1183.11386725282
 21
2149.474780463966
 31
0.0
  0
LINE
  5
902D
  8
0
 10
1183.11386725282
 20
2149.474780463966
 30
0.0
 11
1307.281990232294
 21
2149.474780463966
 31
0.0
  0
LINE
  5
902E
  8
0
 10
1307.281990232294
 20
2149.474780463966
 30
0.0
 11
1324.334241247469
 21
2166.366316792888
 31
0.0
  0
LINE
  5
902F
  8
0
 10
1166.267065045058
 20
2263.421947906558
 30
0.0
 11
1323.538127118747
 21
2263.421947906558
 31
0.0
  0
LINE
  5
9030
  8
0
 10
1166.267065045058
 20
2191.485085428134
 30
0.0
 11
1323.538127118747
 21
2191.485085428134
 31
0.0
  0
LINE
  5
9031
  8
0
 10
1640.95653456989
 20
2010.331714083257
 30
0.0
 11
1640.95653456989
 21
2132.557534034086
 31
0.0
  0
LINE
  5
9032
  8
0
 10
1640.95653456989
 20
2132.557534034086
 30
0.0
 11
1623.878602453789
 21
2149.474780463966
 31
0.0
  0
LINE
  5
9033
  8
0
 10
1623.878602453789
 20
2149.474780463966
 30
0.0
 11
1499.68479837339
 21
2149.474780463966
 31
0.0
  0
LINE
  5
9034
  8
0
 10
1499.68479837339
 20
2149.474780463966
 30
0.0
 11
1482.606866257289
 21
2132.557534034086
 31
0.0
  0
LINE
  5
9035
  8
0
 10
1482.606866257289
 20
2132.557534034086
 30
0.0
 11
1482.606866257289
 21
2010.331714083257
 31
0.0
  0
LINE
  5
9036
  8
0
 10
1482.606866257289
 20
2010.331714083257
 30
0.0
 11
1499.68479837339
 21
1993.414467653378
 31
0.0
  0
LINE
  5
9037
  8
0
 10
1499.68479837339
 20
1993.414467653378
 30
0.0
 11
1623.878602453789
 21
1993.414467653378
 31
0.0
  0
LINE
  5
9038
  8
0
 10
1623.878602453789
 20
1993.414467653378
 30
0.0
 11
1640.95653456989
 21
2010.331714083257
 31
0.0
  0
LINE
  5
9039
  8
0
 10
1482.837996165626
 20
2107.361635095969
 30
0.0
 11
1640.134739340243
 21
2107.361635095969
 31
0.0
  0
LINE
  5
903A
  8
0
 10
1482.837996165626
 20
2035.424772617545
 30
0.0
 11
1640.134739340243
 21
2035.424772617545
 31
0.0
  0
LINE
  5
903B
  8
0
 10
1482.606866257289
 20
2010.331714083257
 30
0.0
 11
1482.606866257289
 21
2132.557534034086
 31
0.0
  0
LINE
  5
903C
  8
0
 10
1482.606866257289
 20
2132.557534034086
 30
0.0
 11
1465.631658544893
 21
2149.474780463966
 31
0.0
  0
LINE
  5
903D
  8
0
 10
1465.631658544893
 20
2149.474780463966
 30
0.0
 11
1341.386492262644
 21
2149.474780463966
 31
0.0
  0
LINE
  5
903E
  8
0
 10
1341.386492262644
 20
2149.474780463966
 30
0.0
 11
1324.334241247469
 21
2132.557534034086
 31
0.0
  0
LINE
  5
903F
  8
0
 10
1324.334241247469
 20
2132.557534034086
 30
0.0
 11
1324.334241247469
 21
2010.331714083257
 31
0.0
  0
LINE
  5
9040
  8
0
 10
1324.334241247469
 20
2010.331714083257
 30
0.0
 11
1341.386492262644
 21
1993.414467653378
 31
0.0
  0
LINE
  5
9041
  8
0
 10
1341.386492262644
 20
1993.414467653378
 30
0.0
 11
1465.631658544893
 21
1993.414467653378
 31
0.0
  0
LINE
  5
9042
  8
0
 10
1465.631658544893
 20
1993.414467653378
 30
0.0
 11
1482.606866257289
 21
2010.331714083257
 31
0.0
  0
LINE
  5
9043
  8
0
 10
1324.591052256734
 20
2107.361635095969
 30
0.0
 11
1481.836433229495
 21
2107.361635095969
 31
0.0
  0
LINE
  5
9044
  8
0
 10
1324.591052256734
 20
2035.424772617545
 30
0.0
 11
1481.836433229495
 21
2035.424772617545
 31
0.0
  0
LINE
  5
9045
  8
0
 10
1324.334241247469
 20
2010.331714083257
 30
0.0
 11
1324.334241247469
 21
2132.557534034086
 31
0.0
  0
LINE
  5
9046
  8
0
 10
1324.334241247469
 20
2132.557534034086
 30
0.0
 11
1307.281990232294
 21
2149.474780463966
 31
0.0
  0
LINE
  5
9047
  8
0
 10
1307.281990232294
 20
2149.474780463966
 30
0.0
 11
1183.11386725282
 21
2149.474780463966
 31
0.0
  0
LINE
  5
9048
  8
0
 10
1183.11386725282
 20
2149.474780463966
 30
0.0
 11
1166.061616237646
 21
2132.557534034086
 31
0.0
  0
LINE
  5
9049
  8
0
 10
1166.061616237646
 20
2132.557534034086
 30
0.0
 11
1166.061616237646
 21
2010.331714083257
 31
0.0
  0
LINE
  5
904A
  8
0
 10
1166.061616237646
 20
2010.331714083257
 30
0.0
 11
1183.11386725282
 21
1993.414467653378
 31
0.0
  0
LINE
  5
904B
  8
0
 10
1183.11386725282
 20
1993.414467653378
 30
0.0
 11
1307.281990232294
 21
1993.414467653378
 31
0.0
  0
LINE
  5
904C
  8
0
 10
1307.281990232294
 20
1993.414467653378
 30
0.0
 11
1324.334241247469
 21
2010.331714083257
 31
0.0
  0
LINE
  5
904D
  8
0
 10
1166.267065045058
 20
2107.361635095969
 30
0.0
 11
1323.538127118747
 21
2107.361635095969
 31
0.0
  0
LINE
  5
904E
  8
0
 10
1166.267065045058
 20
2035.424772617545
 30
0.0
 11
1323.538127118747
 21
2035.424772617545
 31
0.0
  0
LINE
  5
904F
  8
0
 10
1799.229159579712
 20
1854.271401272668
 30
0.0
 11
1799.229159579712
 21
1976.497221223499
 31
0.0
  0
LINE
  5
9050
  8
0
 10
1799.229159579712
 20
1976.497221223499
 30
0.0
 11
1782.15122746361
 21
1993.414467653378
 31
0.0
  0
LINE
  5
9051
  8
0
 10
1782.15122746361
 20
1993.414467653378
 30
0.0
 11
1657.957423383212
 21
1993.414467653378
 31
0.0
  0
LINE
  5
9052
  8
0
 10
1657.957423383212
 20
1993.414467653378
 30
0.0
 11
1640.95653456989
 21
1976.497221223499
 31
0.0
  0
LINE
  5
9053
  8
0
 10
1640.95653456989
 20
1976.497221223499
 30
0.0
 11
1640.95653456989
 21
1854.271401272668
 31
0.0
  0
LINE
  5
9054
  8
0
 10
1640.95653456989
 20
1854.271401272668
 30
0.0
 11
1657.957423383212
 21
1837.354154842787
 31
0.0
  0
LINE
  5
9055
  8
0
 10
1657.957423383212
 20
1837.354154842787
 30
0.0
 11
1782.15122746361
 21
1837.354154842787
 31
0.0
  0
LINE
  5
9056
  8
0
 10
1782.15122746361
 20
1837.354154842787
 30
0.0
 11
1799.229159579712
 21
1854.271401272668
 31
0.0
  0
LINE
  5
9057
  8
0
 10
1641.1619833773
 20
1951.301322285381
 30
0.0
 11
1798.407364350063
 21
1951.301322285381
 31
0.0
  0
LINE
  5
9058
  8
0
 10
1641.1619833773
 20
1879.364459806957
 30
0.0
 11
1798.407364350063
 21
1879.364459806957
 31
0.0
  0
LINE
  5
9059
  8
0
 10
1640.95653456989
 20
1854.271401272668
 30
0.0
 11
1640.95653456989
 21
1976.497221223499
 31
0.0
  0
LINE
  5
905A
  8
0
 10
1640.95653456989
 20
1976.497221223499
 30
0.0
 11
1623.878602453789
 21
1993.414467653378
 31
0.0
  0
LINE
  5
905B
  8
0
 10
1623.878602453789
 20
1993.414467653378
 30
0.0
 11
1499.68479837339
 21
1993.414467653378
 31
0.0
  0
LINE
  5
905C
  8
0
 10
1499.68479837339
 20
1993.414467653378
 30
0.0
 11
1482.606866257289
 21
1976.497221223499
 31
0.0
  0
LINE
  5
905D
  8
0
 10
1482.606866257289
 20
1976.497221223499
 30
0.0
 11
1482.606866257289
 21
1854.271401272668
 31
0.0
  0
LINE
  5
905E
  8
0
 10
1482.606866257289
 20
1854.271401272668
 30
0.0
 11
1499.68479837339
 21
1837.354154842787
 31
0.0
  0
LINE
  5
905F
  8
0
 10
1499.68479837339
 20
1837.354154842787
 30
0.0
 11
1623.878602453789
 21
1837.354154842787
 31
0.0
  0
LINE
  5
9060
  8
0
 10
1623.878602453789
 20
1837.354154842787
 30
0.0
 11
1640.95653456989
 21
1854.271401272668
 31
0.0
  0
LINE
  5
9061
  8
0
 10
1482.837996165626
 20
1951.301322285381
 30
0.0
 11
1640.134739340243
 21
1951.301322285381
 31
0.0
  0
LINE
  5
9062
  8
0
 10
1482.837996165626
 20
1879.364459806957
 30
0.0
 11
1640.134739340243
 21
1879.364459806957
 31
0.0
  0
LINE
  5
9063
  8
0
 10
1482.606866257289
 20
1854.271401272668
 30
0.0
 11
1482.606866257289
 21
1976.497221223499
 31
0.0
  0
LINE
  5
9064
  8
0
 10
1482.606866257289
 20
1976.497221223499
 30
0.0
 11
1465.631658544893
 21
1993.414467653378
 31
0.0
  0
LINE
  5
9065
  8
0
 10
1465.631658544893
 20
1993.414467653378
 30
0.0
 11
1341.386492262644
 21
1993.414467653378
 31
0.0
  0
LINE
  5
9066
  8
0
 10
1341.386492262644
 20
1993.414467653378
 30
0.0
 11
1324.334241247469
 21
1976.497221223499
 31
0.0
  0
LINE
  5
9067
  8
0
 10
1324.334241247469
 20
1976.497221223499
 30
0.0
 11
1324.334241247469
 21
1854.271401272668
 31
0.0
  0
LINE
  5
9068
  8
0
 10
1324.334241247469
 20
1854.271401272668
 30
0.0
 11
1341.386492262644
 21
1837.354154842787
 31
0.0
  0
LINE
  5
9069
  8
0
 10
1341.386492262644
 20
1837.354154842787
 30
0.0
 11
1465.631658544893
 21
1837.354154842787
 31
0.0
  0
LINE
  5
906A
  8
0
 10
1465.631658544893
 20
1837.354154842787
 30
0.0
 11
1482.606866257289
 21
1854.271401272668
 31
0.0
  0
LINE
  5
906B
  8
0
 10
1324.591052256734
 20
1951.301322285381
 30
0.0
 11
1481.836433229495
 21
1951.301322285381
 31
0.0
  0
LINE
  5
906C
  8
0
 10
1324.591052256734
 20
1879.364459806957
 30
0.0
 11
1481.836433229495
 21
1879.364459806957
 31
0.0
  0
LINE
  5
906D
  8
0
 10
1324.334241247469
 20
1854.271401272668
 30
0.0
 11
1324.334241247469
 21
1976.497221223499
 31
0.0
  0
LINE
  5
906E
  8
0
 10
1324.334241247469
 20
1976.497221223499
 30
0.0
 11
1307.281990232294
 21
1993.414467653378
 31
0.0
  0
LINE
  5
906F
  8
0
 10
1307.281990232294
 20
1993.414467653378
 30
0.0
 11
1183.11386725282
 21
1993.414467653378
 31
0.0
  0
LINE
  5
9070
  8
0
 10
1183.11386725282
 20
1993.414467653378
 30
0.0
 11
1166.061616237646
 21
1976.497221223499
 31
0.0
  0
LINE
  5
9071
  8
0
 10
1166.061616237646
 20
1976.497221223499
 30
0.0
 11
1166.061616237646
 21
1854.271401272668
 31
0.0
  0
LINE
  5
9072
  8
0
 10
1166.061616237646
 20
1854.271401272668
 30
0.0
 11
1183.11386725282
 21
1837.354154842787
 31
0.0
  0
LINE
  5
9073
  8
0
 10
1183.11386725282
 20
1837.354154842787
 30
0.0
 11
1307.281990232294
 21
1837.354154842787
 31
0.0
  0
LINE
  5
9074
  8
0
 10
1307.281990232294
 20
1837.354154842787
 30
0.0
 11
1324.334241247469
 21
1854.271401272668
 31
0.0
  0
LINE
  5
9075
  8
0
 10
1166.267065045058
 20
1951.301322285381
 30
0.0
 11
1323.538127118747
 21
1951.301322285381
 31
0.0
  0
LINE
  5
9076
  8
0
 10
1166.267065045058
 20
1879.364459806957
 30
0.0
 11
1323.538127118747
 21
1879.364459806957
 31
0.0
  0
LINE
  5
9077
  8
0
 10
1957.501784589533
 20
1698.211088462078
 30
0.0
 11
1957.501784589533
 21
1820.436908412908
 31
0.0
  0
LINE
  5
9078
  8
0
 10
1957.501784589533
 20
1820.436908412908
 30
0.0
 11
1940.449533574358
 21
1837.354154842787
 31
0.0
  0
LINE
  5
9079
  8
0
 10
1940.449533574358
 20
1837.354154842787
 30
0.0
 11
1816.281410594886
 21
1837.354154842787
 31
0.0
  0
LINE
  5
907A
  8
0
 10
1816.281410594886
 20
1837.354154842787
 30
0.0
 11
1799.229159579712
 21
1820.436908412908
 31
0.0
  0
LINE
  5
907B
  8
0
 10
1799.229159579712
 20
1820.436908412908
 30
0.0
 11
1799.229159579712
 21
1698.211088462078
 31
0.0
  0
LINE
  5
907C
  8
0
 10
1799.229159579712
 20
1698.211088462078
 30
0.0
 11
1816.281410594886
 21
1681.293842032199
 31
0.0
  0
LINE
  5
907D
  8
0
 10
1816.281410594886
 20
1681.293842032199
 30
0.0
 11
1940.449533574358
 21
1681.293842032199
 31
0.0
  0
LINE
  5
907E
  8
0
 10
1940.449533574358
 20
1681.293842032199
 30
0.0
 11
1957.501784589533
 21
1698.211088462078
 31
0.0
  0
LINE
  5
907F
  8
0
 10
1799.408927286197
 20
1795.24100947479
 30
0.0
 11
1956.731351561739
 21
1795.24100947479
 31
0.0
  0
LINE
  5
9080
  8
0
 10
1799.408927286197
 20
1723.304146996368
 30
0.0
 11
1956.731351561739
 21
1723.304146996368
 31
0.0
  0
LINE
  5
9081
  8
0
 10
1799.229159579712
 20
1698.211088462078
 30
0.0
 11
1799.229159579712
 21
1820.436908412908
 31
0.0
  0
LINE
  5
9082
  8
0
 10
1799.229159579712
 20
1820.436908412908
 30
0.0
 11
1782.15122746361
 21
1837.354154842787
 31
0.0
  0
LINE
  5
9083
  8
0
 10
1782.15122746361
 20
1837.354154842787
 30
0.0
 11
1657.957423383212
 21
1837.354154842787
 31
0.0
  0
LINE
  5
9084
  8
0
 10
1657.957423383212
 20
1837.354154842787
 30
0.0
 11
1640.95653456989
 21
1820.436908412908
 31
0.0
  0
LINE
  5
9085
  8
0
 10
1640.95653456989
 20
1820.436908412908
 30
0.0
 11
1640.95653456989
 21
1698.211088462078
 31
0.0
  0
LINE
  5
9086
  8
0
 10
1640.95653456989
 20
1698.211088462078
 30
0.0
 11
1657.957423383212
 21
1681.293842032199
 31
0.0
  0
LINE
  5
9087
  8
0
 10
1657.957423383212
 20
1681.293842032199
 30
0.0
 11
1782.15122746361
 21
1681.293842032199
 31
0.0
  0
LINE
  5
9088
  8
0
 10
1782.15122746361
 20
1681.293842032199
 30
0.0
 11
1799.229159579712
 21
1698.211088462078
 31
0.0
  0
LINE
  5
9089
  8
0
 10
1641.1619833773
 20
1795.24100947479
 30
0.0
 11
1798.407364350063
 21
1795.24100947479
 31
0.0
  0
LINE
  5
908A
  8
0
 10
1641.1619833773
 20
1723.304146996368
 30
0.0
 11
1798.407364350063
 21
1723.304146996368
 31
0.0
  0
LINE
  5
908B
  8
0
 10
1640.95653456989
 20
1698.211088462078
 30
0.0
 11
1640.95653456989
 21
1820.436908412908
 31
0.0
  0
LINE
  5
908C
  8
0
 10
1640.95653456989
 20
1820.436908412908
 30
0.0
 11
1623.878602453789
 21
1837.354154842787
 31
0.0
  0
LINE
  5
908D
  8
0
 10
1623.878602453789
 20
1837.354154842787
 30
0.0
 11
1499.68479837339
 21
1837.354154842787
 31
0.0
  0
LINE
  5
908E
  8
0
 10
1499.68479837339
 20
1837.354154842787
 30
0.0
 11
1482.606866257289
 21
1820.436908412908
 31
0.0
  0
LINE
  5
908F
  8
0
 10
1482.606866257289
 20
1820.436908412908
 30
0.0
 11
1482.606866257289
 21
1698.211088462078
 31
0.0
  0
LINE
  5
9090
  8
0
 10
1482.606866257289
 20
1698.211088462078
 30
0.0
 11
1499.68479837339
 21
1681.293842032199
 31
0.0
  0
LINE
  5
9091
  8
0
 10
1499.68479837339
 20
1681.293842032199
 30
0.0
 11
1623.878602453789
 21
1681.293842032199
 31
0.0
  0
LINE
  5
9092
  8
0
 10
1623.878602453789
 20
1681.293842032199
 30
0.0
 11
1640.95653456989
 21
1698.211088462078
 31
0.0
  0
LINE
  5
9093
  8
0
 10
1482.837996165626
 20
1795.24100947479
 30
0.0
 11
1640.134739340243
 21
1795.24100947479
 31
0.0
  0
LINE
  5
9094
  8
0
 10
1482.837996165626
 20
1723.304146996368
 30
0.0
 11
1640.134739340243
 21
1723.304146996368
 31
0.0
  0
LINE
  5
9095
  8
0
 10
1482.606866257289
 20
1698.211088462078
 30
0.0
 11
1482.606866257289
 21
1820.436908412908
 31
0.0
  0
LINE
  5
9096
  8
0
 10
1482.606866257289
 20
1820.436908412908
 30
0.0
 11
1465.631658544893
 21
1837.354154842787
 31
0.0
  0
LINE
  5
9097
  8
0
 10
1465.631658544893
 20
1837.354154842787
 30
0.0
 11
1341.386492262644
 21
1837.354154842787
 31
0.0
  0
LINE
  5
9098
  8
0
 10
1341.386492262644
 20
1837.354154842787
 30
0.0
 11
1324.334241247469
 21
1820.436908412908
 31
0.0
  0
LINE
  5
9099
  8
0
 10
1324.334241247469
 20
1820.436908412908
 30
0.0
 11
1324.334241247469
 21
1698.211088462078
 31
0.0
  0
LINE
  5
909A
  8
0
 10
1324.334241247469
 20
1698.211088462078
 30
0.0
 11
1341.386492262644
 21
1681.293842032199
 31
0.0
  0
LINE
  5
909B
  8
0
 10
1341.386492262644
 20
1681.293842032199
 30
0.0
 11
1465.631658544893
 21
1681.293842032199
 31
0.0
  0
LINE
  5
909C
  8
0
 10
1465.631658544893
 20
1681.293842032199
 30
0.0
 11
1482.606866257289
 21
1698.211088462078
 31
0.0
  0
LINE
  5
909D
  8
0
 10
1324.591052256734
 20
1795.24100947479
 30
0.0
 11
1481.836433229495
 21
1795.24100947479
 31
0.0
  0
LINE
  5
909E
  8
0
 10
1324.591052256734
 20
1723.304146996368
 30
0.0
 11
1481.836433229495
 21
1723.304146996368
 31
0.0
  0
LINE
  5
909F
  8
0
 10
1324.334241247469
 20
1698.211088462078
 30
0.0
 11
1324.334241247469
 21
1820.436908412908
 31
0.0
  0
LINE
  5
90A0
  8
0
 10
1324.334241247469
 20
1820.436908412908
 30
0.0
 11
1307.281990232294
 21
1837.354154842787
 31
0.0
  0
LINE
  5
90A1
  8
0
 10
1307.281990232294
 20
1837.354154842787
 30
0.0
 11
1183.11386725282
 21
1837.354154842787
 31
0.0
  0
LINE
  5
90A2
  8
0
 10
1183.11386725282
 20
1837.354154842787
 30
0.0
 11
1166.061616237646
 21
1820.436908412908
 31
0.0
  0
LINE
  5
90A3
  8
0
 10
1166.061616237646
 20
1820.436908412908
 30
0.0
 11
1166.061616237646
 21
1698.211088462078
 31
0.0
  0
LINE
  5
90A4
  8
0
 10
1166.061616237646
 20
1698.211088462078
 30
0.0
 11
1183.11386725282
 21
1681.293842032199
 31
0.0
  0
LINE
  5
90A5
  8
0
 10
1183.11386725282
 20
1681.293842032199
 30
0.0
 11
1307.281990232294
 21
1681.293842032199
 31
0.0
  0
LINE
  5
90A6
  8
0
 10
1307.281990232294
 20
1681.293842032199
 30
0.0
 11
1324.334241247469
 21
1698.211088462078
 31
0.0
  0
LINE
  5
90A7
  8
0
 10
1166.267065045058
 20
1795.24100947479
 30
0.0
 11
1323.538127118747
 21
1795.24100947479
 31
0.0
  0
LINE
  5
90A8
  8
0
 10
1166.267065045058
 20
1723.304146996368
 30
0.0
 11
1323.538127118747
 21
1723.304146996368
 31
0.0
  0
LINE
  5
90A9
  8
0
 10
1957.501784589533
 20
1542.150775651489
 30
0.0
 11
1957.501784589533
 21
1664.37659560232
 31
0.0
  0
LINE
  5
90AA
  8
0
 10
1957.501784589533
 20
1664.37659560232
 30
0.0
 11
1940.449533574358
 21
1681.293842032199
 31
0.0
  0
LINE
  5
90AB
  8
0
 10
1940.449533574358
 20
1681.293842032199
 30
0.0
 11
1816.281410594886
 21
1681.293842032199
 31
0.0
  0
LINE
  5
90AC
  8
0
 10
1816.281410594886
 20
1681.293842032199
 30
0.0
 11
1799.229159579712
 21
1664.37659560232
 31
0.0
  0
LINE
  5
90AD
  8
0
 10
1799.229159579712
 20
1664.37659560232
 30
0.0
 11
1799.229159579712
 21
1542.150775651489
 31
0.0
  0
LINE
  5
90AE
  8
0
 10
1799.229159579712
 20
1542.150775651489
 30
0.0
 11
1816.281410594886
 21
1525.207819120653
 31
0.0
  0
LINE
  5
90AF
  8
0
 10
1816.281410594886
 20
1525.207819120653
 30
0.0
 11
1940.449533574358
 21
1525.207819120653
 31
0.0
  0
LINE
  5
90B0
  8
0
 10
1940.449533574358
 20
1525.207819120653
 30
0.0
 11
1957.501784589533
 21
1542.150775651489
 31
0.0
  0
LINE
  5
90B1
  8
0
 10
1799.408927286197
 20
1639.180696664202
 30
0.0
 11
1956.731351561739
 21
1639.180696664202
 31
0.0
  0
LINE
  5
90B2
  8
0
 10
1799.408927286197
 20
1567.243834185778
 30
0.0
 11
1956.731351561739
 21
1567.243834185778
 31
0.0
  0
LINE
  5
90B3
  8
0
 10
1799.229159579712
 20
1542.150775651489
 30
0.0
 11
1799.229159579712
 21
1664.37659560232
 31
0.0
  0
LINE
  5
90B4
  8
0
 10
1799.229159579712
 20
1664.37659560232
 30
0.0
 11
1782.15122746361
 21
1681.293842032199
 31
0.0
  0
LINE
  5
90B5
  8
0
 10
1782.15122746361
 20
1681.293842032199
 30
0.0
 11
1657.957423383212
 21
1681.293842032199
 31
0.0
  0
LINE
  5
90B6
  8
0
 10
1657.957423383212
 20
1681.293842032199
 30
0.0
 11
1640.95653456989
 21
1664.37659560232
 31
0.0
  0
LINE
  5
90B7
  8
0
 10
1640.95653456989
 20
1664.37659560232
 30
0.0
 11
1640.95653456989
 21
1542.150775651489
 31
0.0
  0
LINE
  5
90B8
  8
0
 10
1640.95653456989
 20
1542.150775651489
 30
0.0
 11
1657.957423383212
 21
1525.207819120653
 31
0.0
  0
LINE
  5
90B9
  8
0
 10
1657.957423383212
 20
1525.207819120653
 30
0.0
 11
1782.15122746361
 21
1525.207819120653
 31
0.0
  0
LINE
  5
90BA
  8
0
 10
1782.15122746361
 20
1525.207819120653
 30
0.0
 11
1799.229159579712
 21
1542.150775651489
 31
0.0
  0
LINE
  5
90BB
  8
0
 10
1641.1619833773
 20
1639.180696664202
 30
0.0
 11
1798.407364350063
 21
1639.180696664202
 31
0.0
  0
LINE
  5
90BC
  8
0
 10
1641.1619833773
 20
1567.243834185778
 30
0.0
 11
1798.407364350063
 21
1567.243834185778
 31
0.0
  0
LINE
  5
90BD
  8
0
 10
1640.95653456989
 20
1542.150775651489
 30
0.0
 11
1640.95653456989
 21
1664.37659560232
 31
0.0
  0
LINE
  5
90BE
  8
0
 10
1640.95653456989
 20
1664.37659560232
 30
0.0
 11
1623.878602453789
 21
1681.293842032199
 31
0.0
  0
LINE
  5
90BF
  8
0
 10
1623.878602453789
 20
1681.293842032199
 30
0.0
 11
1499.68479837339
 21
1681.293842032199
 31
0.0
  0
LINE
  5
90C0
  8
0
 10
1499.68479837339
 20
1681.293842032199
 30
0.0
 11
1482.606866257289
 21
1664.37659560232
 31
0.0
  0
LINE
  5
90C1
  8
0
 10
1482.606866257289
 20
1664.37659560232
 30
0.0
 11
1482.606866257289
 21
1542.150775651489
 31
0.0
  0
LINE
  5
90C2
  8
0
 10
1482.606866257289
 20
1542.150775651489
 30
0.0
 11
1499.68479837339
 21
1525.207819120653
 31
0.0
  0
LINE
  5
90C3
  8
0
 10
1499.68479837339
 20
1525.207819120653
 30
0.0
 11
1623.878602453789
 21
1525.207819120653
 31
0.0
  0
LINE
  5
90C4
  8
0
 10
1623.878602453789
 20
1525.207819120653
 30
0.0
 11
1640.95653456989
 21
1542.150775651489
 31
0.0
  0
LINE
  5
90C5
  8
0
 10
1482.837996165626
 20
1639.180696664202
 30
0.0
 11
1640.134739340243
 21
1639.180696664202
 31
0.0
  0
LINE
  5
90C6
  8
0
 10
1482.837996165626
 20
1567.243834185778
 30
0.0
 11
1640.134739340243
 21
1567.243834185778
 31
0.0
  0
LINE
  5
90C7
  8
0
 10
1482.606866257289
 20
1542.150775651489
 30
0.0
 11
1482.606866257289
 21
1664.37659560232
 31
0.0
  0
LINE
  5
90C8
  8
0
 10
1482.606866257289
 20
1664.37659560232
 30
0.0
 11
1465.631658544893
 21
1681.293842032199
 31
0.0
  0
LINE
  5
90C9
  8
0
 10
1465.631658544893
 20
1681.293842032199
 30
0.0
 11
1341.386492262644
 21
1681.293842032199
 31
0.0
  0
LINE
  5
90CA
  8
0
 10
1341.386492262644
 20
1681.293842032199
 30
0.0
 11
1324.334241247469
 21
1664.37659560232
 31
0.0
  0
LINE
  5
90CB
  8
0
 10
1324.334241247469
 20
1664.37659560232
 30
0.0
 11
1324.334241247469
 21
1542.150775651489
 31
0.0
  0
LINE
  5
90CC
  8
0
 10
1324.334241247469
 20
1542.150775651489
 30
0.0
 11
1341.386492262644
 21
1525.207819120653
 31
0.0
  0
LINE
  5
90CD
  8
0
 10
1341.386492262644
 20
1525.207819120653
 30
0.0
 11
1465.631658544893
 21
1525.207819120653
 31
0.0
  0
LINE
  5
90CE
  8
0
 10
1465.631658544893
 20
1525.207819120653
 30
0.0
 11
1482.606866257289
 21
1542.150775651489
 31
0.0
  0
LINE
  5
90CF
  8
0
 10
1324.591052256734
 20
1639.180696664202
 30
0.0
 11
1481.836433229495
 21
1639.180696664202
 31
0.0
  0
LINE
  5
90D0
  8
0
 10
1324.591052256734
 20
1567.243834185778
 30
0.0
 11
1481.836433229495
 21
1567.243834185778
 31
0.0
  0
LINE
  5
90D1
  8
0
 10
1324.334241247469
 20
1542.150775651489
 30
0.0
 11
1324.334241247469
 21
1664.37659560232
 31
0.0
  0
LINE
  5
90D2
  8
0
 10
1324.334241247469
 20
1664.37659560232
 30
0.0
 11
1307.281990232294
 21
1681.293842032199
 31
0.0
  0
LINE
  5
90D3
  8
0
 10
1307.281990232294
 20
1681.293842032199
 30
0.0
 11
1183.11386725282
 21
1681.293842032199
 31
0.0
  0
LINE
  5
90D4
  8
0
 10
1183.11386725282
 20
1681.293842032199
 30
0.0
 11
1166.061616237646
 21
1664.37659560232
 31
0.0
  0
LINE
  5
90D5
  8
0
 10
1166.061616237646
 20
1664.37659560232
 30
0.0
 11
1166.061616237646
 21
1542.150775651489
 31
0.0
  0
LINE
  5
90D6
  8
0
 10
1166.061616237646
 20
1542.150775651489
 30
0.0
 11
1183.11386725282
 21
1525.207819120653
 31
0.0
  0
LINE
  5
90D7
  8
0
 10
1183.11386725282
 20
1525.207819120653
 30
0.0
 11
1307.281990232294
 21
1525.207819120653
 31
0.0
  0
LINE
  5
90D8
  8
0
 10
1307.281990232294
 20
1525.207819120653
 30
0.0
 11
1324.334241247469
 21
1542.150775651489
 31
0.0
  0
LINE
  5
90D9
  8
0
 10
1166.267065045058
 20
1639.180696664202
 30
0.0
 11
1323.538127118747
 21
1639.180696664202
 31
0.0
  0
LINE
  5
90DA
  8
0
 10
1166.267065045058
 20
1567.243834185778
 30
0.0
 11
1323.538127118747
 21
1567.243834185778
 31
0.0
  0
LINE
  5
91AF
  8
0
 10
1420.895028799127
 20
2484.969949741364
 30
0.0
 11
1497.034398385384
 21
2550.014609389816
 31
0.0
  0
LINE
  5
91B0
  8
0
 10
1981.095028799128
 20
1829.069949741364
 30
0.0
 11
2057.306661013023
 21
1894.176342210111
 31
0.0
  0
LINE
  5
91B1
  8
0
 10
1542.228305555685
 20
2496.557707546535
 30
0.0
 11
2011.565316568376
 21
1947.165577045086
 31
0.0
  0
LINE
  5
91B5
  8
0
 10
1981.124987605665
 20
1501.888757552422
 30
0.0
 11
2081.359987605665
 21
1501.888757552422
 31
0.0
  0
LINE
  5
91B6
  8
0
 10
1981.124987605665
 20
1828.988757552422
 30
0.0
 11
2081.359987605665
 21
1828.988757552422
 31
0.0
  0
LINE
  5
91B7
  8
0
 10
2080.999987605665
 20
1571.888757552422
 30
0.0
 11
2080.999987605665
 21
1758.988757552422
 31
0.0
  0
LINE
  5
91BB
  8
0
 10
1142.999987605665
 20
1501.763757552422
 30
0.0
 11
1142.999987605665
 21
1401.528757552422
 31
0.0
  0
LINE
  5
91BC
  8
0
 10
1980.999987605665
 20
1501.763757552422
 30
0.0
 11
1980.999987605665
 21
1401.528757552422
 31
0.0
  0
LINE
  5
91BD
  8
0
 10
1212.999987605665
 20
1401.888757552422
 30
0.0
 11
1910.999987605665
 21
1401.888757552422
 31
0.0
  0
LINE
  5
91C1
  8
0
 10
1142.874987605665
 20
1501.888757552422
 30
0.0
 11
1042.639987605664
 21
1501.888757552422
 31
0.0
  0
LINE
  5
91C2
  8
0
 10
1142.874987605665
 20
2484.888757552422
 30
0.0
 11
1042.639987605665
 21
2484.888757552422
 31
0.0
  0
LINE
  5
91C3
  8
0
 10
1042.999987605665
 20
1571.888757552422
 30
0.0
 11
1042.999987605665
 21
2414.888757552422
 31
0.0
  0
LINE
  5
91C7
  8
0
 10
1142.999987605665
 20
2485.013757552422
 30
0.0
 11
1142.999987605665
 21
2685.248757552422
 31
0.0
  0
LINE
  5
91C8
  8
0
 10
1420.799987605664
 20
2485.013757552422
 30
0.0
 11
1420.799987605664
 21
2685.248757552422
 31
0.0
  0
LINE
  5
91C9
  8
0
 10
1212.999987605665
 20
2684.888757552422
 30
0.0
 11
1350.799987605664
 21
2684.888757552422
 31
0.0
  0
LINE
  5
91CD
  8
0
 10
2280.999987605665
 20
2485.013757552422
 30
0.0
 11
2280.999987605665
 21
2685.248757552422
 31
0.0
  0
LINE
  5
91CE
  8
0
 10
2327.000012394335
 20
2485.013757552422
 30
0.0
 11
2327.000012394335
 21
2685.248757552422
 31
0.0
  0
LINE
  5
91CF
  8
0
 10
2210.999987605665
 20
2684.888757552422
 30
0.0
 11
2140.999987605665
 21
2684.888757552422
 31
0.0
  0
LINE
  5
91D0
  8
0
 10
2397.000012394335
 20
2684.888757552422
 30
0.0
 11
2599.67046693979
 21
2684.888757552422
 31
0.0
  0
LINE
  5
91D1
  8
0
 10
2280.999987605665
 20
2684.888757552422
 30
0.0
 11
2327.000012394335
 21
2684.888757552422
 31
0.0
  0
LINE
  5
91EB
  8
0
 10
3655.0
 20
2543.388757552422
 30
0.0
 11
5155.0
 21
2543.388757552422
 31
0.0
  0
LINE
  5
91EC
  8
0
 10
3655.0
 20
2443.388757552422
 30
0.0
 11
5155.0
 21
2443.388757552422
 31
0.0
  0
LINE
  5
91ED
  8
0
 10
3655.0
 20
2343.388757552422
 30
0.0
 11
5155.0
 21
2343.388757552422
 31
0.0
  0
LINE
  5
91EE
  8
0
 10
3655.0
 20
2243.388757552422
 30
0.0
 11
5155.0
 21
2243.388757552422
 31
0.0
  0
LINE
  5
91EF
  8
0
 10
3655.0
 20
2143.388757552422
 30
0.0
 11
5155.0
 21
2143.388757552422
 31
0.0
  0
LINE
  5
91F0
  8
0
 10
3655.0
 20
2043.388757552422
 30
0.0
 11
5155.0
 21
2043.388757552422
 31
0.0
  0
LINE
  5
91F1
  8
0
 10
3655.0
 20
1943.388757552422
 30
0.0
 11
5155.0
 21
1943.388757552422
 31
0.0
  0
LINE
  5
91F2
  8
0
 10
3655.0
 20
1843.388757552422
 30
0.0
 11
5155.0
 21
1843.388757552422
 31
0.0
  0
LINE
  5
91F3
  8
0
 10
3655.0
 20
1743.388757552422
 30
0.0
 11
5155.0
 21
1743.388757552422
 31
0.0
  0
LINE
  5
91F4
  8
0
 10
3655.0
 20
1643.388757552422
 30
0.0
 11
5155.0
 21
1643.388757552422
 31
0.0
  0
LINE
  5
91F5
  8
0
 10
3655.0
 20
1543.388757552422
 30
0.0
 11
5155.0
 21
1543.388757552422
 31
0.0
  0
LINE
  5
91F6
  8
0
 10
3655.0
 20
1443.388757552422
 30
0.0
 11
5155.0
 21
1443.388757552422
 31
0.0
  0
LINE
  5
91F7
  8
0
 10
3655.0
 20
2543.388757552422
 30
0.0
 11
3655.0
 21
1443.388757552422
 31
0.0
  0
LINE
  5
91F8
  8
0
 10
4355.0
 20
2543.388757552422
 30
0.0
 11
4355.0
 21
1443.388757552422
 31
0.0
  0
LINE
  5
91F9
  8
0
 10
5155.0
 20
2543.388757552422
 30
0.0
 11
5155.0
 21
1443.388757552422
 31
0.0
  0
LINE
  5
91FA
  8
0
 62
     8
 10
3655.0
 20
2543.388757552422
 30
0.0
 11
3655.0
 21
2543.388757552422
 31
0.0
  0
LINE
  5
91FB
  8
図面枠
 10
5740.0
 20
200.0
 30
0.0
 11
5740.0
 21
4000.0
 31
0.0
  0
LINE
  5
91FC
  8
図面枠
 10
5740.0
 20
4000.0
 30
0.0
 11
400.0
 21
4000.0
 31
0.0
  0
LINE
  5
91FD
  8
図面枠
 10
400.0
 20
4000.0
 30
0.0
 11
400.0
 21
200.0
 31
0.0
  0
LINE
  5
91FE
  8
図面枠
 10
400.0
 20
200.0
 30
0.0
 11
5740.0
 21
200.0
 31
0.0
  0
LINE
  5
91FF
  8
用紙枠
 10
0.0
 20
0.0
 30
0.0
 11
5940.0
 21
0.0
 31
0.0
  0
LINE
  5
9200
  8
用紙枠
 10
5940.0
 20
0.0
 30
0.0
 11
5940.0
 21
4200.0
 31
0.0
  0
LINE
  5
9201
  8
用紙枠
 10
5940.0
 20
4200.0
 30
0.0
 11
0.0
 21
4200.0
 31
0.0
  0
LINE
  5
9202
  8
用紙枠
 10
0.0
 20
4200.0
 30
0.0
 11
0.0
 21
0.0
 31
0.0
  0
TEXT
  5
9203
  8
0
 10
4690.909090909091
 20
1473.729666643331
 30
0.0
 40
40.0
  1
8.3㎏
  0
TEXT
  5
9204
  8
0
 10
3658.0
 20
1473.047848461513
 30
0.0
 40
40.0
  1
  質量
  0
TEXT
  5
9205
  8
0
 10
4558.181818181818
 20
1573.388757552422
 30
0.0
 40
40.0
  1
838x983x46ｍｍ
  0
TEXT
  5
9206
  8
0
 10
3658.0
 20
1573.047848461513
 30
0.0
 40
40.0
  1
  外形寸法（WxHxD）
  0
TEXT
  5
9207
  8
0
 10
4691.818181818182
 20
1673.388757552422
 30
0.0
 40
40.0
  1
600V
  0
TEXT
  5
9208
  8
0
 10
3658.0
 20
1672.934212097877
 30
0.0
 40
40.0
  1
  最大システム電圧
  0
TEXT
  5
9209
  8
0
 10
4686.022727272727
 20
1773.388757552422
 30
0.0
 40
40.0
  1
8.85A
  0
TEXT
  5
920A
  8
0
 10
3658.0
 20
1772.252393916059
 30
0.0
 40
40.0
  1
  公称短絡電流
  0
TEXT
  5
920B
  8
0
 10
4684.431818181818
 20
1873.388757552422
 30
0.0
 40
40.0
  1
12.7V
  0
TEXT
  5
920C
  8
0
 10
3658.0
 20
1872.479666643331
 30
0.0
 40
40.0
  1
  公称開放電圧
  0
TEXT
  5
920D
  8
0
 10
4686.022727272727
 20
1973.388757552422
 30
0.0
 40
40.0
  1
8.32A
  0
TEXT
  5
920E
  8
0
 10
3658.0
 20
1972.593303006968
 30
0.0
 40
40.0
  1
  公称最大出力動作電流
  0
TEXT
  5
920F
  8
0
 10
4685.909090909091
 20
2073.388757552422
 30
0.0
 40
40.0
  1
9.99V
  0
TEXT
  5
9210
  8
0
 10
3658.0
 20
2072.593303006968
 30
0.0
 40
40.0
  1
  公称最大出力動作電圧
  0
TEXT
  5
9211
  8
0
 10
4703.181818181818
 20
2173.388757552422
 30
0.0
 40
40.0
  1
83W
  0
TEXT
  5
9212
  8
0
 10
3658.0
 20
2172.479666643331
 30
0.0
 40
40.0
  1
  公称最大出力
  0
TEXT
  5
9213
  8
0
 10
4688.75
 20
2273.388757552422
 30
0.0
 40
40.0
  1
12.9%%%
  0
TEXT
  5
9214
  8
0
 10
3658.0
 20
2272.252393916059
 30
0.0
 40
40.0
  1
  最大モジュール変換効率
  0
TEXT
  5
9215
  8
0
 10
4543.068181818182
 20
2372.252393916058
 30
0.0
 40
40.0
  1
シリコン単結晶系
  0
TEXT
  5
9216
  8
0
 10
3658.0
 20
2372.934212097877
 30
0.0
 40
40.0
  1
  セル種類
  0
TEXT
  5
9217
  8
0
 10
4526.022727272727
 20
2473.388757552422
 30
0.0
 40
40.0
  1
LPV-83RV-BLK-J
  0
TEXT
  5
9218
  8
0
 10
3658.0
 20
2471.911484825149
 30
0.0
 40
40.0
  1
  型式
  0
TEXT
  5
9219
  8
0
 10
2483.42046693979
 20
2704.888757552422
 30
0.0
 40
70.0
  1
46
  0
LINE
  5
921A
  8
0
 10
2397.000012394335
 20
2673.222090885756
 30
0.0
 11
2327.000012394335
 21
2684.888757552422
 31
0.0
  0
LINE
  5
921B
  8
0
 10
2397.000012394335
 20
2696.555424219089
 30
0.0
 11
2327.000012394335
 21
2684.888757552422
 31
0.0
  0
LINE
  5
921C
  8
0
 10
2327.000012394335
 20
2684.888757552422
 30
0.0
 11
2397.000012394335
 21
2684.888757552422
 31
0.0
  0
LINE
  5
921D
  8
0
 10
2210.999987605665
 20
2696.555424219089
 30
0.0
 11
2280.999987605665
 21
2684.888757552422
 31
0.0
  0
LINE
  5
921E
  8
0
 10
2210.999987605665
 20
2673.222090885756
 30
0.0
 11
2280.999987605665
 21
2684.888757552422
 31
0.0
  0
LINE
  5
921F
  8
0
 10
2280.999987605665
 20
2684.888757552422
 30
0.0
 11
2210.999987605665
 21
2684.888757552422
 31
0.0
  0
TEXT
  5
9220
  8
0
 10
1169.54203306021
 20
2704.888757552422
 30
0.0
 40
70.0
  1
277.8
  0
LINE
  5
9221
  8
0
 10
1350.799987605664
 20
2696.555424219089
 30
0.0
 11
1420.799987605664
 21
2684.888757552422
 31
0.0
  0
LINE
  5
9222
  8
0
 10
1350.799987605664
 20
2673.222090885756
 30
0.0
 11
1420.799987605664
 21
2684.888757552422
 31
0.0
  0
LINE
  5
9223
  8
0
 10
1420.799987605664
 20
2684.888757552422
 30
0.0
 11
1350.799987605664
 21
2684.888757552422
 31
0.0
  0
LINE
  5
9224
  8
0
 10
1212.999987605665
 20
2673.222090885756
 30
0.0
 11
1142.999987605665
 21
2684.888757552422
 31
0.0
  0
LINE
  5
9225
  8
0
 10
1212.999987605665
 20
2696.555424219089
 30
0.0
 11
1142.999987605665
 21
2684.888757552422
 31
0.0
  0
LINE
  5
9226
  8
0
 10
1142.999987605665
 20
2684.888757552422
 30
0.0
 11
1212.999987605665
 21
2684.888757552422
 31
0.0
  0
TEXT
  5
9227
  8
0
 10
1022.999987605664
 20
1916.826257552423
 30
0.0
 40
70.0
  1
983
 50
90.0
  0
LINE
  5
9228
  8
0
 10
1031.333320938998
 20
2414.888757552422
 30
0.0
 11
1042.999987605665
 21
2484.888757552422
 31
0.0
  0
LINE
  5
9229
  8
0
 10
1054.666654272331
 20
2414.888757552422
 30
0.0
 11
1042.999987605665
 21
2484.888757552422
 31
0.0
  0
LINE
  5
922A
  8
0
 10
1042.999987605665
 20
2484.888757552422
 30
0.0
 11
1042.999987605665
 21
2414.888757552422
 31
0.0
  0
LINE
  5
922B
  8
0
 10
1054.666654272331
 20
1571.888757552422
 30
0.0
 11
1042.999987605664
 21
1501.888757552422
 31
0.0
  0
LINE
  5
922C
  8
0
 10
1031.333320938998
 20
1571.888757552422
 30
0.0
 11
1042.999987605664
 21
1501.888757552422
 31
0.0
  0
LINE
  5
922D
  8
0
 10
1042.999987605664
 20
1501.888757552422
 30
0.0
 11
1042.999987605664
 21
1571.888757552422
 31
0.0
  0
TEXT
  5
922E
  8
0
 10
1485.636351242028
 20
1421.888757552422
 30
0.0
 40
70.0
  1
838
  0
LINE
  5
922F
  8
0
 10
1910.999987605665
 20
1413.555424219089
 30
0.0
 11
1980.999987605665
 21
1401.888757552422
 31
0.0
  0
LINE
  5
9230
  8
0
 10
1910.999987605665
 20
1390.222090885756
 30
0.0
 11
1980.999987605665
 21
1401.888757552422
 31
0.0
  0
LINE
  5
9231
  8
0
 10
1980.999987605665
 20
1401.888757552422
 30
0.0
 11
1910.999987605665
 21
1401.888757552422
 31
0.0
  0
LINE
  5
9232
  8
0
 10
1212.999987605665
 20
1390.222090885756
 30
0.0
 11
1142.999987605665
 21
1401.888757552422
 31
0.0
  0
LINE
  5
9233
  8
0
 10
1212.999987605665
 20
1413.555424219089
 30
0.0
 11
1142.999987605665
 21
1401.888757552422
 31
0.0
  0
LINE
  5
9234
  8
0
 10
1142.999987605665
 20
1401.888757552422
 30
0.0
 11
1212.999987605665
 21
1401.888757552422
 31
0.0
  0
TEXT
  5
9235
  8
0
 10
2060.999987605664
 20
1560.239893916059
 30
0.0
 40
70.0
  1
327.1
 50
90.0
  0
LINE
  5
9236
  8
0
 10
2069.333320938998
 20
1758.988757552422
 30
0.0
 11
2080.999987605665
 21
1828.988757552422
 31
0.0
  0
LINE
  5
9237
  8
0
 10
2092.666654272331
 20
1758.988757552422
 30
0.0
 11
2080.999987605665
 21
1828.988757552422
 31
0.0
  0
LINE
  5
9238
  8
0
 10
2080.999987605665
 20
1828.988757552422
 30
0.0
 11
2080.999987605665
 21
1758.988757552422
 31
0.0
  0
LINE
  5
9239
  8
0
 10
2092.666654272331
 20
1571.888757552422
 30
0.0
 11
2080.999987605665
 21
1501.888757552422
 31
0.0
  0
LINE
  5
923A
  8
0
 10
2069.333320938998
 20
1571.888757552422
 30
0.0
 11
2080.999987605665
 21
1501.888757552422
 31
0.0
  0
LINE
  5
923B
  8
0
 10
2080.999987605665
 20
1501.888757552422
 30
0.0
 11
2080.999987605665
 21
1571.888757552422
 31
0.0
  0
TEXT
  5
923C
  8
0
 10
1719.510203993907
 20
2319.827859590694
 30
0.0
 40
70.0
  1
862.6
 50
310.5067412959407
  0
LINE
  5
923D
  8
0
 10
2020.435827958231
 20
1954.743514679665
 30
0.0
 11
2057.03294237585
 21
1893.942508705958
 31
0.0
  0
LINE
  5
923E
  8
0
 10
2002.694805178522
 20
1939.587639410507
 30
0.0
 11
2057.03294237585
 21
1893.942508705958
 31
0.0
  0
LINE
  5
923F
  8
0
 10
2057.03294237585
 20
1893.942508705958
 30
0.0
 11
2011.565316568376
 21
1947.165577045086
 31
0.0
  0
LINE
  5
9240
  8
0
 10
1533.35779416583
 20
2488.979769911956
 30
0.0
 11
1496.760679748211
 21
2549.780775885663
 31
0.0
  0
LINE
  5
9241
  8
0
 10
1551.09881694554
 20
2504.135645181114
 30
0.0
 11
1496.760679748211
 21
2549.780775885663
 31
0.0
  0
LINE
  5
9242
  8
0
 10
1496.760679748211
 20
2549.780775885663
 30
0.0
 11
1542.228305555685
 21
2496.557707546535
 31
0.0
  0
VIEWPORT
  5
2C13
 67
     1
  8
0
  6
CONTINUOUS
 10
145.330337524414
 20
141.1905255588052
 30
0.0
 40
366.1848134449208
 41
300.9119599272723
 68
     1
 69
     1
1001
ACAD
1000
MVIEW
1002
{
1070
    16
1010
0.0
1020
0.0
1030
0.0
1020
0.0
1030
0.0
1010
0.0
1020
0.0
1030
1.0
1020
0.0
1030
1.0
1040
0.0
1040
300.9119599272723
1040
145.330337524414
1040
141.1905255588052
1040
50.0
1040
0.0
1040
0.0
1070
     0
1070
   100
1070
     0
1070
     1
1070
     0
1070
     0
1070
     0
1070
     0
1040
0.0
1040
0.0
1040
0.0
1040
10.0
1040
10.0
1040
10.0
1040
10.0
1070
     0
1002
{
1002
}
1002
}
  0
VIEWPORT
  5
2C17
 67
     1
  8
0
  6
CONTINUOUS
 10
145.3303314447403
 20
101.8328338861465
 30
0.0
 40
232.5285303115845
 41
162.9325342178345
 68
     2
 69
     2
1001
ACAD
1000
MVIEW
1002
{
1070
    16
1010
0.0
1020
0.0
1030
0.0
1020
0.0
1030
0.0
1010
0.0
1020
0.0
1030
1.0
1020
0.0
1030
1.0
1040
0.0
1040
8205.767713711226
1040
5809.965151642898
1040
1137.040193552135
1040
50.0
1040
0.0
1040
0.0
1070
     0
1070
   100
1070
     0
1070
     1
1070
     0
1070
     0
1070
     0
1070
     0
1040
0.0
1040
0.0
1040
0.0
1040
10.0
1040
10.0
1040
10.0
1040
10.0
1070
     0
1002
{
1002
}
1002
}
  0
ENDSEC
  0
EOF
