  0
SECTION
  2
HEADER
  9
$ACADVER
  1
AC1009
  9
$DWGCODEPAGE
  3
ansi_932
  9
$INSBASE
 10
0.0
 20
0.0
 30
0.0
  9
$EXTMIN
 10
0.0
 20
0.0
 30
0.0
  9
$EXTMAX
 10
5940.0
 20
4200.0
 30
0.0
  9
$LIMMIN
 10
109.6511881510417
 20
82.19722222222221
  9
$LIMMAX
 10
147.8903700086805
 20
96.5028089735243
  9
$ORTHOMODE
 70
     0
  9
$REGENMODE
 70
     1
  9
$FILLMODE
 70
     1
  9
$QTEXTMODE
 70
     0
  9
$MIRRTEXT
 70
     1
  9
$DRAGMODE
 70
     2
  9
$LTSCALE
 40
1.0
  9
$OSMODE
 70
   511
  9
$ATTMODE
 70
     1
  9
$TEXTSIZE
 40
0.0
  9
$TRACEWID
 40
0.05
  9
$TEXTSTYLE
  7
STANDARD
  9
$CLAYER
  8
0
  9
$CELTYPE
  6
BYLAYER
  9
$CECOLOR
 62
   256
  9
$DIMSCALE
 40
2.0
  9
$DIMASZ
 40
35.0
  9
$DIMEXO
 40
0.0625
  9
$DIMDLI
 40
10.0
  9
$DIMRND
 40
0.0
  9
$DIMDLE
 40
0.0
  9
$DIMEXE
 40
0.18
  9
$DIMTP
 40
0.0
  9
$DIMTM
 40
0.0
  9
$DIMTXT
 40
35.0
  9
$DIMCEN
 40
0.09
  9
$DIMTSZ
 40
0.0
  9
$DIMTOL
 70
     0
  9
$DIMLIM
 70
     0
  9
$DIMTIH
 70
     0
  9
$DIMTOH
 70
     0
  9
$DIMSE1
 70
     0
  9
$DIMSE2
 70
     0
  9
$DIMTAD
 70
     3
  9
$DIMZIN
 70
     0
  9
$DIMBLK
  1
OPEN
  9
$DIMASO
 70
     1
  9
$DIMSHO
 70
     1
  9
$DIMPOST
  1

  9
$DIMAPOST
  1

  9
$DIMALT
 70
     0
  9
$DIMALTD
 70
     2
  9
$DIMALTF
 40
25.4
  9
$DIMLFAC
 40
1.0
  9
$DIMTOFL
 70
     1
  9
$DIMTVP
 40
0.0
  9
$DIMTIX
 70
     0
  9
$DIMSOXD
 70
     0
  9
$DIMSAH
 70
     0
  9
$DIMBLK1
  1

  9
$DIMBLK2
  1

  9
$DIMSTYLE
  2
STANDARD
  9
$DIMCLRD
 70
     0
  9
$DIMCLRE
 70
     0
  9
$DIMCLRT
 70
     0
  9
$DIMTFAC
 40
1.0
  9
$DIMGAP
 40
10.0
  9
$LUNITS
 70
     2
  9
$LUPREC
 70
     4
  9
$SKETCHINC
 40
0.1
  9
$FILLETRAD
 40
100.0
  9
$AUNITS
 70
     0
  9
$AUPREC
 70
     0
  9
$MENU
  1
acad
  9
$ELEVATION
 40
0.0
  9
$PELEVATION
 40
0.0
  9
$THICKNESS
 40
0.0
  9
$LIMCHECK
 70
     0
  9
$CHAMFERA
 40
0.0
  9
$CHAMFERB
 40
0.0
  9
$SKPOLY
 70
     0
  9
$TDCREATE
 40
2456743.597399803
  9
$TDUPDATE
 40
2456794.693978542
  9
$TDINDWG
 40
0.7003772801
  9
$TDUSRTIMER
 40
2456794.318845347
  9
$USRTIMER
 70
     1
  9
$ANGBASE
 50
0.0
  9
$ANGDIR
 70
     0
  9
$PDMODE
 70
     1
  9
$PDSIZE
 40
0.0
  9
$PLINEWID
 40
0.0
  9
$COORDS
 70
     1
  9
$SPLFRAME
 70
     0
  9
$SPLINETYPE
 70
     6
  9
$SPLINESEGS
 70
     8
  9
$ATTDIA
 70
     0
  9
$ATTREQ
 70
     1
  9
$HANDLING
 70
     1
  9
$HANDSEED
  5
95B9
  9
$SURFTAB1
 70
     6
  9
$SURFTAB2
 70
     6
  9
$SURFTYPE
 70
     6
  9
$SURFU
 70
     6
  9
$SURFV
 70
     6
  9
$UCSNAME
  2

  9
$UCSORG
 10
-0.0000000000004547
 20
0.0000000000004547
 30
0.0
  9
$UCSXDIR
 10
1.0
 20
0.0
 30
0.0
  9
$UCSYDIR
 10
0.0
 20
1.0
 30
0.0
  9
$PUCSNAME
  2

  9
$PUCSORG
 10
0.0
 20
0.0
 30
0.0
  9
$PUCSXDIR
 10
1.0
 20
0.0
 30
0.0
  9
$PUCSYDIR
 10
0.0
 20
1.0
 30
0.0
  9
$USERI1
 70
     0
  9
$USERI2
 70
     0
  9
$USERI3
 70
     0
  9
$USERI4
 70
     0
  9
$USERI5
 70
     0
  9
$USERR1
 40
0.0
  9
$USERR2
 40
0.0
  9
$USERR3
 40
0.0
  9
$USERR4
 40
0.0
  9
$USERR5
 40
0.0
  9
$WORLDVIEW
 70
     1
  9
$SHADEDGE
 70
     3
  9
$SHADEDIF
 70
    70
  9
$TILEMODE
 70
     1
  9
$MAXACTVP
 70
    16
  9
$PLIMCHECK
 70
     0
  9
$PEXTMIN
 10
29.06606628894805
 20
20.36656677722931
 30
0.0
  9
$PEXTMAX
 10
261.5945966005326
 20
183.2991009950638
 30
0.0
  9
$PLIMMIN
 10
-0.0000000000000231
 20
0.0000000000000053
  9
$PLIMMAX
 10
420.0
 20
297.0
  9
$UNITMODE
 70
     0
  9
$VISRETAIN
 70
     0
  9
$PLINEGEN
 70
     1
  9
$PSLTSCALE
 70
     0
  0
ENDSEC
  0
SECTION
  2
TABLES
  0
TABLE
  2
VPORT
 70
     1
  0
VPORT
  2
*ACTIVE
 70
     0
 10
0.0
 20
0.0
 11
1.0
 21
1.0
 12
3397.605306924298
 22
1721.341000585772
 13
0.0
 23
0.0
 14
1.0
 24
1.0
 15
0.0
 25
0.0
 16
0.0
 26
0.0
 36
1.0
 17
0.0
 27
0.0
 37
0.0
 40
6196.211113642063
 41
1.615571776155718
 42
50.0
 43
0.0
 44
0.0
 50
0.0
 51
0.0
 71
     0
 72
   100
 73
     1
 74
     1
 75
     0
 76
     0
 77
     0
 78
     0
  0
ENDTAB
  0
TABLE
  2
LTYPE
 70
     1
  0
LTYPE
  2
CONTINUOUS
 70
     0
  3
Solid line
 72
    65
 73
     0
 40
0.0
  0
ENDTAB
  0
TABLE
  2
LAYER
 70
     4
  0
LAYER
  2
0
 70
     0
 62
     7
  6
CONTINUOUS
  0
LAYER
  2
DEFPOINTS
 70
     0
 62
     7
  6
CONTINUOUS
  0
LAYER
  2
用紙枠
 70
     4
 62
     7
  6
CONTINUOUS
  0
LAYER
  2
図面枠
 70
     0
 62
     7
  6
CONTINUOUS
  0
ENDTAB
  0
TABLE
  2
STYLE
 70
     1
  0
STYLE
  2
STANDARD
 70
     0
 40
0.0
 41
1.0
 50
0.0
 71
     0
 42
0.0
  3

  4

  0
ENDTAB
  0
TABLE
  2
VIEW
 70
     0
  0
ENDTAB
  0
TABLE
  2
UCS
 70
     0
  0
ENDTAB
  0
TABLE
  2
APPID
 70
    19
  0
APPID
  2
ACAD
 70
     0
  0
APPID
  2
ACAD_EXEMPT_FROM_CAD_STAND
 70
     0
  0
APPID
  2
ACAD_DSTYLE_DIMJAG
 70
     0
  0
APPID
  2
ACAD_DSTYLE_DIMTALN
 70
     0
  0
APPID
  2
ACAD_NAV_VCDISPLAY
 70
     0
  0
APPID
  2
ACAD_PSEXT
 70
     0
  0
APPID
  2
ACADANNOTATIVE
 70
     0
  0
APPID
  2
ACAECLAYERSTANDARD
 70
     0
  0
APPID
  2
ACCMTRANSPARENCY
 70
     0
  0
APPID
  2
ACADANNOAV
 70
     0
  0
APPID
  2
ACADANNOPO
 70
     0
  0
APPID
  2
ACAD_MLEADERVER
 70
     0
  0
APPID
  2
ACADSTRINGINFO
 70
     0
  0
APPID
  2
ACAD_DSTYLE_DIMBREAK
 70
     0
  0
APPID
  2
PLOTTRANSPARENCY
 70
     0
  0
APPID
  2
ACDBDYNAMICBLOCKGUID
 70
     0
  0
APPID
  2
ACAUTHENVIRON
 70
     0
  0
APPID
  2
ACLAYERTOOLS
 70
     0
  0
APPID
  2
ACDBDYNAMICBLOCKTRUENAME
 70
     0
  0
ENDTAB
  0
TABLE
  2
DIMSTYLE
 70
     1
  0
DIMSTYLE
  2
STANDARD
 70
     0
  3

  4

  5
OPEN
  6

  7

 40
2.0
 41
35.0
 42
0.0625
 43
10.0
 44
0.18
 45
0.0
 46
0.0
 47
0.0
 48
0.0
140
35.0
141
0.09
142
0.0
143
25.4
144
1.0
145
0.0
146
1.0
147
10.0
 71
     0
 72
     0
 73
     0
 74
     0
 75
     0
 76
     0
 77
     3
 78
     0
170
     0
171
     2
172
     1
173
     0
174
     0
175
     0
176
     0
177
     0
178
     0
  0
ENDTAB
  0
ENDSEC
  0
SECTION
  2
BLOCKS
  0
BLOCK
  8
0
  2
$MODEL_SPACE
 70
     0
 10
0.0
 20
0.0
 30
0.0
  3
$MODEL_SPACE
  1

  0
ENDBLK
  5
E
  8
0
  0
BLOCK
 67
     1
  8
0
  2
$PAPER_SPACE
 70
     0
 10
0.0
 20
0.0
 30
0.0
  3
$PAPER_SPACE
  1

  0
ENDBLK
  5
10
 67
     1
  8
0
  0
BLOCK
  8
0
  2
_OPEN
 70
     0
 10
0.0
 20
0.0
 30
0.0
  3
_OPEN
  1

  0
LINE
  5
AB0
  8
0
  6
BYBLOCK
 62
     0
 10
-1.0
 20
0.1666666666666667
 30
0.0
 11
0.0
 21
0.0
 31
0.0
  0
LINE
  5
AB1
  8
0
  6
BYBLOCK
 62
     0
 10
-1.0
 20
-0.1666666666666667
 30
0.0
 11
0.0
 21
0.0
 31
0.0
  0
LINE
  5
AB2
  8
0
  6
BYBLOCK
 62
     0
 10
0.0
 20
0.0
 30
0.0
 11
-1.0
 21
0.0
 31
0.0
  0
ENDBLK
  5
AB4
  8
0
  0
BLOCK
  8
0
  2
_CLOSED
 70
     0
 10
0.0
 20
0.0
 30
0.0
  3
_CLOSED
  1

  0
LINE
  5
AB6
  8
0
  6
BYBLOCK
 62
     0
 10
-1.0
 20
0.1666666666666667
 30
0.0
 11
0.0
 21
0.0
 31
0.0
  0
LINE
  5
AB7
  8
0
  6
BYBLOCK
 62
     0
 10
0.0
 20
0.0
 30
0.0
 11
-1.0
 21
-0.1666666666666667
 31
0.0
  0
LINE
  5
AB8
  8
0
  6
BYBLOCK
 62
     0
 10
-1.0
 20
0.1666666666666667
 30
0.0
 11
-1.0
 21
-0.1666666666666667
 31
0.0
  0
LINE
  5
AB9
  8
0
  6
BYBLOCK
 62
     0
 10
0.0
 20
0.0
 30
0.0
 11
-1.0
 21
0.0
 31
0.0
  0
ENDBLK
  5
ABB
  8
0
  0
ENDSEC
  0
SECTION
  2
ENTITIES
  0
LINE
  5
FCA
  8
図面枠
 10
5740.0
 20
3786.777515104844
 30
0.0
 11
400.0
 21
3786.777515104844
 31
0.0
  0
TEXT
  5
1230
  8
図面枠
 10
500.0
 20
3836.777515104844
 30
0.0
 40
100.0
  1
太陽電池モジュール　LPV-83LV-BLK-J
 11
500.0
 21
3886.777515104844
 31
0.0
 73
     2
  0
LINE
  5
8DD4
  8
0
 10
2326.999994567269
 20
2484.888757552423
 30
0.0
 11
2326.999994567269
 21
1501.888757552423
 31
0.0
  0
LINE
  5
8DD5
  8
0
 10
2326.999994567269
 20
1501.888757552423
 30
0.0
 11
2281.00000543273
 21
1501.888757552423
 31
0.0
  0
LINE
  5
8DD6
  8
0
 10
2281.00000543273
 20
1501.888757552423
 30
0.0
 11
2281.00000543273
 21
2484.888757552423
 31
0.0
  0
LINE
  5
8DD7
  8
0
 10
2281.00000543273
 20
2484.888757552423
 30
0.0
 11
2326.999994567269
 21
2484.888757552423
 31
0.0
  0
LINE
  5
8DD8
  8
0
 10
2303.029023976058
 20
2484.888757552426
 30
0.0
 11
2303.029023976058
 21
1501.888757552427
 31
0.0
  0
LINE
  5
903D
  8
0
 10
1981.00000543273
 20
1501.888757552423
 30
0.0
 11
1981.00000543273
 21
2484.888757552423
 31
0.0
  0
LINE
  5
903E
  8
0
 10
1981.00000543273
 20
1501.888757552423
 30
0.0
 11
1143.00000543273
 21
1501.888757552423
 31
0.0
  0
LINE
  5
903F
  8
0
 10
1143.00000543273
 20
1501.888757552423
 30
0.0
 11
1143.00000543273
 21
1828.988757552423
 31
0.0
  0
LINE
  5
9041
  8
0
 10
1981.00000543273
 20
2484.888757552423
 30
0.0
 11
1703.20000543273
 21
2484.888757552423
 31
0.0
  0
LINE
  5
9042
  8
0
 10
1703.20000543273
 20
2484.888757552423
 30
0.0
 11
1143.00000543273
 21
1828.988757552423
 31
0.0
  0
LINE
  5
9043
  8
0
 10
1973.259257785744
 20
1509.638613971789
 30
0.0
 11
1150.792004486798
 21
1509.638613971789
 31
0.0
  0
LINE
  5
9044
  8
0
 10
1150.792004486798
 20
1509.638613971789
 30
0.0
 11
1150.792004486798
 21
1827.600852263432
 31
0.0
  0
LINE
  5
9045
  8
0
 10
1973.259257785744
 20
1509.638613971789
 30
0.0
 11
1973.259257785744
 21
2477.113239356835
 31
0.0
  0
LINE
  5
9046
  8
0
 10
1150.792004486798
 20
1827.600852263432
 30
0.0
 11
1706.998044021427
 21
2477.113239356835
 31
0.0
  0
LINE
  5
9047
  8
0
 10
1973.259257785744
 20
2477.113239356835
 30
0.0
 11
1706.998044021427
 21
2477.113239356835
 31
0.0
  0
LINE
  5
9170
  8
0
 10
1324.830668470209
 20
1854.27626864729
 30
0.0
 11
1324.830668470209
 21
1976.490477909546
 31
0.0
  0
LINE
  5
9171
  8
0
 10
1324.830668470209
 20
1976.490477909546
 30
0.0
 11
1341.850060647673
 21
1993.401588440533
 31
0.0
  0
LINE
  5
9172
  8
0
 10
1341.850060647673
 20
1993.401588440533
 30
0.0
 11
1466.060865605497
 21
1993.401588440533
 31
0.0
  0
LINE
  5
9173
  8
0
 10
1466.060865605497
 20
1993.401588440533
 30
0.0
 11
1483.080257782961
 21
1976.490477909546
 31
0.0
  0
LINE
  5
9174
  8
0
 10
1483.080257782961
 20
1976.490477909546
 30
0.0
 11
1483.080257782961
 21
1854.27626864729
 31
0.0
  0
LINE
  5
9175
  8
0
 10
1483.080257782961
 20
1854.27626864729
 30
0.0
 11
1466.060865605497
 21
1837.339496340081
 31
0.0
  0
LINE
  5
9176
  8
0
 10
1466.060865605497
 20
1837.339496340081
 30
0.0
 11
1341.850060647673
 21
1837.339496340081
 31
0.0
  0
LINE
  5
9177
  8
0
 10
1341.850060647673
 20
1837.339496340081
 30
0.0
 11
1324.830668470209
 21
1854.27626864729
 31
0.0
  0
LINE
  5
9178
  8
0
 10
1482.87520486516
 20
1951.316275434738
 30
0.0
 11
1325.599616911962
 21
1951.316275434738
 31
0.0
  0
LINE
  5
9179
  8
0
 10
1482.87520486516
 20
1879.373485793429
 30
0.0
 11
1325.599616911962
 21
1879.373485793429
 31
0.0
  0
LINE
  5
917A
  8
0
 10
1483.080257782961
 20
1854.27626864729
 30
0.0
 11
1483.080257782961
 21
1976.490477909546
 31
0.0
  0
LINE
  5
917B
  8
0
 10
1483.080257782961
 20
1976.490477909546
 30
0.0
 11
1500.099649960426
 21
1993.401588440533
 31
0.0
  0
LINE
  5
917C
  8
0
 10
1500.099649960426
 20
1993.401588440533
 30
0.0
 11
1624.310454918251
 21
1993.401588440533
 31
0.0
  0
LINE
  5
917D
  8
0
 10
1624.310454918251
 20
1993.401588440533
 30
0.0
 11
1641.381110325164
 21
1976.490477909546
 31
0.0
  0
LINE
  5
917E
  8
0
 10
1641.381110325164
 20
1976.490477909546
 30
0.0
 11
1641.381110325164
 21
1854.27626864729
 31
0.0
  0
LINE
  5
917F
  8
0
 10
1641.381110325164
 20
1854.27626864729
 30
0.0
 11
1624.310454918251
 21
1837.339496340081
 31
0.0
  0
LINE
  5
9180
  8
0
 10
1624.310454918251
 20
1837.339496340081
 30
0.0
 11
1500.099649960426
 21
1837.339496340081
 31
0.0
  0
LINE
  5
9181
  8
0
 10
1500.099649960426
 20
1837.339496340081
 30
0.0
 11
1483.080257782961
 21
1854.27626864729
 31
0.0
  0
LINE
  5
9182
  8
0
 10
1641.124794177914
 20
1951.316275434738
 30
0.0
 11
1483.900469454165
 21
1951.316275434738
 31
0.0
  0
LINE
  5
9183
  8
0
 10
1641.124794177914
 20
1879.373485793429
 30
0.0
 11
1483.900469454165
 21
1879.373485793429
 31
0.0
  0
LINE
  5
9184
  8
0
 10
1641.381110325164
 20
1854.27626864729
 30
0.0
 11
1641.381110325164
 21
1976.490477909546
 31
0.0
  0
LINE
  5
9185
  8
0
 10
1641.381110325164
 20
1976.490477909546
 30
0.0
 11
1658.34923927318
 21
1993.401588440533
 31
0.0
  0
LINE
  5
9186
  8
0
 10
1658.34923927318
 20
1993.401588440533
 30
0.0
 11
1782.611307460454
 21
1993.401588440533
 31
0.0
  0
LINE
  5
9187
  8
0
 10
1782.611307460454
 20
1993.401588440533
 30
0.0
 11
1799.681962867369
 21
1976.490477909546
 31
0.0
  0
LINE
  5
9188
  8
0
 10
1799.681962867369
 20
1976.490477909546
 30
0.0
 11
1799.681962867369
 21
1854.27626864729
 31
0.0
  0
LINE
  5
9189
  8
0
 10
1799.681962867369
 20
1854.27626864729
 30
0.0
 11
1782.611307460454
 21
1837.339496340081
 31
0.0
  0
LINE
  5
918A
  8
0
 10
1782.611307460454
 20
1837.339496340081
 30
0.0
 11
1658.34923927318
 21
1837.339496340081
 31
0.0
  0
LINE
  5
918B
  8
0
 10
1658.34923927318
 20
1837.339496340081
 30
0.0
 11
1641.381110325164
 21
1854.27626864729
 31
0.0
  0
LINE
  5
918C
  8
0
 10
1799.528173179018
 20
1951.316275434738
 30
0.0
 11
1642.20132199637
 21
1951.316275434738
 31
0.0
  0
LINE
  5
918D
  8
0
 10
1799.528173179018
 20
1879.373485793429
 30
0.0
 11
1642.20132199637
 21
1879.373485793429
 31
0.0
  0
LINE
  5
918E
  8
0
 10
1799.681962867369
 20
1854.27626864729
 30
0.0
 11
1799.681962867369
 21
1976.490477909546
 31
0.0
  0
LINE
  5
918F
  8
0
 10
1799.681962867369
 20
1976.490477909546
 30
0.0
 11
1816.701355044835
 21
1993.401588440533
 31
0.0
  0
LINE
  5
9190
  8
0
 10
1816.701355044835
 20
1993.401588440533
 30
0.0
 11
1940.963423232109
 21
1993.401588440533
 31
0.0
  0
LINE
  5
9191
  8
0
 10
1940.963423232109
 20
1993.401588440533
 30
0.0
 11
1957.982815409572
 21
1976.490477909546
 31
0.0
  0
LINE
  5
9192
  8
0
 10
1957.982815409572
 20
1976.490477909546
 30
0.0
 11
1957.982815409572
 21
1854.27626864729
 31
0.0
  0
LINE
  5
9193
  8
0
 10
1957.982815409572
 20
1854.27626864729
 30
0.0
 11
1940.963423232109
 21
1837.339496340081
 31
0.0
  0
LINE
  5
9194
  8
0
 10
1940.963423232109
 20
1837.339496340081
 30
0.0
 11
1816.701355044835
 21
1837.339496340081
 31
0.0
  0
LINE
  5
9195
  8
0
 10
1816.701355044835
 20
1837.339496340081
 30
0.0
 11
1799.681962867369
 21
1854.27626864729
 31
0.0
  0
LINE
  5
9196
  8
0
 10
1957.777762491772
 20
1951.316275434738
 30
0.0
 11
1800.502174538572
 21
1951.316275434738
 31
0.0
  0
LINE
  5
9197
  8
0
 10
1957.777762491772
 20
1879.373485793429
 30
0.0
 11
1800.502174538572
 21
1879.373485793429
 31
0.0
  0
LINE
  5
9198
  8
0
 10
1166.581079157454
 20
1698.227007434949
 30
0.0
 11
1166.581079157454
 21
1820.428385809093
 31
0.0
  0
LINE
  5
9199
  8
0
 10
1166.581079157454
 20
1820.428385809093
 30
0.0
 11
1183.600471334919
 21
1837.339496340081
 31
0.0
  0
LINE
  5
919A
  8
0
 10
1183.600471334919
 20
1837.339496340081
 30
0.0
 11
1307.811276292743
 21
1837.339496340081
 31
0.0
  0
LINE
  5
919B
  8
0
 10
1307.811276292743
 20
1837.339496340081
 30
0.0
 11
1324.830668470209
 21
1820.428385809093
 31
0.0
  0
LINE
  5
919C
  8
0
 10
1324.830668470209
 20
1820.428385809093
 30
0.0
 11
1324.830668470209
 21
1698.227007434949
 31
0.0
  0
LINE
  5
919D
  8
0
 10
1324.830668470209
 20
1698.227007434949
 30
0.0
 11
1307.811276292743
 21
1681.315896903963
 31
0.0
  0
LINE
  5
919E
  8
0
 10
1307.811276292743
 20
1681.315896903963
 30
0.0
 11
1183.600471334919
 21
1681.315896903963
 31
0.0
  0
LINE
  5
919F
  8
0
 10
1183.600471334919
 20
1681.315896903963
 30
0.0
 11
1166.581079157454
 21
1698.227007434949
 31
0.0
  0
LINE
  5
91A0
  8
0
 10
1324.574352322957
 20
1795.215690669952
 30
0.0
 11
1167.350027599208
 21
1795.215690669952
 31
0.0
  0
LINE
  5
91A1
  8
0
 10
1324.574352322957
 20
1723.298562804865
 30
0.0
 11
1167.350027599208
 21
1723.298562804865
 31
0.0
  0
LINE
  5
91A2
  8
0
 10
1324.830668470209
 20
1698.227007434949
 30
0.0
 11
1324.830668470209
 21
1820.428385809093
 31
0.0
  0
LINE
  5
91A3
  8
0
 10
1324.830668470209
 20
1820.428385809093
 30
0.0
 11
1341.850060647673
 21
1837.339496340081
 31
0.0
  0
LINE
  5
91A4
  8
0
 10
1341.850060647673
 20
1837.339496340081
 30
0.0
 11
1466.060865605497
 21
1837.339496340081
 31
0.0
  0
LINE
  5
91A5
  8
0
 10
1466.060865605497
 20
1837.339496340081
 30
0.0
 11
1483.080257782961
 21
1820.428385809093
 31
0.0
  0
LINE
  5
91A6
  8
0
 10
1483.080257782961
 20
1820.428385809093
 30
0.0
 11
1483.080257782961
 21
1698.227007434949
 31
0.0
  0
LINE
  5
91A7
  8
0
 10
1483.080257782961
 20
1698.227007434949
 30
0.0
 11
1466.060865605497
 21
1681.315896903963
 31
0.0
  0
LINE
  5
91A8
  8
0
 10
1466.060865605497
 20
1681.315896903963
 30
0.0
 11
1341.850060647673
 21
1681.315896903963
 31
0.0
  0
LINE
  5
91A9
  8
0
 10
1341.850060647673
 20
1681.315896903963
 30
0.0
 11
1324.830668470209
 21
1698.227007434949
 31
0.0
  0
LINE
  5
91AA
  8
0
 10
1482.87520486516
 20
1795.215690669952
 30
0.0
 11
1325.599616911962
 21
1795.215690669952
 31
0.0
  0
LINE
  5
91AB
  8
0
 10
1482.87520486516
 20
1723.298562804865
 30
0.0
 11
1325.599616911962
 21
1723.298562804865
 31
0.0
  0
LINE
  5
91AC
  8
0
 10
1483.080257782961
 20
1698.227007434949
 30
0.0
 11
1483.080257782961
 21
1820.428385809093
 31
0.0
  0
LINE
  5
91AD
  8
0
 10
1483.080257782961
 20
1820.428385809093
 30
0.0
 11
1500.099649960426
 21
1837.339496340081
 31
0.0
  0
LINE
  5
91AE
  8
0
 10
1500.099649960426
 20
1837.339496340081
 30
0.0
 11
1624.310454918251
 21
1837.339496340081
 31
0.0
  0
LINE
  5
91AF
  8
0
 10
1624.310454918251
 20
1837.339496340081
 30
0.0
 11
1641.381110325164
 21
1820.428385809093
 31
0.0
  0
LINE
  5
91B0
  8
0
 10
1641.381110325164
 20
1820.428385809093
 30
0.0
 11
1641.381110325164
 21
1698.227007434949
 31
0.0
  0
LINE
  5
91B1
  8
0
 10
1641.381110325164
 20
1698.227007434949
 30
0.0
 11
1624.310454918251
 21
1681.315896903963
 31
0.0
  0
LINE
  5
91B2
  8
0
 10
1624.310454918251
 20
1681.315896903963
 30
0.0
 11
1500.099649960426
 21
1681.315896903963
 31
0.0
  0
LINE
  5
91B3
  8
0
 10
1500.099649960426
 20
1681.315896903963
 30
0.0
 11
1483.080257782961
 21
1698.227007434949
 31
0.0
  0
LINE
  5
91B4
  8
0
 10
1641.124794177914
 20
1795.215690669952
 30
0.0
 11
1483.900469454165
 21
1795.215690669952
 31
0.0
  0
LINE
  5
91B5
  8
0
 10
1641.124794177914
 20
1723.298562804865
 30
0.0
 11
1483.900469454165
 21
1723.298562804865
 31
0.0
  0
LINE
  5
91B6
  8
0
 10
1641.381110325164
 20
1698.227007434949
 30
0.0
 11
1641.381110325164
 21
1820.428385809093
 31
0.0
  0
LINE
  5
91B7
  8
0
 10
1641.381110325164
 20
1820.428385809093
 30
0.0
 11
1658.34923927318
 21
1837.339496340081
 31
0.0
  0
LINE
  5
91B8
  8
0
 10
1658.34923927318
 20
1837.339496340081
 30
0.0
 11
1782.611307460454
 21
1837.339496340081
 31
0.0
  0
LINE
  5
91B9
  8
0
 10
1782.611307460454
 20
1837.339496340081
 30
0.0
 11
1799.681962867369
 21
1820.428385809093
 31
0.0
  0
LINE
  5
91BA
  8
0
 10
1799.681962867369
 20
1820.428385809093
 30
0.0
 11
1799.681962867369
 21
1698.227007434949
 31
0.0
  0
LINE
  5
91BB
  8
0
 10
1799.681962867369
 20
1698.227007434949
 30
0.0
 11
1782.611307460454
 21
1681.315896903963
 31
0.0
  0
LINE
  5
91BC
  8
0
 10
1782.611307460454
 20
1681.315896903963
 30
0.0
 11
1658.34923927318
 21
1681.315896903963
 31
0.0
  0
LINE
  5
91BD
  8
0
 10
1658.34923927318
 20
1681.315896903963
 30
0.0
 11
1641.381110325164
 21
1698.227007434949
 31
0.0
  0
LINE
  5
91BE
  8
0
 10
1799.528173179018
 20
1795.215690669952
 30
0.0
 11
1642.20132199637
 21
1795.215690669952
 31
0.0
  0
LINE
  5
91BF
  8
0
 10
1799.528173179018
 20
1723.298562804865
 30
0.0
 11
1642.20132199637
 21
1723.298562804865
 31
0.0
  0
LINE
  5
91C0
  8
0
 10
1799.681962867369
 20
1698.227007434949
 30
0.0
 11
1799.681962867369
 21
1820.428385809093
 31
0.0
  0
LINE
  5
91C1
  8
0
 10
1799.681962867369
 20
1820.428385809093
 30
0.0
 11
1816.701355044835
 21
1837.339496340081
 31
0.0
  0
LINE
  5
91C2
  8
0
 10
1816.701355044835
 20
1837.339496340081
 30
0.0
 11
1940.963423232109
 21
1837.339496340081
 31
0.0
  0
LINE
  5
91C3
  8
0
 10
1940.963423232109
 20
1837.339496340081
 30
0.0
 11
1957.982815409572
 21
1820.428385809093
 31
0.0
  0
LINE
  5
91C4
  8
0
 10
1957.982815409572
 20
1820.428385809093
 30
0.0
 11
1957.982815409572
 21
1698.227007434949
 31
0.0
  0
LINE
  5
91C5
  8
0
 10
1957.982815409572
 20
1698.227007434949
 30
0.0
 11
1940.963423232109
 21
1681.315896903963
 31
0.0
  0
LINE
  5
91C6
  8
0
 10
1940.963423232109
 20
1681.315896903963
 30
0.0
 11
1816.701355044835
 21
1681.315896903963
 31
0.0
  0
LINE
  5
91C7
  8
0
 10
1816.701355044835
 20
1681.315896903963
 30
0.0
 11
1799.681962867369
 21
1698.227007434949
 31
0.0
  0
LINE
  5
91C8
  8
0
 10
1957.777762491772
 20
1795.215690669952
 30
0.0
 11
1800.502174538572
 21
1795.215690669952
 31
0.0
  0
LINE
  5
91C9
  8
0
 10
1957.777762491772
 20
1723.298562804865
 30
0.0
 11
1800.502174538572
 21
1723.298562804865
 31
0.0
  0
LINE
  5
91CA
  8
0
 10
1166.581079157454
 20
1542.152084446386
 30
0.0
 11
1166.581079157454
 21
1664.379124596753
 31
0.0
  0
LINE
  5
91CB
  8
0
 10
1166.581079157454
 20
1664.379124596753
 30
0.0
 11
1183.600471334919
 21
1681.315896903963
 31
0.0
  0
LINE
  5
91CC
  8
0
 10
1183.600471334919
 20
1681.315896903963
 30
0.0
 11
1307.811276292743
 21
1681.315896903963
 31
0.0
  0
LINE
  5
91CD
  8
0
 10
1307.811276292743
 20
1681.315896903963
 30
0.0
 11
1324.830668470209
 21
1664.379124596753
 31
0.0
  0
LINE
  5
91CE
  8
0
 10
1324.830668470209
 20
1664.379124596753
 30
0.0
 11
1324.830668470209
 21
1542.152084446386
 31
0.0
  0
LINE
  5
91CF
  8
0
 10
1324.830668470209
 20
1542.152084446386
 30
0.0
 11
1307.811276292743
 21
1525.240973915399
 31
0.0
  0
LINE
  5
91D0
  8
0
 10
1307.811276292743
 20
1525.240973915399
 30
0.0
 11
1183.600471334919
 21
1525.240973915399
 31
0.0
  0
LINE
  5
91D1
  8
0
 10
1183.600471334919
 20
1525.240973915399
 30
0.0
 11
1166.581079157454
 21
1542.152084446386
 31
0.0
  0
LINE
  5
91D2
  8
0
 10
1324.574352322957
 20
1639.179260345721
 30
0.0
 11
1167.350027599208
 21
1639.179260345721
 31
0.0
  0
LINE
  5
91D3
  8
0
 10
1324.574352322957
 20
1567.274963368747
 30
0.0
 11
1167.350027599208
 21
1567.274963368747
 31
0.0
  0
LINE
  5
91D4
  8
0
 10
1324.830668470209
 20
1542.152084446386
 30
0.0
 11
1324.830668470209
 21
1664.379124596753
 31
0.0
  0
LINE
  5
91D5
  8
0
 10
1324.830668470209
 20
1664.379124596753
 30
0.0
 11
1341.850060647673
 21
1681.315896903963
 31
0.0
  0
LINE
  5
91D6
  8
0
 10
1341.850060647673
 20
1681.315896903963
 30
0.0
 11
1466.060865605497
 21
1681.315896903963
 31
0.0
  0
LINE
  5
91D7
  8
0
 10
1466.060865605497
 20
1681.315896903963
 30
0.0
 11
1483.080257782961
 21
1664.379124596753
 31
0.0
  0
LINE
  5
91D8
  8
0
 10
1483.080257782961
 20
1664.379124596753
 30
0.0
 11
1483.080257782961
 21
1542.152084446386
 31
0.0
  0
LINE
  5
91D9
  8
0
 10
1483.080257782961
 20
1542.152084446386
 30
0.0
 11
1466.060865605497
 21
1525.240973915399
 31
0.0
  0
LINE
  5
91DA
  8
0
 10
1466.060865605497
 20
1525.240973915399
 30
0.0
 11
1341.850060647673
 21
1525.240973915399
 31
0.0
  0
LINE
  5
91DB
  8
0
 10
1341.850060647673
 20
1525.240973915399
 30
0.0
 11
1324.830668470209
 21
1542.152084446386
 31
0.0
  0
LINE
  5
91DC
  8
0
 10
1482.87520486516
 20
1639.179260345721
 30
0.0
 11
1325.599616911962
 21
1639.179260345721
 31
0.0
  0
LINE
  5
91DD
  8
0
 10
1482.87520486516
 20
1567.274963368747
 30
0.0
 11
1325.599616911962
 21
1567.274963368747
 31
0.0
  0
LINE
  5
91DE
  8
0
 10
1483.080257782961
 20
1542.152084446386
 30
0.0
 11
1483.080257782961
 21
1664.379124596753
 31
0.0
  0
LINE
  5
91DF
  8
0
 10
1483.080257782961
 20
1664.379124596753
 30
0.0
 11
1500.099649960426
 21
1681.315896903963
 31
0.0
  0
LINE
  5
91E0
  8
0
 10
1500.099649960426
 20
1681.315896903963
 30
0.0
 11
1624.310454918251
 21
1681.315896903963
 31
0.0
  0
LINE
  5
91E1
  8
0
 10
1624.310454918251
 20
1681.315896903963
 30
0.0
 11
1641.381110325164
 21
1664.379124596753
 31
0.0
  0
LINE
  5
91E2
  8
0
 10
1641.381110325164
 20
1664.379124596753
 30
0.0
 11
1641.381110325164
 21
1542.152084446386
 31
0.0
  0
LINE
  5
91E3
  8
0
 10
1641.381110325164
 20
1542.152084446386
 30
0.0
 11
1624.310454918251
 21
1525.240973915399
 31
0.0
  0
LINE
  5
91E4
  8
0
 10
1624.310454918251
 20
1525.240973915399
 30
0.0
 11
1500.099649960426
 21
1525.240973915399
 31
0.0
  0
LINE
  5
91E5
  8
0
 10
1500.099649960426
 20
1525.240973915399
 30
0.0
 11
1483.080257782961
 21
1542.152084446386
 31
0.0
  0
LINE
  5
91E6
  8
0
 10
1641.124794177914
 20
1639.179260345721
 30
0.0
 11
1483.900469454165
 21
1639.179260345721
 31
0.0
  0
LINE
  5
91E7
  8
0
 10
1641.124794177914
 20
1567.274963368747
 30
0.0
 11
1483.900469454165
 21
1567.274963368747
 31
0.0
  0
LINE
  5
91E8
  8
0
 10
1641.381110325164
 20
1542.152084446386
 30
0.0
 11
1641.381110325164
 21
1664.379124596753
 31
0.0
  0
LINE
  5
91E9
  8
0
 10
1641.381110325164
 20
1664.379124596753
 30
0.0
 11
1658.34923927318
 21
1681.315896903963
 31
0.0
  0
LINE
  5
91EA
  8
0
 10
1658.34923927318
 20
1681.315896903963
 30
0.0
 11
1782.611307460454
 21
1681.315896903963
 31
0.0
  0
LINE
  5
91EB
  8
0
 10
1782.611307460454
 20
1681.315896903963
 30
0.0
 11
1799.681962867369
 21
1664.379124596753
 31
0.0
  0
LINE
  5
91EC
  8
0
 10
1799.681962867369
 20
1664.379124596753
 30
0.0
 11
1799.681962867369
 21
1542.152084446386
 31
0.0
  0
LINE
  5
91ED
  8
0
 10
1799.681962867369
 20
1542.152084446386
 30
0.0
 11
1782.611307460454
 21
1525.240973915399
 31
0.0
  0
LINE
  5
91EE
  8
0
 10
1782.611307460454
 20
1525.240973915399
 30
0.0
 11
1658.34923927318
 21
1525.240973915399
 31
0.0
  0
LINE
  5
91EF
  8
0
 10
1658.34923927318
 20
1525.240973915399
 30
0.0
 11
1641.381110325164
 21
1542.152084446386
 31
0.0
  0
LINE
  5
91F0
  8
0
 10
1799.528173179018
 20
1639.179260345721
 30
0.0
 11
1642.20132199637
 21
1639.179260345721
 31
0.0
  0
LINE
  5
91F1
  8
0
 10
1799.528173179018
 20
1567.274963368747
 30
0.0
 11
1642.20132199637
 21
1567.274963368747
 31
0.0
  0
LINE
  5
91F2
  8
0
 10
1799.681962867369
 20
1542.152084446386
 30
0.0
 11
1799.681962867369
 21
1664.379124596753
 31
0.0
  0
LINE
  5
91F3
  8
0
 10
1799.681962867369
 20
1664.379124596753
 30
0.0
 11
1816.701355044835
 21
1681.315896903963
 31
0.0
  0
LINE
  5
91F4
  8
0
 10
1816.701355044835
 20
1681.315896903963
 30
0.0
 11
1940.963423232109
 21
1681.315896903963
 31
0.0
  0
LINE
  5
91F5
  8
0
 10
1940.963423232109
 20
1681.315896903963
 30
0.0
 11
1957.982815409572
 21
1664.379124596753
 31
0.0
  0
LINE
  5
91F6
  8
0
 10
1957.982815409572
 20
1664.379124596753
 30
0.0
 11
1957.982815409572
 21
1542.152084446386
 31
0.0
  0
LINE
  5
91F7
  8
0
 10
1957.982815409572
 20
1542.152084446386
 30
0.0
 11
1940.963423232109
 21
1525.240973915399
 31
0.0
  0
LINE
  5
91F8
  8
0
 10
1940.963423232109
 20
1525.240973915399
 30
0.0
 11
1816.701355044835
 21
1525.240973915399
 31
0.0
  0
LINE
  5
91F9
  8
0
 10
1816.701355044835
 20
1525.240973915399
 30
0.0
 11
1799.681962867369
 21
1542.152084446386
 31
0.0
  0
LINE
  5
91FA
  8
0
 10
1957.777762491772
 20
1639.179260345721
 30
0.0
 11
1800.502174538572
 21
1639.179260345721
 31
0.0
  0
LINE
  5
91FB
  8
0
 10
1957.777762491772
 20
1567.274963368747
 30
0.0
 11
1800.502174538572
 21
1567.274963368747
 31
0.0
  0
LINE
  5
91FC
  8
0
 10
1799.681962867369
 20
2322.449714060538
 30
0.0
 11
1799.681962867369
 21
2444.663923322793
 31
0.0
  0
LINE
  5
91FD
  8
0
 10
1799.681962867369
 20
2444.663923322793
 30
0.0
 11
1816.701355044835
 21
2461.600695630003
 31
0.0
  0
LINE
  5
91FE
  8
0
 10
1816.701355044835
 20
2461.600695630003
 30
0.0
 11
1940.963423232109
 21
2461.600695630003
 31
0.0
  0
LINE
  5
91FF
  8
0
 10
1940.963423232109
 20
2461.600695630003
 30
0.0
 11
1957.982815409572
 21
2444.663923322793
 31
0.0
  0
LINE
  5
9200
  8
0
 10
1957.982815409572
 20
2444.663923322793
 30
0.0
 11
1957.982815409572
 21
2322.449714060538
 31
0.0
  0
LINE
  5
9201
  8
0
 10
1957.982815409572
 20
2322.449714060538
 30
0.0
 11
1940.963423232109
 21
2305.525772641439
 31
0.0
  0
LINE
  5
9202
  8
0
 10
1940.963423232109
 20
2305.525772641439
 30
0.0
 11
1816.701355044835
 21
2305.525772641439
 31
0.0
  0
LINE
  5
9203
  8
0
 10
1816.701355044835
 20
2305.525772641439
 30
0.0
 11
1799.681962867369
 21
2322.449714060538
 31
0.0
  0
LINE
  5
9204
  8
0
 10
1957.777762491772
 20
2419.502551736096
 30
0.0
 11
1800.502174538572
 21
2419.502551736096
 31
0.0
  0
LINE
  5
9205
  8
0
 10
1957.777762491772
 20
2347.546931206676
 30
0.0
 11
1800.502174538572
 21
2347.546931206676
 31
0.0
  0
LINE
  5
9206
  8
0
 10
1641.381110325164
 20
2166.400452848196
 30
0.0
 11
1641.381110325164
 21
2288.614662110451
 31
0.0
  0
LINE
  5
9207
  8
0
 10
1641.381110325164
 20
2288.614662110451
 30
0.0
 11
1658.34923927318
 21
2305.525772641439
 31
0.0
  0
LINE
  5
9208
  8
0
 10
1658.34923927318
 20
2305.525772641439
 30
0.0
 11
1782.611307460454
 21
2305.525772641439
 31
0.0
  0
LINE
  5
9209
  8
0
 10
1782.611307460454
 20
2305.525772641439
 30
0.0
 11
1799.681962867369
 21
2288.614662110451
 31
0.0
  0
LINE
  5
920A
  8
0
 10
1799.681962867369
 20
2288.614662110451
 30
0.0
 11
1799.681962867369
 21
2166.400452848196
 31
0.0
  0
LINE
  5
920B
  8
0
 10
1799.681962867369
 20
2166.400452848196
 30
0.0
 11
1782.611307460454
 21
2149.476511429097
 31
0.0
  0
LINE
  5
920C
  8
0
 10
1782.611307460454
 20
2149.476511429097
 30
0.0
 11
1658.34923927318
 21
2149.476511429097
 31
0.0
  0
LINE
  5
920D
  8
0
 10
1658.34923927318
 20
2149.476511429097
 30
0.0
 11
1641.381110325164
 21
2166.400452848196
 31
0.0
  0
LINE
  5
920E
  8
0
 10
1799.528173179018
 20
2263.414797859421
 30
0.0
 11
1642.20132199637
 21
2263.414797859421
 31
0.0
  0
LINE
  5
920F
  8
0
 10
1799.528173179018
 20
2191.484839106223
 30
0.0
 11
1642.20132199637
 21
2191.484839106223
 31
0.0
  0
LINE
  5
9210
  8
0
 10
1799.681962867369
 20
2166.400452848196
 30
0.0
 11
1799.681962867369
 21
2288.614662110451
 31
0.0
  0
LINE
  5
9211
  8
0
 10
1799.681962867369
 20
2288.614662110451
 30
0.0
 11
1816.701355044835
 21
2305.525772641439
 31
0.0
  0
LINE
  5
9212
  8
0
 10
1816.701355044835
 20
2305.525772641439
 30
0.0
 11
1940.963423232109
 21
2305.525772641439
 31
0.0
  0
LINE
  5
9213
  8
0
 10
1940.963423232109
 20
2305.525772641439
 30
0.0
 11
1957.982815409572
 21
2288.614662110451
 31
0.0
  0
LINE
  5
9214
  8
0
 10
1957.982815409572
 20
2288.614662110451
 30
0.0
 11
1957.982815409572
 21
2166.400452848196
 31
0.0
  0
LINE
  5
9215
  8
0
 10
1957.982815409572
 20
2166.400452848196
 30
0.0
 11
1940.963423232109
 21
2149.476511429097
 31
0.0
  0
LINE
  5
9216
  8
0
 10
1940.963423232109
 20
2149.476511429097
 30
0.0
 11
1816.701355044835
 21
2149.476511429097
 31
0.0
  0
LINE
  5
9217
  8
0
 10
1816.701355044835
 20
2149.476511429097
 30
0.0
 11
1799.681962867369
 21
2166.400452848196
 31
0.0
  0
LINE
  5
9218
  8
0
 10
1957.777762491772
 20
2263.414797859421
 30
0.0
 11
1800.502174538572
 21
2263.414797859421
 31
0.0
  0
LINE
  5
9219
  8
0
 10
1957.777762491772
 20
2191.484839106223
 30
0.0
 11
1800.502174538572
 21
2191.484839106223
 31
0.0
  0
LINE
  5
921A
  8
0
 10
1483.080257782961
 20
2010.325529859632
 30
0.0
 11
1483.080257782961
 21
2132.526908233775
 31
0.0
  0
LINE
  5
921B
  8
0
 10
1483.080257782961
 20
2132.526908233775
 30
0.0
 11
1500.099649960426
 21
2149.476511429097
 31
0.0
  0
LINE
  5
921C
  8
0
 10
1500.099649960426
 20
2149.476511429097
 30
0.0
 11
1624.310454918251
 21
2149.476511429097
 31
0.0
  0
LINE
  5
921D
  8
0
 10
1624.310454918251
 20
2149.476511429097
 30
0.0
 11
1641.381110325164
 21
2132.526908233775
 31
0.0
  0
LINE
  5
921E
  8
0
 10
1641.381110325164
 20
2132.526908233775
 30
0.0
 11
1641.381110325164
 21
2010.325529859632
 31
0.0
  0
LINE
  5
921F
  8
0
 10
1641.381110325164
 20
2010.325529859632
 30
0.0
 11
1624.310454918251
 21
1993.401588440533
 31
0.0
  0
LINE
  5
9220
  8
0
 10
1624.310454918251
 20
1993.401588440533
 30
0.0
 11
1500.099649960426
 21
1993.401588440533
 31
0.0
  0
LINE
  5
9221
  8
0
 10
1500.099649960426
 20
1993.401588440533
 30
0.0
 11
1483.080257782961
 21
2010.325529859632
 31
0.0
  0
LINE
  5
9222
  8
0
 10
1641.124794177914
 20
2107.352705758968
 30
0.0
 11
1483.900469454165
 21
2107.352705758968
 31
0.0
  0
LINE
  5
9223
  8
0
 10
1641.124794177914
 20
2035.422747005771
 30
0.0
 11
1483.900469454165
 21
2035.422747005771
 31
0.0
  0
LINE
  5
9224
  8
0
 10
1641.381110325164
 20
2010.325529859632
 30
0.0
 11
1641.381110325164
 21
2132.526908233775
 31
0.0
  0
LINE
  5
9225
  8
0
 10
1641.381110325164
 20
2132.526908233775
 30
0.0
 11
1658.34923927318
 21
2149.476511429097
 31
0.0
  0
LINE
  5
9226
  8
0
 10
1658.34923927318
 20
2149.476511429097
 30
0.0
 11
1782.611307460454
 21
2149.476511429097
 31
0.0
  0
LINE
  5
9227
  8
0
 10
1782.611307460454
 20
2149.476511429097
 30
0.0
 11
1799.681962867369
 21
2132.526908233775
 31
0.0
  0
LINE
  5
9228
  8
0
 10
1799.681962867369
 20
2132.526908233775
 30
0.0
 11
1799.681962867369
 21
2010.325529859632
 31
0.0
  0
LINE
  5
9229
  8
0
 10
1799.681962867369
 20
2010.325529859632
 30
0.0
 11
1782.611307460454
 21
1993.401588440533
 31
0.0
  0
LINE
  5
922A
  8
0
 10
1782.611307460454
 20
1993.401588440533
 30
0.0
 11
1658.34923927318
 21
1993.401588440533
 31
0.0
  0
LINE
  5
922B
  8
0
 10
1658.34923927318
 20
1993.401588440533
 30
0.0
 11
1641.381110325164
 21
2010.325529859632
 31
0.0
  0
LINE
  5
922C
  8
0
 10
1799.528173179018
 20
2107.352705758968
 30
0.0
 11
1642.20132199637
 21
2107.352705758968
 31
0.0
  0
LINE
  5
922D
  8
0
 10
1799.528173179018
 20
2035.422747005771
 30
0.0
 11
1642.20132199637
 21
2035.422747005771
 31
0.0
  0
LINE
  5
922E
  8
0
 10
1799.681962867369
 20
2010.325529859632
 30
0.0
 11
1799.681962867369
 21
2132.526908233775
 31
0.0
  0
LINE
  5
922F
  8
0
 10
1799.681962867369
 20
2132.526908233775
 30
0.0
 11
1816.701355044835
 21
2149.476511429097
 31
0.0
  0
LINE
  5
9230
  8
0
 10
1816.701355044835
 20
2149.476511429097
 30
0.0
 11
1940.963423232109
 21
2149.476511429097
 31
0.0
  0
LINE
  5
9231
  8
0
 10
1940.963423232109
 20
2149.476511429097
 30
0.0
 11
1957.982815409572
 21
2132.526908233775
 31
0.0
  0
LINE
  5
9232
  8
0
 10
1957.982815409572
 20
2132.526908233775
 30
0.0
 11
1957.982815409572
 21
2010.325529859632
 31
0.0
  0
LINE
  5
9233
  8
0
 10
1957.982815409572
 20
2010.325529859632
 30
0.0
 11
1940.963423232109
 21
1993.401588440533
 31
0.0
  0
LINE
  5
9234
  8
0
 10
1940.963423232109
 20
1993.401588440533
 30
0.0
 11
1816.701355044835
 21
1993.401588440533
 31
0.0
  0
LINE
  5
9235
  8
0
 10
1816.701355044835
 20
1993.401588440533
 30
0.0
 11
1799.681962867369
 21
2010.325529859632
 31
0.0
  0
LINE
  5
9236
  8
0
 10
1957.777762491772
 20
2107.352705758968
 30
0.0
 11
1800.502174538572
 21
2107.352705758968
 31
0.0
  0
LINE
  5
9237
  8
0
 10
1957.777762491772
 20
2035.422747005771
 30
0.0
 11
1800.502174538572
 21
2035.422747005771
 31
0.0
  0
LINE
  5
9509
  8
0
 10
1142.904955293796
 20
1829.06993926889
 30
0.0
 11
1066.686149885232
 21
1894.167934069739
 31
0.0
  0
LINE
  5
950A
  8
0
 10
1703.104955293796
 20
2484.96993926889
 30
0.0
 11
1626.886149885232
 21
2550.06793406974
 31
0.0
  0
LINE
  5
950B
  8
0
 10
1112.421655507087
 20
1947.16220852947
 30
0.0
 11
1581.698133063639
 21
2496.606052923157
 31
0.0
  0
LINE
  5
950F
  8
0
 10
1142.87500543273
 20
1501.888757552423
 30
0.0
 11
1042.64000543273
 21
1501.888757552423
 31
0.0
  0
LINE
  5
9510
  8
0
 10
1142.87500543273
 20
1828.988757552423
 30
0.0
 11
1042.64000543273
 21
1828.988757552423
 31
0.0
  0
LINE
  5
9511
  8
0
 10
1043.00000543273
 20
1571.888757552423
 30
0.0
 11
1043.00000543273
 21
1758.988757552423
 31
0.0
  0
LINE
  5
9515
  8
0
 10
1981.00000543273
 20
1501.763757552423
 30
0.0
 11
1981.00000543273
 21
1401.528757552423
 31
0.0
  0
LINE
  5
9516
  8
0
 10
1143.00000543273
 20
1501.763757552423
 30
0.0
 11
1143.00000543273
 21
1401.528757552423
 31
0.0
  0
LINE
  5
9517
  8
0
 10
1911.00000543273
 20
1401.888757552423
 30
0.0
 11
1213.00000543273
 21
1401.888757552423
 31
0.0
  0
LINE
  5
951B
  8
0
 10
1703.20000543273
 20
2485.013757552423
 30
0.0
 11
1703.20000543273
 21
2685.248757552423
 31
0.0
  0
LINE
  5
951C
  8
0
 10
1981.00000543273
 20
2485.013757552423
 30
0.0
 11
1981.00000543273
 21
2685.248757552423
 31
0.0
  0
LINE
  5
951D
  8
0
 10
1773.20000543273
 20
2684.888757552423
 30
0.0
 11
1911.00000543273
 21
2684.888757552423
 31
0.0
  0
LINE
  5
9521
  8
0
 10
1981.12500543273
 20
2484.888757552423
 30
0.0
 11
2081.36000543273
 21
2484.888757552423
 31
0.0
  0
LINE
  5
9522
  8
0
 10
1981.12500543273
 20
1501.888757552423
 30
0.0
 11
2081.36000543273
 21
1501.888757552423
 31
0.0
  0
LINE
  5
9523
  8
0
 10
2081.00000543273
 20
2414.888757552423
 30
0.0
 11
2081.00000543273
 21
1571.888757552423
 31
0.0
  0
LINE
  5
9527
  8
0
 10
2281.00000543273
 20
2485.013757552423
 30
0.0
 11
2281.00000543273
 21
2685.248757552423
 31
0.0
  0
LINE
  5
9528
  8
0
 10
2326.999994567269
 20
2485.013757552423
 30
0.0
 11
2326.999994567269
 21
2685.248757552423
 31
0.0
  0
LINE
  5
9529
  8
0
 10
2211.00000543273
 20
2684.888757552423
 30
0.0
 11
2141.00000543273
 21
2684.888757552423
 31
0.0
  0
LINE
  5
952A
  8
0
 10
2396.999994567269
 20
2684.888757552423
 30
0.0
 11
2599.670449112724
 21
2684.888757552423
 31
0.0
  0
LINE
  5
952B
  8
0
 10
2281.00000543273
 20
2684.888757552423
 30
0.0
 11
2326.999994567269
 21
2684.888757552423
 31
0.0
  0
LINE
  5
9545
  8
0
 10
3655.0
 20
2543.388757552422
 30
0.0
 11
5155.0
 21
2543.388757552422
 31
0.0
  0
LINE
  5
9546
  8
0
 10
3655.0
 20
2443.388757552422
 30
0.0
 11
5155.0
 21
2443.388757552422
 31
0.0
  0
LINE
  5
9547
  8
0
 10
3655.0
 20
2343.388757552422
 30
0.0
 11
5155.0
 21
2343.388757552422
 31
0.0
  0
LINE
  5
9548
  8
0
 10
3655.0
 20
2243.388757552422
 30
0.0
 11
5155.0
 21
2243.388757552422
 31
0.0
  0
LINE
  5
9549
  8
0
 10
3655.0
 20
2143.388757552422
 30
0.0
 11
5155.0
 21
2143.388757552422
 31
0.0
  0
LINE
  5
954A
  8
0
 10
3655.0
 20
2043.388757552422
 30
0.0
 11
5155.0
 21
2043.388757552422
 31
0.0
  0
LINE
  5
954B
  8
0
 10
3655.0
 20
1943.388757552422
 30
0.0
 11
5155.0
 21
1943.388757552422
 31
0.0
  0
LINE
  5
954C
  8
0
 10
3655.0
 20
1843.388757552422
 30
0.0
 11
5155.0
 21
1843.388757552422
 31
0.0
  0
LINE
  5
954D
  8
0
 10
3655.0
 20
1743.388757552422
 30
0.0
 11
5155.0
 21
1743.388757552422
 31
0.0
  0
LINE
  5
954E
  8
0
 10
3655.0
 20
1643.388757552422
 30
0.0
 11
5155.0
 21
1643.388757552422
 31
0.0
  0
LINE
  5
954F
  8
0
 10
3655.0
 20
1543.388757552422
 30
0.0
 11
5155.0
 21
1543.388757552422
 31
0.0
  0
LINE
  5
9550
  8
0
 10
3655.0
 20
1443.388757552422
 30
0.0
 11
5155.0
 21
1443.388757552422
 31
0.0
  0
LINE
  5
9551
  8
0
 10
3655.0
 20
2543.388757552422
 30
0.0
 11
3655.0
 21
1443.388757552422
 31
0.0
  0
LINE
  5
9552
  8
0
 10
4355.0
 20
2543.388757552422
 30
0.0
 11
4355.0
 21
1443.388757552422
 31
0.0
  0
LINE
  5
9553
  8
0
 10
5155.0
 20
2543.388757552422
 30
0.0
 11
5155.0
 21
1443.388757552422
 31
0.0
  0
LINE
  5
9554
  8
0
 62
     8
 10
3655.0
 20
2543.388757552422
 30
0.0
 11
3655.0
 21
2543.388757552422
 31
0.0
  0
LINE
  5
9555
  8
図面枠
 10
5740.0
 20
200.0
 30
0.0
 11
5740.0
 21
4000.0
 31
0.0
  0
LINE
  5
9556
  8
図面枠
 10
5740.0
 20
4000.0
 30
0.0
 11
400.0
 21
4000.0
 31
0.0
  0
LINE
  5
9557
  8
図面枠
 10
400.0
 20
4000.0
 30
0.0
 11
400.0
 21
200.0
 31
0.0
  0
LINE
  5
9558
  8
図面枠
 10
400.0
 20
200.0
 30
0.0
 11
5740.0
 21
200.0
 31
0.0
  0
LINE
  5
9559
  8
用紙枠
 10
0.0
 20
0.0
 30
0.0
 11
5940.0
 21
0.0
 31
0.0
  0
LINE
  5
955A
  8
用紙枠
 10
5940.0
 20
0.0
 30
0.0
 11
5940.0
 21
4200.0
 31
0.0
  0
LINE
  5
955B
  8
用紙枠
 10
5940.0
 20
4200.0
 30
0.0
 11
0.0
 21
4200.0
 31
0.0
  0
LINE
  5
955C
  8
用紙枠
 10
0.0
 20
4200.0
 30
0.0
 11
0.0
 21
0.0
 31
0.0
  0
TEXT
  5
955D
  8
0
 10
4690.909090909091
 20
1473.729666643331
 30
0.0
 40
40.0
  1
8.3㎏
  0
TEXT
  5
955E
  8
0
 10
3658.0
 20
1473.047848461513
 30
0.0
 40
40.0
  1
  質量
  0
TEXT
  5
955F
  8
0
 10
4558.181818181818
 20
1573.388757552422
 30
0.0
 40
40.0
  1
838x983x46ｍｍ
  0
TEXT
  5
9560
  8
0
 10
3658.0
 20
1573.047848461513
 30
0.0
 40
40.0
  1
  外形寸法（WxHxD）
  0
TEXT
  5
9561
  8
0
 10
4691.818181818182
 20
1673.388757552422
 30
0.0
 40
40.0
  1
600V
  0
TEXT
  5
9562
  8
0
 10
3658.0
 20
1672.934212097877
 30
0.0
 40
40.0
  1
  最大システム電圧
  0
TEXT
  5
9563
  8
0
 10
4686.022727272727
 20
1773.388757552422
 30
0.0
 40
40.0
  1
8.85A
  0
TEXT
  5
9564
  8
0
 10
3658.0
 20
1772.252393916059
 30
0.0
 40
40.0
  1
  公称短絡電流
  0
TEXT
  5
9565
  8
0
 10
4684.431818181818
 20
1873.388757552422
 30
0.0
 40
40.0
  1
12.7V
  0
TEXT
  5
9566
  8
0
 10
3658.0
 20
1872.479666643331
 30
0.0
 40
40.0
  1
  公称開放電圧
  0
TEXT
  5
9567
  8
0
 10
4686.022727272727
 20
1973.388757552422
 30
0.0
 40
40.0
  1
8.32A
  0
TEXT
  5
9568
  8
0
 10
3658.0
 20
1972.593303006968
 30
0.0
 40
40.0
  1
  公称最大出力動作電流
  0
TEXT
  5
9569
  8
0
 10
4685.909090909091
 20
2073.388757552422
 30
0.0
 40
40.0
  1
9.99V
  0
TEXT
  5
956A
  8
0
 10
3658.0
 20
2072.593303006968
 30
0.0
 40
40.0
  1
  公称最大出力動作電圧
  0
TEXT
  5
956B
  8
0
 10
4703.181818181818
 20
2173.388757552422
 30
0.0
 40
40.0
  1
83W
  0
TEXT
  5
956C
  8
0
 10
3658.0
 20
2172.479666643331
 30
0.0
 40
40.0
  1
  公称最大出力
  0
TEXT
  5
956D
  8
0
 10
4688.75
 20
2273.388757552422
 30
0.0
 40
40.0
  1
12.9%%%
  0
TEXT
  5
956E
  8
0
 10
3658.0
 20
2272.252393916059
 30
0.0
 40
40.0
  1
  最大モジュール変換効率
  0
TEXT
  5
956F
  8
0
 10
4543.068181818182
 20
2372.252393916058
 30
0.0
 40
40.0
  1
シリコン単結晶系
  0
TEXT
  5
9570
  8
0
 10
3658.0
 20
2372.934212097877
 30
0.0
 40
40.0
  1
  セル種類
  0
TEXT
  5
9571
  8
0
 10
4528.522727272727
 20
2473.388757552422
 30
0.0
 40
40.0
  1
LPV-83LV-BLK-J
  0
TEXT
  5
9572
  8
0
 10
3658.0
 20
2471.911484825149
 30
0.0
 40
40.0
  1
  型式
  0
TEXT
  5
9573
  8
0
 10
2483.420449112724
 20
2704.888757552423
 30
0.0
 40
70.0
  1
46
  0
LINE
  5
9574
  8
0
 10
2396.999994567269
 20
2673.222090885756
 30
0.0
 11
2326.999994567269
 21
2684.888757552423
 31
0.0
  0
LINE
  5
9575
  8
0
 10
2396.999994567269
 20
2696.555424219089
 30
0.0
 11
2326.999994567269
 21
2684.888757552423
 31
0.0
  0
LINE
  5
9576
  8
0
 10
2326.999994567269
 20
2684.888757552423
 30
0.0
 11
2396.999994567269
 21
2684.888757552423
 31
0.0
  0
LINE
  5
9577
  8
0
 10
2211.00000543273
 20
2696.555424219089
 30
0.0
 11
2281.00000543273
 21
2684.888757552423
 31
0.0
  0
LINE
  5
9578
  8
0
 10
2211.00000543273
 20
2673.222090885756
 30
0.0
 11
2281.00000543273
 21
2684.888757552423
 31
0.0
  0
LINE
  5
9579
  8
0
 10
2281.00000543273
 20
2684.888757552423
 30
0.0
 11
2211.00000543273
 21
2684.888757552423
 31
0.0
  0
TEXT
  5
957A
  8
0
 10
2061.000005432729
 20
1916.826257552423
 30
0.0
 40
70.0
  1
983
 50
90.0
  0
LINE
  5
957B
  8
0
 10
2092.666672099396
 20
1571.888757552423
 30
0.0
 11
2081.00000543273
 21
1501.888757552423
 31
0.0
  0
LINE
  5
957C
  8
0
 10
2069.333338766063
 20
1571.888757552423
 30
0.0
 11
2081.00000543273
 21
1501.888757552423
 31
0.0
  0
LINE
  5
957D
  8
0
 10
2081.00000543273
 20
1501.888757552423
 30
0.0
 11
2081.00000543273
 21
1571.888757552423
 31
0.0
  0
LINE
  5
957E
  8
0
 10
2069.333338766063
 20
2414.888757552423
 30
0.0
 11
2081.00000543273
 21
2484.888757552423
 31
0.0
  0
LINE
  5
957F
  8
0
 10
2092.666672099396
 20
2414.888757552423
 30
0.0
 11
2081.00000543273
 21
2484.888757552423
 31
0.0
  0
LINE
  5
9580
  8
0
 10
2081.00000543273
 20
2484.888757552423
 30
0.0
 11
2081.00000543273
 21
2414.888757552423
 31
0.0
  0
TEXT
  5
9581
  8
0
 10
1729.742050887275
 20
2704.888757552423
 30
0.0
 40
70.0
  1
277.8
  0
LINE
  5
9582
  8
0
 10
1911.00000543273
 20
2696.555424219089
 30
0.0
 11
1981.00000543273
 21
2684.888757552423
 31
0.0
  0
LINE
  5
9583
  8
0
 10
1911.00000543273
 20
2673.222090885756
 30
0.0
 11
1981.00000543273
 21
2684.888757552423
 31
0.0
  0
LINE
  5
9584
  8
0
 10
1981.00000543273
 20
2684.888757552423
 30
0.0
 11
1911.00000543273
 21
2684.888757552423
 31
0.0
  0
LINE
  5
9585
  8
0
 10
1773.20000543273
 20
2673.222090885756
 30
0.0
 11
1703.20000543273
 21
2684.888757552423
 31
0.0
  0
LINE
  5
9586
  8
0
 10
1773.20000543273
 20
2696.555424219089
 30
0.0
 11
1703.20000543273
 21
2684.888757552423
 31
0.0
  0
LINE
  5
9587
  8
0
 10
1703.20000543273
 20
2684.888757552423
 30
0.0
 11
1773.20000543273
 21
2684.888757552423
 31
0.0
  0
TEXT
  5
9588
  8
0
 10
1485.636369069093
 20
1421.888757552423
 30
0.0
 40
70.0
  1
838
  0
LINE
  5
9589
  8
0
 10
1213.00000543273
 20
1390.222090885756
 30
0.0
 11
1143.00000543273
 21
1401.888757552423
 31
0.0
  0
LINE
  5
958A
  8
0
 10
1213.00000543273
 20
1413.555424219089
 30
0.0
 11
1143.00000543273
 21
1401.888757552423
 31
0.0
  0
LINE
  5
958B
  8
0
 10
1143.00000543273
 20
1401.888757552423
 30
0.0
 11
1213.00000543273
 21
1401.888757552423
 31
0.0
  0
LINE
  5
958C
  8
0
 10
1911.00000543273
 20
1413.555424219089
 30
0.0
 11
1981.00000543273
 21
1401.888757552423
 31
0.0
  0
LINE
  5
958D
  8
0
 10
1911.00000543273
 20
1390.222090885756
 30
0.0
 11
1981.00000543273
 21
1401.888757552423
 31
0.0
  0
LINE
  5
958E
  8
0
 10
1981.00000543273
 20
1401.888757552423
 30
0.0
 11
1911.00000543273
 21
1401.888757552423
 31
0.0
  0
TEXT
  5
958F
  8
0
 10
1023.000005432729
 20
1560.239893916059
 30
0.0
 40
70.0
  1
327.1
 50
90.0
  0
LINE
  5
9590
  8
0
 10
1031.333338766063
 20
1758.988757552423
 30
0.0
 11
1043.00000543273
 21
1828.988757552423
 31
0.0
  0
LINE
  5
9591
  8
0
 10
1054.666672099396
 20
1758.988757552423
 30
0.0
 11
1043.00000543273
 21
1828.988757552423
 31
0.0
  0
LINE
  5
9592
  8
0
 10
1043.00000543273
 20
1828.988757552423
 30
0.0
 11
1043.00000543273
 21
1758.988757552423
 31
0.0
  0
LINE
  5
9593
  8
0
 10
1054.666672099396
 20
1571.888757552423
 30
0.0
 11
1043.000005432729
 21
1501.888757552423
 31
0.0
  0
LINE
  5
9594
  8
0
 10
1031.333338766063
 20
1571.888757552423
 30
0.0
 11
1043.000005432729
 21
1501.888757552423
 31
0.0
  0
LINE
  5
9595
  8
0
 10
1043.000005432729
 20
1501.888757552423
 30
0.0
 11
1043.000005432729
 21
1571.888757552423
 31
0.0
  0
TEXT
  5
9596
  8
0
 10
1259.268037378024
 20
2149.889740232187
 30
0.0
 40
70.0
  1
862.6
 50
49.4995717598395
  0
LINE
  5
9597
  8
0
 10
1572.826786763113
 20
2504.183013126777
 30
0.0
 11
1627.159894285363
 21
2549.834130726314
 31
0.0
  0
LINE
  5
9598
  8
0
 10
1590.569479364165
 20
2489.029092719536
 30
0.0
 11
1627.159894285363
 21
2549.834130726314
 31
0.0
  0
LINE
  5
9599
  8
0
 10
1627.159894285363
 20
2549.834130726314
 30
0.0
 11
1581.698133063639
 21
2496.606052923157
 31
0.0
  0
LINE
  5
959A
  8
0
 10
1121.293001807613
 20
1939.58524832585
 30
0.0
 11
1066.959894285363
 21
1893.934130726313
 31
0.0
  0
LINE
  5
959B
  8
0
 10
1103.550309206561
 20
1954.739168733091
 30
0.0
 11
1066.959894285363
 21
1893.934130726313
 31
0.0
  0
LINE
  5
959C
  8
0
 10
1066.959894285363
 20
1893.934130726313
 30
0.0
 11
1112.421655507087
 21
1947.16220852947
 31
0.0
  0
VIEWPORT
  5
2C13
 67
     1
  8
0
  6
CONTINUOUS
 10
145.330337524414
 20
141.1905255588052
 30
0.0
 40
366.1848134449208
 41
300.9119599272723
 68
     1
 69
     1
1001
ACAD
1000
MVIEW
1002
{
1070
    16
1010
0.0
1020
0.0
1030
0.0
1020
0.0
1030
0.0
1010
0.0
1020
0.0
1030
1.0
1020
0.0
1030
1.0
1040
0.0
1040
300.9119599272723
1040
145.330337524414
1040
141.1905255588052
1040
50.0
1040
0.0
1040
0.0
1070
     0
1070
   100
1070
     0
1070
     1
1070
     0
1070
     0
1070
     0
1070
     0
1040
0.0
1040
0.0
1040
0.0
1040
10.0
1040
10.0
1040
10.0
1040
10.0
1070
     0
1002
{
1002
}
1002
}
  0
VIEWPORT
  5
2C17
 67
     1
  8
0
  6
CONTINUOUS
 10
145.3303314447403
 20
101.8328338861465
 30
0.0
 40
232.5285303115845
 41
162.9325342178345
 68
     2
 69
     2
1001
ACAD
1000
MVIEW
1002
{
1070
    16
1010
0.0
1020
0.0
1030
0.0
1020
0.0
1030
0.0
1010
0.0
1020
0.0
1030
1.0
1020
0.0
1030
1.0
1040
0.0
1040
8205.767713711226
1040
5809.965151642898
1040
1137.040193552135
1040
50.0
1040
0.0
1040
0.0
1070
     0
1070
   100
1070
     0
1070
     1
1070
     0
1070
     0
1070
     0
1070
     0
1040
0.0
1040
0.0
1040
0.0
1040
10.0
1040
10.0
1040
10.0
1040
10.0
1070
     0
1002
{
1002
}
1002
}
  0
ENDSEC
  0
EOF
