  0
SECTION
  2
HEADER
  9
$ACADVER
  1
AC1009
  9
$DWGCODEPAGE
  3
ansi_932
  9
$INSBASE
 10
0.0
 20
0.0
 30
0.0
  9
$EXTMIN
 10
0.0
 20
0.0
 30
0.0
  9
$EXTMAX
 10
5940.0
 20
4200.0
 30
0.0
  9
$LIMMIN
 10
109.6511881510417
 20
82.19722222222221
  9
$LIMMAX
 10
147.8903700086805
 20
96.5028089735243
  9
$ORTHOMODE
 70
     0
  9
$REGENMODE
 70
     1
  9
$FILLMODE
 70
     1
  9
$QTEXTMODE
 70
     0
  9
$MIRRTEXT
 70
     1
  9
$DRAGMODE
 70
     2
  9
$LTSCALE
 40
1.0
  9
$OSMODE
 70
   511
  9
$ATTMODE
 70
     1
  9
$TEXTSIZE
 40
0.0
  9
$TRACEWID
 40
0.05
  9
$TEXTSTYLE
  7
STANDARD
  9
$CLAYER
  8
0
  9
$CELTYPE
  6
BYLAYER
  9
$CECOLOR
 62
   256
  9
$DIMSCALE
 40
2.0
  9
$DIMASZ
 40
35.0
  9
$DIMEXO
 40
0.0625
  9
$DIMDLI
 40
10.0
  9
$DIMRND
 40
0.0
  9
$DIMDLE
 40
0.0
  9
$DIMEXE
 40
0.18
  9
$DIMTP
 40
0.0
  9
$DIMTM
 40
0.0
  9
$DIMTXT
 40
35.0
  9
$DIMCEN
 40
0.09
  9
$DIMTSZ
 40
0.0
  9
$DIMTOL
 70
     0
  9
$DIMLIM
 70
     0
  9
$DIMTIH
 70
     0
  9
$DIMTOH
 70
     0
  9
$DIMSE1
 70
     0
  9
$DIMSE2
 70
     0
  9
$DIMTAD
 70
     3
  9
$DIMZIN
 70
     0
  9
$DIMBLK
  1
OPEN
  9
$DIMASO
 70
     1
  9
$DIMSHO
 70
     1
  9
$DIMPOST
  1

  9
$DIMAPOST
  1

  9
$DIMALT
 70
     0
  9
$DIMALTD
 70
     2
  9
$DIMALTF
 40
25.4
  9
$DIMLFAC
 40
1.0
  9
$DIMTOFL
 70
     1
  9
$DIMTVP
 40
0.0
  9
$DIMTIX
 70
     0
  9
$DIMSOXD
 70
     0
  9
$DIMSAH
 70
     0
  9
$DIMBLK1
  1

  9
$DIMBLK2
  1

  9
$DIMSTYLE
  2
STANDARD
  9
$DIMCLRD
 70
     0
  9
$DIMCLRE
 70
     0
  9
$DIMCLRT
 70
     0
  9
$DIMTFAC
 40
1.0
  9
$DIMGAP
 40
10.0
  9
$LUNITS
 70
     2
  9
$LUPREC
 70
     4
  9
$SKETCHINC
 40
0.1
  9
$FILLETRAD
 40
100.0
  9
$AUNITS
 70
     0
  9
$AUPREC
 70
     0
  9
$MENU
  1
acad
  9
$ELEVATION
 40
0.0
  9
$PELEVATION
 40
0.0
  9
$THICKNESS
 40
0.0
  9
$LIMCHECK
 70
     0
  9
$CHAMFERA
 40
0.0
  9
$CHAMFERB
 40
0.0
  9
$SKPOLY
 70
     0
  9
$TDCREATE
 40
2456743.597399803
  9
$TDUPDATE
 40
2456794.688940636
  9
$TDINDWG
 40
0.6872743287
  9
$TDUSRTIMER
 40
2456794.31380934
  9
$USRTIMER
 70
     1
  9
$ANGBASE
 50
0.0
  9
$ANGDIR
 70
     0
  9
$PDMODE
 70
     1
  9
$PDSIZE
 40
0.0
  9
$PLINEWID
 40
0.0
  9
$COORDS
 70
     1
  9
$SPLFRAME
 70
     0
  9
$SPLINETYPE
 70
     6
  9
$SPLINESEGS
 70
     8
  9
$ATTDIA
 70
     0
  9
$ATTREQ
 70
     1
  9
$HANDLING
 70
     1
  9
$HANDSEED
  5
9540
  9
$SURFTAB1
 70
     6
  9
$SURFTAB2
 70
     6
  9
$SURFTYPE
 70
     6
  9
$SURFU
 70
     6
  9
$SURFV
 70
     6
  9
$UCSNAME
  2

  9
$UCSORG
 10
0.0
 20
0.0
 30
0.0
  9
$UCSXDIR
 10
1.0
 20
0.0
 30
0.0
  9
$UCSYDIR
 10
0.0
 20
1.0
 30
0.0
  9
$PUCSNAME
  2

  9
$PUCSORG
 10
0.0
 20
0.0
 30
0.0
  9
$PUCSXDIR
 10
1.0
 20
0.0
 30
0.0
  9
$PUCSYDIR
 10
0.0
 20
1.0
 30
0.0
  9
$USERI1
 70
     0
  9
$USERI2
 70
     0
  9
$USERI3
 70
     0
  9
$USERI4
 70
     0
  9
$USERI5
 70
     0
  9
$USERR1
 40
0.0
  9
$USERR2
 40
0.0
  9
$USERR3
 40
0.0
  9
$USERR4
 40
0.0
  9
$USERR5
 40
0.0
  9
$WORLDVIEW
 70
     1
  9
$SHADEDGE
 70
     3
  9
$SHADEDIF
 70
    70
  9
$TILEMODE
 70
     1
  9
$MAXACTVP
 70
    16
  9
$PLIMCHECK
 70
     0
  9
$PEXTMIN
 10
29.06606628894805
 20
20.36656677722931
 30
0.0
  9
$PEXTMAX
 10
261.5945966005326
 20
183.2991009950638
 30
0.0
  9
$PLIMMIN
 10
-0.0000000000000231
 20
0.0000000000000053
  9
$PLIMMAX
 10
420.0
 20
297.0
  9
$UNITMODE
 70
     0
  9
$VISRETAIN
 70
     0
  9
$PLINEGEN
 70
     1
  9
$PSLTSCALE
 70
     0
  0
ENDSEC
  0
SECTION
  2
TABLES
  0
TABLE
  2
VPORT
 70
     1
  0
VPORT
  2
*ACTIVE
 70
     0
 10
0.0
 20
0.0
 11
1.0
 21
1.0
 12
3929.812165233943
 22
1933.498044846041
 13
0.0
 23
0.0
 14
1.0
 24
1.0
 15
0.0
 25
0.0
 16
0.0
 26
0.0
 36
1.0
 17
0.0
 27
0.0
 37
0.0
 40
6870.299887491245
 41
1.624087591240876
 42
50.0
 43
0.0
 44
0.0
 50
0.0
 51
0.0
 71
     0
 72
   100
 73
     1
 74
     1
 75
     0
 76
     0
 77
     0
 78
     0
  0
ENDTAB
  0
TABLE
  2
LTYPE
 70
     1
  0
LTYPE
  2
CONTINUOUS
 70
     0
  3
Solid line
 72
    65
 73
     0
 40
0.0
  0
ENDTAB
  0
TABLE
  2
LAYER
 70
     4
  0
LAYER
  2
0
 70
     0
 62
     7
  6
CONTINUOUS
  0
LAYER
  2
DEFPOINTS
 70
     0
 62
     7
  6
CONTINUOUS
  0
LAYER
  2
用紙枠
 70
     4
 62
     7
  6
CONTINUOUS
  0
LAYER
  2
図面枠
 70
     0
 62
     7
  6
CONTINUOUS
  0
ENDTAB
  0
TABLE
  2
STYLE
 70
     1
  0
STYLE
  2
STANDARD
 70
     0
 40
0.0
 41
1.0
 50
0.0
 71
     0
 42
0.0
  3

  4

  0
ENDTAB
  0
TABLE
  2
VIEW
 70
     0
  0
ENDTAB
  0
TABLE
  2
UCS
 70
     0
  0
ENDTAB
  0
TABLE
  2
APPID
 70
    19
  0
APPID
  2
ACAD
 70
     0
  0
APPID
  2
ACAD_EXEMPT_FROM_CAD_STAND
 70
     0
  0
APPID
  2
ACAD_DSTYLE_DIMJAG
 70
     0
  0
APPID
  2
ACAD_DSTYLE_DIMTALN
 70
     0
  0
APPID
  2
ACAD_NAV_VCDISPLAY
 70
     0
  0
APPID
  2
ACAD_PSEXT
 70
     0
  0
APPID
  2
ACADANNOTATIVE
 70
     0
  0
APPID
  2
ACAECLAYERSTANDARD
 70
     0
  0
APPID
  2
ACCMTRANSPARENCY
 70
     0
  0
APPID
  2
ACADANNOAV
 70
     0
  0
APPID
  2
ACADANNOPO
 70
     0
  0
APPID
  2
ACAD_MLEADERVER
 70
     0
  0
APPID
  2
ACADSTRINGINFO
 70
     0
  0
APPID
  2
ACAD_DSTYLE_DIMBREAK
 70
     0
  0
APPID
  2
PLOTTRANSPARENCY
 70
     0
  0
APPID
  2
ACDBDYNAMICBLOCKGUID
 70
     0
  0
APPID
  2
ACAUTHENVIRON
 70
     0
  0
APPID
  2
ACLAYERTOOLS
 70
     0
  0
APPID
  2
ACDBDYNAMICBLOCKTRUENAME
 70
     0
  0
ENDTAB
  0
TABLE
  2
DIMSTYLE
 70
     1
  0
DIMSTYLE
  2
STANDARD
 70
     0
  3

  4

  5
OPEN
  6

  7

 40
2.0
 41
35.0
 42
0.0625
 43
10.0
 44
0.18
 45
0.0
 46
0.0
 47
0.0
 48
0.0
140
35.0
141
0.09
142
0.0
143
25.4
144
1.0
145
0.0
146
1.0
147
10.0
 71
     0
 72
     0
 73
     0
 74
     0
 75
     0
 76
     0
 77
     3
 78
     0
170
     0
171
     2
172
     1
173
     0
174
     0
175
     0
176
     0
177
     0
178
     0
  0
ENDTAB
  0
ENDSEC
  0
SECTION
  2
BLOCKS
  0
BLOCK
  8
0
  2
$MODEL_SPACE
 70
     0
 10
0.0
 20
0.0
 30
0.0
  3
$MODEL_SPACE
  1

  0
ENDBLK
  5
E
  8
0
  0
BLOCK
 67
     1
  8
0
  2
$PAPER_SPACE
 70
     0
 10
0.0
 20
0.0
 30
0.0
  3
$PAPER_SPACE
  1

  0
ENDBLK
  5
10
 67
     1
  8
0
  0
BLOCK
  8
0
  2
_OPEN
 70
     0
 10
0.0
 20
0.0
 30
0.0
  3
_OPEN
  1

  0
LINE
  5
AB0
  8
0
  6
BYBLOCK
 62
     0
 10
-1.0
 20
0.1666666666666667
 30
0.0
 11
0.0
 21
0.0
 31
0.0
  0
LINE
  5
AB1
  8
0
  6
BYBLOCK
 62
     0
 10
-1.0
 20
-0.1666666666666667
 30
0.0
 11
0.0
 21
0.0
 31
0.0
  0
LINE
  5
AB2
  8
0
  6
BYBLOCK
 62
     0
 10
0.0
 20
0.0
 30
0.0
 11
-1.0
 21
0.0
 31
0.0
  0
ENDBLK
  5
AB4
  8
0
  0
BLOCK
  8
0
  2
_CLOSED
 70
     0
 10
0.0
 20
0.0
 30
0.0
  3
_CLOSED
  1

  0
LINE
  5
AB6
  8
0
  6
BYBLOCK
 62
     0
 10
-1.0
 20
0.1666666666666667
 30
0.0
 11
0.0
 21
0.0
 31
0.0
  0
LINE
  5
AB7
  8
0
  6
BYBLOCK
 62
     0
 10
0.0
 20
0.0
 30
0.0
 11
-1.0
 21
-0.1666666666666667
 31
0.0
  0
LINE
  5
AB8
  8
0
  6
BYBLOCK
 62
     0
 10
-1.0
 20
0.1666666666666667
 30
0.0
 11
-1.0
 21
-0.1666666666666667
 31
0.0
  0
LINE
  5
AB9
  8
0
  6
BYBLOCK
 62
     0
 10
0.0
 20
0.0
 30
0.0
 11
-1.0
 21
0.0
 31
0.0
  0
ENDBLK
  5
ABB
  8
0
  0
ENDSEC
  0
SECTION
  2
ENTITIES
  0
LINE
  5
FCA
  8
図面枠
 10
5740.0
 20
3786.777515104844
 30
0.0
 11
400.0
 21
3786.777515104844
 31
0.0
  0
TEXT
  5
1230
  8
図面枠
 10
500.0
 20
3836.777515104844
 30
0.0
 40
100.0
  1
太陽電池モジュール　LPV-200E-BLK-J/LPV-200V-BLK-J
 11
500.0
 21
3886.777515104844
 31
0.0
 73
     2
  0
LINE
  5
8D32
  8
0
 10
2566.999998068363
 20
2484.888757552422
 30
0.0
 11
2566.999998068363
 21
1501.888757552422
 31
0.0
  0
LINE
  5
8D33
  8
0
 10
2566.999998068363
 20
1501.888757552422
 30
0.0
 11
2520.999977933803
 21
1501.888757552422
 31
0.0
  0
LINE
  5
8D34
  8
0
 10
2520.999977933803
 20
1501.888757552422
 30
0.0
 11
2520.999977933803
 21
2484.888757552422
 31
0.0
  0
LINE
  5
8D35
  8
0
 10
2520.999977933803
 20
2484.888757552422
 30
0.0
 11
2566.999998068363
 21
2484.888757552422
 31
0.0
  0
LINE
  5
8D36
  8
0
 10
2545.264550340102
 20
2484.888757552422
 30
0.0
 11
2545.264550340102
 21
1501.888757552422
 31
0.0
  0
LINE
  5
8E7F
  8
0
 10
911.2824725711591
 20
2476.705311698943
 30
0.0
 11
2212.661468927295
 21
2476.705311698943
 31
0.0
  0
LINE
  5
8E80
  8
0
 10
2212.661468927295
 20
2476.705311698943
 30
0.0
 11
2212.661468927295
 21
1510.273987002294
 31
0.0
  0
LINE
  5
8E81
  8
0
 10
2212.661468927295
 20
1510.273987002294
 30
0.0
 11
911.2824725711591
 21
1510.273987002294
 31
0.0
  0
LINE
  5
8E82
  8
0
 10
911.2824725711591
 20
1510.273987002294
 30
0.0
 11
911.2824725711591
 21
2476.705311698943
 31
0.0
  0
LINE
  5
8E89
  8
0
 10
903.0000019316365
 20
1501.888757552422
 30
0.0
 11
903.0000019316365
 21
2484.888757552422
 31
0.0
  0
LINE
  5
8E8A
  8
0
 10
903.0000019316365
 20
2484.888757552422
 30
0.0
 11
2220.999977933803
 21
2484.888757552422
 31
0.0
  0
LINE
  5
8E8B
  8
0
 10
2220.999977933803
 20
2484.888757552422
 30
0.0
 11
2220.999977933803
 21
1501.888757552422
 31
0.0
  0
LINE
  5
8E8C
  8
0
 10
2220.999977933803
 20
1501.888757552422
 30
0.0
 11
903.0000019316365
 21
1501.888757552422
 31
0.0
  0
LINE
  5
8FA3
  8
0
 10
2043.829076892595
 20
1535.60903854868
 30
0.0
 11
2043.829076892595
 21
1659.59384832881
 31
0.0
  0
LINE
  5
8FA4
  8
0
 10
2043.829076892595
 20
1659.59384832881
 30
0.0
 11
2061.044063228582
 21
1676.790294820918
 31
0.0
  0
LINE
  5
8FA5
  8
0
 10
2061.044063228582
 20
1676.790294820918
 30
0.0
 11
2187.152804278395
 21
1676.790294820918
 31
0.0
  0
LINE
  5
8FA6
  8
0
 10
2187.152804278395
 20
1676.790294820918
 30
0.0
 11
2204.322959920798
 21
1659.59384832881
 31
0.0
  0
LINE
  5
8FA7
  8
0
 10
2204.322959920798
 20
1659.59384832881
 30
0.0
 11
2204.322959920798
 21
1535.60903854868
 31
0.0
  0
LINE
  5
8FA8
  8
0
 10
2204.322959920798
 20
1535.60903854868
 30
0.0
 11
2187.152804278395
 21
1518.435012456171
 31
0.0
  0
LINE
  5
8FA9
  8
0
 10
2187.152804278395
 20
1518.435012456171
 30
0.0
 11
2061.044063228582
 21
1518.435012456171
 31
0.0
  0
LINE
  5
8FAA
  8
0
 10
2061.044063228582
 20
1518.435012456171
 30
0.0
 11
2043.829076892595
 21
1535.60903854868
 31
0.0
  0
LINE
  5
8FAB
  8
0
 10
2204.188467840048
 20
1634.034592786433
 30
0.0
 11
2044.680860070678
 21
1634.034592786433
 31
0.0
  0
LINE
  5
8FAC
  8
0
 10
2204.188467840048
 20
1560.988930894269
 30
0.0
 11
2044.680860070678
 21
1560.988930894269
 31
0.0
  0
LINE
  5
8FAD
  8
0
 10
1883.178286436852
 20
1535.60903854868
 30
0.0
 11
1883.178286436852
 21
1659.59384832881
 31
0.0
  0
LINE
  5
8FAE
  8
0
 10
1883.178286436852
 20
1659.59384832881
 30
0.0
 11
1900.550180200379
 21
1676.790294820918
 31
0.0
  0
LINE
  5
8FAF
  8
0
 10
1900.550180200379
 20
1676.790294820918
 30
0.0
 11
2026.434767782276
 21
1676.790294820918
 31
0.0
  0
LINE
  5
8FB0
  8
0
 10
2026.434767782276
 20
1676.790294820918
 30
0.0
 11
2043.829076892595
 21
1659.59384832881
 31
0.0
  0
LINE
  5
8FB1
  8
0
 10
2043.829076892595
 20
1659.59384832881
 30
0.0
 11
2043.829076892595
 21
1535.60903854868
 31
0.0
  0
LINE
  5
8FB2
  8
0
 10
2043.829076892595
 20
1535.60903854868
 30
0.0
 11
2026.434767782276
 21
1518.435012456171
 31
0.0
  0
LINE
  5
8FB3
  8
0
 10
2026.434767782276
 20
1518.435012456171
 30
0.0
 11
1900.550180200379
 21
1518.435012456171
 31
0.0
  0
LINE
  5
8FB4
  8
0
 10
1900.550180200379
 20
1518.435012456171
 30
0.0
 11
1883.178286436852
 21
1535.60903854868
 31
0.0
  0
LINE
  5
8FB5
  8
0
 10
2043.515262037513
 20
1634.034592786433
 30
0.0
 11
1884.007654268144
 21
1634.034592786433
 31
0.0
  0
LINE
  5
8FB6
  8
0
 10
2043.515262037513
 20
1560.988930894269
 30
0.0
 11
1884.007654268144
 21
1560.988930894269
 31
0.0
  0
LINE
  5
8FB7
  8
0
 10
1722.482665287526
 20
1535.60903854868
 30
0.0
 11
1722.482665287526
 21
1659.59384832881
 31
0.0
  0
LINE
  5
8FB8
  8
0
 10
1722.482665287526
 20
1659.59384832881
 30
0.0
 11
1739.854559051054
 21
1676.790294820918
 31
0.0
  0
LINE
  5
8FB9
  8
0
 10
1739.854559051054
 20
1676.790294820918
 30
0.0
 11
1865.985715447658
 21
1676.790294820918
 31
0.0
  0
LINE
  5
8FBA
  8
0
 10
1865.985715447658
 20
1676.790294820918
 30
0.0
 11
1883.178286436852
 21
1659.59384832881
 31
0.0
  0
LINE
  5
8FBB
  8
0
 10
1883.178286436852
 20
1659.59384832881
 30
0.0
 11
1883.178286436852
 21
1535.60903854868
 31
0.0
  0
LINE
  5
8FBC
  8
0
 10
1883.178286436852
 20
1535.60903854868
 30
0.0
 11
1865.985715447658
 21
1518.435012456171
 31
0.0
  0
LINE
  5
8FBD
  8
0
 10
1865.985715447658
 20
1518.435012456171
 30
0.0
 11
1739.854559051054
 21
1518.435012456171
 31
0.0
  0
LINE
  5
8FBE
  8
0
 10
1739.854559051054
 20
1518.435012456171
 30
0.0
 11
1722.482665287526
 21
1535.60903854868
 31
0.0
  0
LINE
  5
8FBF
  8
0
 10
1882.976548315727
 20
1634.034592786433
 30
0.0
 11
1723.334448465609
 21
1634.034592786433
 31
0.0
  0
LINE
  5
8FC0
  8
0
 10
1882.976548315727
 20
1560.988930894269
 30
0.0
 11
1723.334448465609
 21
1560.988930894269
 31
0.0
  0
LINE
  5
8FC1
  8
0
 10
1562.022405279512
 20
1535.60903854868
 30
0.0
 11
1562.022405279512
 21
1659.59384832881
 31
0.0
  0
LINE
  5
8FC2
  8
0
 10
1562.022405279512
 20
1659.59384832881
 30
0.0
 11
1579.181353248518
 21
1676.790294820918
 31
0.0
  0
LINE
  5
8FC3
  8
0
 10
1579.181353248518
 20
1676.790294820918
 30
0.0
 11
1705.312509645123
 21
1676.790294820918
 31
0.0
  0
LINE
  5
8FC4
  8
0
 10
1705.312509645123
 20
1676.790294820918
 30
0.0
 11
1722.482665287526
 21
1659.59384832881
 31
0.0
  0
LINE
  5
8FC5
  8
0
 10
1722.482665287526
 20
1659.59384832881
 30
0.0
 11
1722.482665287526
 21
1535.60903854868
 31
0.0
  0
LINE
  5
8FC6
  8
0
 10
1722.482665287526
 20
1535.60903854868
 30
0.0
 11
1705.312509645123
 21
1518.435012456171
 31
0.0
  0
LINE
  5
8FC7
  8
0
 10
1705.312509645123
 20
1518.435012456171
 30
0.0
 11
1579.181353248518
 21
1518.435012456171
 31
0.0
  0
LINE
  5
8FC8
  8
0
 10
1579.181353248518
 20
1518.435012456171
 30
0.0
 11
1562.022405279512
 21
1535.60903854868
 31
0.0
  0
LINE
  5
8FC9
  8
0
 10
1722.348173206776
 20
1634.034592786433
 30
0.0
 11
1562.650034989679
 21
1634.034592786433
 31
0.0
  0
LINE
  5
8FCA
  8
0
 10
1722.348173206776
 20
1560.988930894269
 30
0.0
 11
1562.650034989679
 21
1560.988930894269
 31
0.0
  0
LINE
  5
8FCB
  8
0
 10
1401.349199476977
 20
1535.60903854868
 30
0.0
 11
1401.349199476977
 21
1659.59384832881
 31
0.0
  0
LINE
  5
8FCC
  8
0
 10
1401.349199476977
 20
1659.59384832881
 30
0.0
 11
1418.653847200129
 21
1676.790294820918
 31
0.0
  0
LINE
  5
8FCD
  8
0
 10
1418.653847200129
 20
1676.790294820918
 30
0.0
 11
1544.628096169193
 21
1676.790294820918
 31
0.0
  0
LINE
  5
8FCE
  8
0
 10
1544.628096169193
 20
1676.790294820918
 30
0.0
 11
1562.022405279512
 21
1659.59384832881
 31
0.0
  0
LINE
  5
8FCF
  8
0
 10
1562.022405279512
 20
1659.59384832881
 30
0.0
 11
1562.022405279512
 21
1535.60903854868
 31
0.0
  0
LINE
  5
8FD0
  8
0
 10
1562.022405279512
 20
1535.60903854868
 30
0.0
 11
1544.628096169193
 21
1518.435012456171
 31
0.0
  0
LINE
  5
8FD1
  8
0
 10
1544.628096169193
 20
1518.435012456171
 30
0.0
 11
1418.653847200129
 21
1518.435012456171
 31
0.0
  0
LINE
  5
8FD2
  8
0
 10
1418.653847200129
 20
1518.435012456171
 30
0.0
 11
1401.349199476977
 21
1535.60903854868
 31
0.0
  0
LINE
  5
8FD3
  8
0
 10
1561.641344384054
 20
1634.034592786433
 30
0.0
 11
1402.178567308268
 21
1634.034592786433
 31
0.0
  0
LINE
  5
8FD4
  8
0
 10
1561.641344384054
 20
1560.988930894269
 30
0.0
 11
1402.178567308268
 21
1560.988930894269
 31
0.0
  0
LINE
  5
8FD5
  8
0
 10
1240.642370654255
 20
1535.60903854868
 30
0.0
 11
1240.642370654255
 21
1659.59384832881
 31
0.0
  0
LINE
  5
8FD6
  8
0
 10
1240.642370654255
 20
1659.59384832881
 30
0.0
 11
1258.014264417782
 21
1676.790294820918
 31
0.0
  0
LINE
  5
8FD7
  8
0
 10
1258.014264417782
 20
1676.790294820918
 30
0.0
 11
1383.954890366657
 21
1676.790294820918
 31
0.0
  0
LINE
  5
8FD8
  8
0
 10
1383.954890366657
 20
1676.790294820918
 30
0.0
 11
1401.349199476977
 21
1659.59384832881
 31
0.0
  0
LINE
  5
8FD9
  8
0
 10
1401.349199476977
 20
1659.59384832881
 30
0.0
 11
1401.349199476977
 21
1535.60903854868
 31
0.0
  0
LINE
  5
8FDA
  8
0
 10
1401.349199476977
 20
1535.60903854868
 30
0.0
 11
1383.954890366657
 21
1518.435012456171
 31
0.0
  0
LINE
  5
8FDB
  8
0
 10
1383.954890366657
 20
1518.435012456171
 30
0.0
 11
1258.014264417782
 21
1518.435012456171
 31
0.0
  0
LINE
  5
8FDC
  8
0
 10
1258.014264417782
 20
1518.435012456171
 30
0.0
 11
1240.642370654255
 21
1535.60903854868
 31
0.0
  0
LINE
  5
8FDD
  8
0
 10
1401.158669029248
 20
1634.034592786433
 30
0.0
 11
1241.505361505733
 21
1634.034592786433
 31
0.0
  0
LINE
  5
8FDE
  8
0
 10
1401.158669029248
 20
1560.988930894269
 30
0.0
 11
1241.505361505733
 21
1560.988930894269
 31
0.0
  0
LINE
  5
8FDF
  8
0
 10
1080.18211064624
 20
1535.60903854868
 30
0.0
 11
1080.18211064624
 21
1659.59384832881
 31
0.0
  0
LINE
  5
8FE0
  8
0
 10
1080.18211064624
 20
1659.59384832881
 30
0.0
 11
1097.363473962039
 21
1676.790294820918
 31
0.0
  0
LINE
  5
8FE1
  8
0
 10
1097.363473962039
 20
1676.790294820918
 30
0.0
 11
1223.483422685248
 21
1676.790294820918
 31
0.0
  0
LINE
  5
8FE2
  8
0
 10
1223.483422685248
 20
1676.790294820918
 30
0.0
 11
1240.642370654255
 21
1659.59384832881
 31
0.0
  0
LINE
  5
8FE3
  8
0
 10
1240.642370654255
 20
1659.59384832881
 30
0.0
 11
1240.642370654255
 21
1535.60903854868
 31
0.0
  0
LINE
  5
8FE4
  8
0
 10
1240.642370654255
 20
1535.60903854868
 30
0.0
 11
1223.483422685248
 21
1518.435012456171
 31
0.0
  0
LINE
  5
8FE5
  8
0
 10
1223.483422685248
 20
1518.435012456171
 30
0.0
 11
1097.363473962039
 21
1518.435012456171
 31
0.0
  0
LINE
  5
8FE6
  8
0
 10
1097.363473962039
 20
1518.435012456171
 30
0.0
 11
1080.18211064624
 21
1535.60903854868
 31
0.0
  0
LINE
  5
8FE7
  8
0
 10
1240.496670900109
 20
1634.034592786433
 30
0.0
 11
1080.820948029803
 21
1634.034592786433
 31
0.0
  0
LINE
  5
8FE8
  8
0
 10
1240.496670900109
 20
1560.988930894269
 30
0.0
 11
1080.820948029803
 21
1560.988930894269
 31
0.0
  0
LINE
  5
8FE9
  8
0
 10
919.49769717031
 20
1535.60903854868
 30
0.0
 11
919.49769717031
 21
1659.59384832881
 31
0.0
  0
LINE
  5
8FEA
  8
0
 10
919.49769717031
 20
1659.59384832881
 30
0.0
 11
936.6902681595038
 21
1676.790294820918
 31
0.0
  0
LINE
  5
8FEB
  8
0
 10
936.6902681595038
 20
1676.790294820918
 30
0.0
 11
1062.810216882713
 21
1676.790294820918
 31
0.0
  0
LINE
  5
8FEC
  8
0
 10
1062.810216882713
 20
1676.790294820918
 30
0.0
 11
1080.18211064624
 21
1659.59384832881
 31
0.0
  0
LINE
  5
8FED
  8
0
 10
1080.18211064624
 20
1659.59384832881
 30
0.0
 11
1080.18211064624
 21
1535.60903854868
 31
0.0
  0
LINE
  5
8FEE
  8
0
 10
1080.18211064624
 20
1535.60903854868
 30
0.0
 11
1062.810216882713
 21
1518.435012456171
 31
0.0
  0
LINE
  5
8FEF
  8
0
 10
1062.810216882713
 20
1518.435012456171
 30
0.0
 11
936.6902681595038
 21
1518.435012456171
 31
0.0
  0
LINE
  5
8FF0
  8
0
 10
936.6902681595038
 20
1518.435012456171
 30
0.0
 11
919.49769717031
 21
1535.60903854868
 31
0.0
  0
LINE
  5
8FF1
  8
0
 10
1079.812257424179
 20
1634.034592786433
 30
0.0
 11
920.3158573282053
 21
1634.034592786433
 31
0.0
  0
LINE
  5
8FF2
  8
0
 10
1079.812257424179
 20
1560.988930894269
 30
0.0
 11
920.3158573282053
 21
1560.988930894269
 31
0.0
  0
LINE
  5
8FF3
  8
0
 10
2043.829076892595
 20
1693.986741313027
 30
0.0
 11
2043.829076892595
 21
1817.904289894361
 31
0.0
  0
LINE
  5
8FF4
  8
0
 10
2043.829076892595
 20
1817.904289894361
 30
0.0
 11
2061.044063228582
 21
1835.08952618667
 31
0.0
  0
LINE
  5
8FF5
  8
0
 10
2061.044063228582
 20
1835.08952618667
 30
0.0
 11
2187.152804278395
 21
1835.08952618667
 31
0.0
  0
LINE
  5
8FF6
  8
0
 10
2187.152804278395
 20
1835.08952618667
 30
0.0
 11
2204.322959920798
 21
1817.904289894361
 31
0.0
  0
LINE
  5
8FF7
  8
0
 10
2204.322959920798
 20
1817.904289894361
 30
0.0
 11
2204.322959920798
 21
1693.986741313027
 31
0.0
  0
LINE
  5
8FF8
  8
0
 10
2204.322959920798
 20
1693.986741313027
 30
0.0
 11
2187.152804278395
 21
1676.790294820918
 31
0.0
  0
LINE
  5
8FF9
  8
0
 10
2187.152804278395
 20
1676.790294820918
 30
0.0
 11
2061.044063228582
 21
1676.790294820918
 31
0.0
  0
LINE
  5
8FFA
  8
0
 10
2061.044063228582
 20
1676.790294820918
 30
0.0
 11
2043.829076892595
 21
1693.986741313027
 31
0.0
  0
LINE
  5
8FFB
  8
0
 10
2204.188467840048
 20
1792.38987515118
 30
0.0
 11
2044.680860070678
 21
1792.38987515118
 31
0.0
  0
LINE
  5
8FFC
  8
0
 10
2204.188467840048
 20
1719.321792859419
 30
0.0
 11
2044.680860070678
 21
1719.321792859419
 31
0.0
  0
LINE
  5
8FFD
  8
0
 10
1883.178286436852
 20
1693.986741313027
 30
0.0
 11
1883.178286436852
 21
1817.904289894361
 31
0.0
  0
LINE
  5
8FFE
  8
0
 10
1883.178286436852
 20
1817.904289894361
 30
0.0
 11
1900.550180200379
 21
1835.08952618667
 31
0.0
  0
LINE
  5
8FFF
  8
0
 10
1900.550180200379
 20
1835.08952618667
 30
0.0
 11
2026.434767782276
 21
1835.08952618667
 31
0.0
  0
LINE
  5
9000
  8
0
 10
2026.434767782276
 20
1835.08952618667
 30
0.0
 11
2043.829076892595
 21
1817.904289894361
 31
0.0
  0
LINE
  5
9001
  8
0
 10
2043.829076892595
 20
1817.904289894361
 30
0.0
 11
2043.829076892595
 21
1693.986741313027
 31
0.0
  0
LINE
  5
9002
  8
0
 10
2043.829076892595
 20
1693.986741313027
 30
0.0
 11
2026.434767782276
 21
1676.790294820918
 31
0.0
  0
LINE
  5
9003
  8
0
 10
2026.434767782276
 20
1676.790294820918
 30
0.0
 11
1900.550180200379
 21
1676.790294820918
 31
0.0
  0
LINE
  5
9004
  8
0
 10
1900.550180200379
 20
1676.790294820918
 30
0.0
 11
1883.178286436852
 21
1693.986741313027
 31
0.0
  0
LINE
  5
9005
  8
0
 10
2043.515262037513
 20
1792.38987515118
 30
0.0
 11
1884.007654268144
 21
1792.38987515118
 31
0.0
  0
LINE
  5
9006
  8
0
 10
2043.515262037513
 20
1719.321792859419
 30
0.0
 11
1884.007654268144
 21
1719.321792859419
 31
0.0
  0
LINE
  5
9007
  8
0
 10
1722.482665287526
 20
1693.986741313027
 30
0.0
 11
1722.482665287526
 21
1817.904289894361
 31
0.0
  0
LINE
  5
9008
  8
0
 10
1722.482665287526
 20
1817.904289894361
 30
0.0
 11
1739.854559051054
 21
1835.08952618667
 31
0.0
  0
LINE
  5
9009
  8
0
 10
1739.854559051054
 20
1835.08952618667
 30
0.0
 11
1865.985715447658
 21
1835.08952618667
 31
0.0
  0
LINE
  5
900A
  8
0
 10
1865.985715447658
 20
1835.08952618667
 30
0.0
 11
1883.178286436852
 21
1817.904289894361
 31
0.0
  0
LINE
  5
900B
  8
0
 10
1883.178286436852
 20
1817.904289894361
 30
0.0
 11
1883.178286436852
 21
1693.986741313027
 31
0.0
  0
LINE
  5
900C
  8
0
 10
1883.178286436852
 20
1693.986741313027
 30
0.0
 11
1865.985715447658
 21
1676.790294820918
 31
0.0
  0
LINE
  5
900D
  8
0
 10
1865.985715447658
 20
1676.790294820918
 30
0.0
 11
1739.854559051054
 21
1676.790294820918
 31
0.0
  0
LINE
  5
900E
  8
0
 10
1739.854559051054
 20
1676.790294820918
 30
0.0
 11
1722.482665287526
 21
1693.986741313027
 31
0.0
  0
LINE
  5
900F
  8
0
 10
1882.976548315727
 20
1792.38987515118
 30
0.0
 11
1723.334448465609
 21
1792.38987515118
 31
0.0
  0
LINE
  5
9010
  8
0
 10
1882.976548315727
 20
1719.321792859419
 30
0.0
 11
1723.334448465609
 21
1719.321792859419
 31
0.0
  0
LINE
  5
9011
  8
0
 10
1562.022405279512
 20
1693.986741313027
 30
0.0
 11
1562.022405279512
 21
1817.904289894361
 31
0.0
  0
LINE
  5
9012
  8
0
 10
1562.022405279512
 20
1817.904289894361
 30
0.0
 11
1579.181353248518
 21
1835.08952618667
 31
0.0
  0
LINE
  5
9013
  8
0
 10
1579.181353248518
 20
1835.08952618667
 30
0.0
 11
1705.312509645123
 21
1835.08952618667
 31
0.0
  0
LINE
  5
9014
  8
0
 10
1705.312509645123
 20
1835.08952618667
 30
0.0
 11
1722.482665287526
 21
1817.904289894361
 31
0.0
  0
LINE
  5
9015
  8
0
 10
1722.482665287526
 20
1817.904289894361
 30
0.0
 11
1722.482665287526
 21
1693.986741313027
 31
0.0
  0
LINE
  5
9016
  8
0
 10
1722.482665287526
 20
1693.986741313027
 30
0.0
 11
1705.312509645123
 21
1676.790294820918
 31
0.0
  0
LINE
  5
9017
  8
0
 10
1705.312509645123
 20
1676.790294820918
 30
0.0
 11
1579.181353248518
 21
1676.790294820918
 31
0.0
  0
LINE
  5
9018
  8
0
 10
1579.181353248518
 20
1676.790294820918
 30
0.0
 11
1562.022405279512
 21
1693.986741313027
 31
0.0
  0
LINE
  5
9019
  8
0
 10
1722.348173206776
 20
1792.38987515118
 30
0.0
 11
1562.650034989679
 21
1792.38987515118
 31
0.0
  0
LINE
  5
901A
  8
0
 10
1722.348173206776
 20
1719.321792859419
 30
0.0
 11
1562.650034989679
 21
1719.321792859419
 31
0.0
  0
LINE
  5
901B
  8
0
 10
1401.349199476977
 20
1693.986741313027
 30
0.0
 11
1401.349199476977
 21
1817.904289894361
 31
0.0
  0
LINE
  5
901C
  8
0
 10
1401.349199476977
 20
1817.904289894361
 30
0.0
 11
1418.653847200129
 21
1835.08952618667
 31
0.0
  0
LINE
  5
901D
  8
0
 10
1418.653847200129
 20
1835.08952618667
 30
0.0
 11
1544.628096169193
 21
1835.08952618667
 31
0.0
  0
LINE
  5
901E
  8
0
 10
1544.628096169193
 20
1835.08952618667
 30
0.0
 11
1562.022405279512
 21
1817.904289894361
 31
0.0
  0
LINE
  5
901F
  8
0
 10
1562.022405279512
 20
1817.904289894361
 30
0.0
 11
1562.022405279512
 21
1693.986741313027
 31
0.0
  0
LINE
  5
9020
  8
0
 10
1562.022405279512
 20
1693.986741313027
 30
0.0
 11
1544.628096169193
 21
1676.790294820918
 31
0.0
  0
LINE
  5
9021
  8
0
 10
1544.628096169193
 20
1676.790294820918
 30
0.0
 11
1418.653847200129
 21
1676.790294820918
 31
0.0
  0
LINE
  5
9022
  8
0
 10
1418.653847200129
 20
1676.790294820918
 30
0.0
 11
1401.349199476977
 21
1693.986741313027
 31
0.0
  0
LINE
  5
9023
  8
0
 10
1561.641344384054
 20
1792.38987515118
 30
0.0
 11
1402.178567308268
 21
1792.38987515118
 31
0.0
  0
LINE
  5
9024
  8
0
 10
1561.641344384054
 20
1719.321792859419
 30
0.0
 11
1402.178567308268
 21
1719.321792859419
 31
0.0
  0
LINE
  5
9025
  8
0
 10
1240.642370654255
 20
1693.986741313027
 30
0.0
 11
1240.642370654255
 21
1817.904289894361
 31
0.0
  0
LINE
  5
9026
  8
0
 10
1240.642370654255
 20
1817.904289894361
 30
0.0
 11
1258.014264417782
 21
1835.08952618667
 31
0.0
  0
LINE
  5
9027
  8
0
 10
1258.014264417782
 20
1835.08952618667
 30
0.0
 11
1383.954890366657
 21
1835.08952618667
 31
0.0
  0
LINE
  5
9028
  8
0
 10
1383.954890366657
 20
1835.08952618667
 30
0.0
 11
1401.349199476977
 21
1817.904289894361
 31
0.0
  0
LINE
  5
9029
  8
0
 10
1401.349199476977
 20
1817.904289894361
 30
0.0
 11
1401.349199476977
 21
1693.986741313027
 31
0.0
  0
LINE
  5
902A
  8
0
 10
1401.349199476977
 20
1693.986741313027
 30
0.0
 11
1383.954890366657
 21
1676.790294820918
 31
0.0
  0
LINE
  5
902B
  8
0
 10
1383.954890366657
 20
1676.790294820918
 30
0.0
 11
1258.014264417782
 21
1676.790294820918
 31
0.0
  0
LINE
  5
902C
  8
0
 10
1258.014264417782
 20
1676.790294820918
 30
0.0
 11
1240.642370654255
 21
1693.986741313027
 31
0.0
  0
LINE
  5
902D
  8
0
 10
1401.158669029248
 20
1792.38987515118
 30
0.0
 11
1241.505361505733
 21
1792.38987515118
 31
0.0
  0
LINE
  5
902E
  8
0
 10
1401.158669029248
 20
1719.321792859419
 30
0.0
 11
1241.505361505733
 21
1719.321792859419
 31
0.0
  0
LINE
  5
902F
  8
0
 10
1080.18211064624
 20
1693.986741313027
 30
0.0
 11
1080.18211064624
 21
1817.904289894361
 31
0.0
  0
LINE
  5
9030
  8
0
 10
1080.18211064624
 20
1817.904289894361
 30
0.0
 11
1097.363473962039
 21
1835.08952618667
 31
0.0
  0
LINE
  5
9031
  8
0
 10
1097.363473962039
 20
1835.08952618667
 30
0.0
 11
1223.483422685248
 21
1835.08952618667
 31
0.0
  0
LINE
  5
9032
  8
0
 10
1223.483422685248
 20
1835.08952618667
 30
0.0
 11
1240.642370654255
 21
1817.904289894361
 31
0.0
  0
LINE
  5
9033
  8
0
 10
1240.642370654255
 20
1817.904289894361
 30
0.0
 11
1240.642370654255
 21
1693.986741313027
 31
0.0
  0
LINE
  5
9034
  8
0
 10
1240.642370654255
 20
1693.986741313027
 30
0.0
 11
1223.483422685248
 21
1676.790294820918
 31
0.0
  0
LINE
  5
9035
  8
0
 10
1223.483422685248
 20
1676.790294820918
 30
0.0
 11
1097.363473962039
 21
1676.790294820918
 31
0.0
  0
LINE
  5
9036
  8
0
 10
1097.363473962039
 20
1676.790294820918
 30
0.0
 11
1080.18211064624
 21
1693.986741313027
 31
0.0
  0
LINE
  5
9037
  8
0
 10
1240.496670900109
 20
1792.38987515118
 30
0.0
 11
1080.820948029803
 21
1792.38987515118
 31
0.0
  0
LINE
  5
9038
  8
0
 10
1240.496670900109
 20
1719.321792859419
 30
0.0
 11
1080.820948029803
 21
1719.321792859419
 31
0.0
  0
LINE
  5
9039
  8
0
 10
919.49769717031
 20
1693.986741313027
 30
0.0
 11
919.49769717031
 21
1817.904289894361
 31
0.0
  0
LINE
  5
903A
  8
0
 10
919.49769717031
 20
1817.904289894361
 30
0.0
 11
936.6902681595038
 21
1835.08952618667
 31
0.0
  0
LINE
  5
903B
  8
0
 10
936.6902681595038
 20
1835.08952618667
 30
0.0
 11
1062.810216882713
 21
1835.08952618667
 31
0.0
  0
LINE
  5
903C
  8
0
 10
1062.810216882713
 20
1835.08952618667
 30
0.0
 11
1080.18211064624
 21
1817.904289894361
 31
0.0
  0
LINE
  5
903D
  8
0
 10
1080.18211064624
 20
1817.904289894361
 30
0.0
 11
1080.18211064624
 21
1693.986741313027
 31
0.0
  0
LINE
  5
903E
  8
0
 10
1080.18211064624
 20
1693.986741313027
 30
0.0
 11
1062.810216882713
 21
1676.790294820918
 31
0.0
  0
LINE
  5
903F
  8
0
 10
1062.810216882713
 20
1676.790294820918
 30
0.0
 11
936.6902681595038
 21
1676.790294820918
 31
0.0
  0
LINE
  5
9040
  8
0
 10
936.6902681595038
 20
1676.790294820918
 30
0.0
 11
919.49769717031
 21
1693.986741313027
 31
0.0
  0
LINE
  5
9041
  8
0
 10
1079.812257424179
 20
1792.38987515118
 30
0.0
 11
920.3158573282053
 21
1792.38987515118
 31
0.0
  0
LINE
  5
9042
  8
0
 10
1079.812257424179
 20
1719.321792859419
 30
0.0
 11
920.3158573282053
 21
1719.321792859419
 31
0.0
  0
LINE
  5
9043
  8
0
 10
2043.829076892595
 20
1852.297182878578
 30
0.0
 11
2043.829076892595
 21
1976.237151859511
 31
0.0
  0
LINE
  5
9044
  8
0
 10
2043.829076892595
 20
1976.237151859511
 30
0.0
 11
2061.044063228582
 21
1993.41117795202
 31
0.0
  0
LINE
  5
9045
  8
0
 10
2061.044063228582
 20
1993.41117795202
 30
0.0
 11
2187.152804278395
 21
1993.41117795202
 31
0.0
  0
LINE
  5
9046
  8
0
 10
2187.152804278395
 20
1993.41117795202
 30
0.0
 11
2204.322959920798
 21
1976.237151859511
 31
0.0
  0
LINE
  5
9047
  8
0
 10
2204.322959920798
 20
1976.237151859511
 30
0.0
 11
2204.322959920798
 21
1852.297182878578
 31
0.0
  0
LINE
  5
9048
  8
0
 10
2204.322959920798
 20
1852.297182878578
 30
0.0
 11
2187.152804278395
 21
1835.08952618667
 31
0.0
  0
LINE
  5
9049
  8
0
 10
2187.152804278395
 20
1835.08952618667
 30
0.0
 11
2061.044063228582
 21
1835.08952618667
 31
0.0
  0
LINE
  5
904A
  8
0
 10
2061.044063228582
 20
1835.08952618667
 30
0.0
 11
2043.829076892595
 21
1852.297182878578
 31
0.0
  0
LINE
  5
904B
  8
0
 10
2204.188467840048
 20
1950.700316716731
 30
0.0
 11
2044.680860070678
 21
1950.700316716731
 31
0.0
  0
LINE
  5
904C
  8
0
 10
2204.188467840048
 20
1877.845228221156
 30
0.0
 11
2044.680860070678
 21
1877.845228221156
 31
0.0
  0
LINE
  5
904D
  8
0
 10
1883.178286436852
 20
1852.297182878578
 30
0.0
 11
1883.178286436852
 21
1976.237151859511
 31
0.0
  0
LINE
  5
904E
  8
0
 10
1883.178286436852
 20
1976.237151859511
 30
0.0
 11
1900.550180200379
 21
1993.41117795202
 31
0.0
  0
LINE
  5
904F
  8
0
 10
1900.550180200379
 20
1993.41117795202
 30
0.0
 11
2026.434767782276
 21
1993.41117795202
 31
0.0
  0
LINE
  5
9050
  8
0
 10
2026.434767782276
 20
1993.41117795202
 30
0.0
 11
2043.829076892595
 21
1976.237151859511
 31
0.0
  0
LINE
  5
9051
  8
0
 10
2043.829076892595
 20
1976.237151859511
 30
0.0
 11
2043.829076892595
 21
1852.297182878578
 31
0.0
  0
LINE
  5
9052
  8
0
 10
2043.829076892595
 20
1852.297182878578
 30
0.0
 11
2026.434767782276
 21
1835.08952618667
 31
0.0
  0
LINE
  5
9053
  8
0
 10
2026.434767782276
 20
1835.08952618667
 30
0.0
 11
1900.550180200379
 21
1835.08952618667
 31
0.0
  0
LINE
  5
9054
  8
0
 10
1900.550180200379
 20
1835.08952618667
 30
0.0
 11
1883.178286436852
 21
1852.297182878578
 31
0.0
  0
LINE
  5
9055
  8
0
 10
2043.515262037513
 20
1950.700316716731
 30
0.0
 11
1884.007654268144
 21
1950.700316716731
 31
0.0
  0
LINE
  5
9056
  8
0
 10
2043.515262037513
 20
1877.845228221156
 30
0.0
 11
1884.007654268144
 21
1877.845228221156
 31
0.0
  0
LINE
  5
9057
  8
0
 10
1722.482665287526
 20
1852.297182878578
 30
0.0
 11
1722.482665287526
 21
1976.237151859511
 31
0.0
  0
LINE
  5
9058
  8
0
 10
1722.482665287526
 20
1976.237151859511
 30
0.0
 11
1739.854559051054
 21
1993.41117795202
 31
0.0
  0
LINE
  5
9059
  8
0
 10
1739.854559051054
 20
1993.41117795202
 30
0.0
 11
1865.985715447658
 21
1993.41117795202
 31
0.0
  0
LINE
  5
905A
  8
0
 10
1865.985715447658
 20
1993.41117795202
 30
0.0
 11
1883.178286436852
 21
1976.237151859511
 31
0.0
  0
LINE
  5
905B
  8
0
 10
1883.178286436852
 20
1976.237151859511
 30
0.0
 11
1883.178286436852
 21
1852.297182878578
 31
0.0
  0
LINE
  5
905C
  8
0
 10
1883.178286436852
 20
1852.297182878578
 30
0.0
 11
1865.985715447658
 21
1835.08952618667
 31
0.0
  0
LINE
  5
905D
  8
0
 10
1865.985715447658
 20
1835.08952618667
 30
0.0
 11
1739.854559051054
 21
1835.08952618667
 31
0.0
  0
LINE
  5
905E
  8
0
 10
1739.854559051054
 20
1835.08952618667
 30
0.0
 11
1722.482665287526
 21
1852.297182878578
 31
0.0
  0
LINE
  5
905F
  8
0
 10
1882.976548315727
 20
1950.700316716731
 30
0.0
 11
1723.334448465609
 21
1950.700316716731
 31
0.0
  0
LINE
  5
9060
  8
0
 10
1882.976548315727
 20
1877.845228221156
 30
0.0
 11
1723.334448465609
 21
1877.845228221156
 31
0.0
  0
LINE
  5
9061
  8
0
 10
1562.022405279512
 20
1852.297182878578
 30
0.0
 11
1562.022405279512
 21
1976.237151859511
 31
0.0
  0
LINE
  5
9062
  8
0
 10
1562.022405279512
 20
1976.237151859511
 30
0.0
 11
1579.181353248518
 21
1993.41117795202
 31
0.0
  0
LINE
  5
9063
  8
0
 10
1579.181353248518
 20
1993.41117795202
 30
0.0
 11
1705.312509645123
 21
1993.41117795202
 31
0.0
  0
LINE
  5
9064
  8
0
 10
1705.312509645123
 20
1993.41117795202
 30
0.0
 11
1722.482665287526
 21
1976.237151859511
 31
0.0
  0
LINE
  5
9065
  8
0
 10
1722.482665287526
 20
1976.237151859511
 30
0.0
 11
1722.482665287526
 21
1852.297182878578
 31
0.0
  0
LINE
  5
9066
  8
0
 10
1722.482665287526
 20
1852.297182878578
 30
0.0
 11
1705.312509645123
 21
1835.08952618667
 31
0.0
  0
LINE
  5
9067
  8
0
 10
1705.312509645123
 20
1835.08952618667
 30
0.0
 11
1579.181353248518
 21
1835.08952618667
 31
0.0
  0
LINE
  5
9068
  8
0
 10
1579.181353248518
 20
1835.08952618667
 30
0.0
 11
1562.022405279512
 21
1852.297182878578
 31
0.0
  0
LINE
  5
9069
  8
0
 10
1722.348173206776
 20
1950.700316716731
 30
0.0
 11
1562.650034989679
 21
1950.700316716731
 31
0.0
  0
LINE
  5
906A
  8
0
 10
1722.348173206776
 20
1877.845228221156
 30
0.0
 11
1562.650034989679
 21
1877.845228221156
 31
0.0
  0
LINE
  5
906B
  8
0
 10
1401.349199476977
 20
1852.297182878578
 30
0.0
 11
1401.349199476977
 21
1976.237151859511
 31
0.0
  0
LINE
  5
906C
  8
0
 10
1401.349199476977
 20
1976.237151859511
 30
0.0
 11
1418.653847200129
 21
1993.41117795202
 31
0.0
  0
LINE
  5
906D
  8
0
 10
1418.653847200129
 20
1993.41117795202
 30
0.0
 11
1544.628096169193
 21
1993.41117795202
 31
0.0
  0
LINE
  5
906E
  8
0
 10
1544.628096169193
 20
1993.41117795202
 30
0.0
 11
1562.022405279512
 21
1976.237151859511
 31
0.0
  0
LINE
  5
906F
  8
0
 10
1562.022405279512
 20
1976.237151859511
 30
0.0
 11
1562.022405279512
 21
1852.297182878578
 31
0.0
  0
LINE
  5
9070
  8
0
 10
1562.022405279512
 20
1852.297182878578
 30
0.0
 11
1544.628096169193
 21
1835.08952618667
 31
0.0
  0
LINE
  5
9071
  8
0
 10
1544.628096169193
 20
1835.08952618667
 30
0.0
 11
1418.653847200129
 21
1835.08952618667
 31
0.0
  0
LINE
  5
9072
  8
0
 10
1418.653847200129
 20
1835.08952618667
 30
0.0
 11
1401.349199476977
 21
1852.297182878578
 31
0.0
  0
LINE
  5
9073
  8
0
 10
1561.641344384054
 20
1950.700316716731
 30
0.0
 11
1402.178567308268
 21
1950.700316716731
 31
0.0
  0
LINE
  5
9074
  8
0
 10
1561.641344384054
 20
1877.845228221156
 30
0.0
 11
1402.178567308268
 21
1877.845228221156
 31
0.0
  0
LINE
  5
9075
  8
0
 10
1240.642370654255
 20
1852.297182878578
 30
0.0
 11
1240.642370654255
 21
1976.237151859511
 31
0.0
  0
LINE
  5
9076
  8
0
 10
1240.642370654255
 20
1976.237151859511
 30
0.0
 11
1258.014264417782
 21
1993.41117795202
 31
0.0
  0
LINE
  5
9077
  8
0
 10
1258.014264417782
 20
1993.41117795202
 30
0.0
 11
1383.954890366657
 21
1993.41117795202
 31
0.0
  0
LINE
  5
9078
  8
0
 10
1383.954890366657
 20
1993.41117795202
 30
0.0
 11
1401.349199476977
 21
1976.237151859511
 31
0.0
  0
LINE
  5
9079
  8
0
 10
1401.349199476977
 20
1976.237151859511
 30
0.0
 11
1401.349199476977
 21
1852.297182878578
 31
0.0
  0
LINE
  5
907A
  8
0
 10
1401.349199476977
 20
1852.297182878578
 30
0.0
 11
1383.954890366657
 21
1835.08952618667
 31
0.0
  0
LINE
  5
907B
  8
0
 10
1383.954890366657
 20
1835.08952618667
 30
0.0
 11
1258.014264417782
 21
1835.08952618667
 31
0.0
  0
LINE
  5
907C
  8
0
 10
1258.014264417782
 20
1835.08952618667
 30
0.0
 11
1240.642370654255
 21
1852.297182878578
 31
0.0
  0
LINE
  5
907D
  8
0
 10
1401.158669029248
 20
1950.700316716731
 30
0.0
 11
1241.505361505733
 21
1950.700316716731
 31
0.0
  0
LINE
  5
907E
  8
0
 10
1401.158669029248
 20
1877.845228221156
 30
0.0
 11
1241.505361505733
 21
1877.845228221156
 31
0.0
  0
LINE
  5
907F
  8
0
 10
1080.18211064624
 20
1852.297182878578
 30
0.0
 11
1080.18211064624
 21
1976.237151859511
 31
0.0
  0
LINE
  5
9080
  8
0
 10
1080.18211064624
 20
1976.237151859511
 30
0.0
 11
1097.363473962039
 21
1993.41117795202
 31
0.0
  0
LINE
  5
9081
  8
0
 10
1097.363473962039
 20
1993.41117795202
 30
0.0
 11
1223.483422685248
 21
1993.41117795202
 31
0.0
  0
LINE
  5
9082
  8
0
 10
1223.483422685248
 20
1993.41117795202
 30
0.0
 11
1240.642370654255
 21
1976.237151859511
 31
0.0
  0
LINE
  5
9083
  8
0
 10
1240.642370654255
 20
1976.237151859511
 30
0.0
 11
1240.642370654255
 21
1852.297182878578
 31
0.0
  0
LINE
  5
9084
  8
0
 10
1240.642370654255
 20
1852.297182878578
 30
0.0
 11
1223.483422685248
 21
1835.08952618667
 31
0.0
  0
LINE
  5
9085
  8
0
 10
1223.483422685248
 20
1835.08952618667
 30
0.0
 11
1097.363473962039
 21
1835.08952618667
 31
0.0
  0
LINE
  5
9086
  8
0
 10
1097.363473962039
 20
1835.08952618667
 30
0.0
 11
1080.18211064624
 21
1852.297182878578
 31
0.0
  0
LINE
  5
9087
  8
0
 10
1240.496670900109
 20
1950.700316716731
 30
0.0
 11
1080.820948029803
 21
1950.700316716731
 31
0.0
  0
LINE
  5
9088
  8
0
 10
1240.496670900109
 20
1877.845228221156
 30
0.0
 11
1080.820948029803
 21
1877.845228221156
 31
0.0
  0
LINE
  5
9089
  8
0
 10
919.49769717031
 20
1852.297182878578
 30
0.0
 11
919.49769717031
 21
1976.237151859511
 31
0.0
  0
LINE
  5
908A
  8
0
 10
919.49769717031
 20
1976.237151859511
 30
0.0
 11
936.6902681595038
 21
1993.41117795202
 31
0.0
  0
LINE
  5
908B
  8
0
 10
936.6902681595038
 20
1993.41117795202
 30
0.0
 11
1062.810216882713
 21
1993.41117795202
 31
0.0
  0
LINE
  5
908C
  8
0
 10
1062.810216882713
 20
1993.41117795202
 30
0.0
 11
1080.18211064624
 21
1976.237151859511
 31
0.0
  0
LINE
  5
908D
  8
0
 10
1080.18211064624
 20
1976.237151859511
 30
0.0
 11
1080.18211064624
 21
1852.297182878578
 31
0.0
  0
LINE
  5
908E
  8
0
 10
1080.18211064624
 20
1852.297182878578
 30
0.0
 11
1062.810216882713
 21
1835.08952618667
 31
0.0
  0
LINE
  5
908F
  8
0
 10
1062.810216882713
 20
1835.08952618667
 30
0.0
 11
936.6902681595038
 21
1835.08952618667
 31
0.0
  0
LINE
  5
9090
  8
0
 10
936.6902681595038
 20
1835.08952618667
 30
0.0
 11
919.49769717031
 21
1852.297182878578
 31
0.0
  0
LINE
  5
9091
  8
0
 10
1079.812257424179
 20
1950.700316716731
 30
0.0
 11
920.3158573282053
 21
1950.700316716731
 31
0.0
  0
LINE
  5
9092
  8
0
 10
1079.812257424179
 20
1877.845228221156
 30
0.0
 11
920.3158573282053
 21
1877.845228221156
 31
0.0
  0
LINE
  5
9093
  8
0
 10
2043.829076892595
 20
2010.607624444129
 30
0.0
 11
2043.829076892595
 21
2134.749377021449
 31
0.0
  0
LINE
  5
9094
  8
0
 10
2043.829076892595
 20
2134.749377021449
 30
0.0
 11
2061.044063228582
 21
2151.74403991717
 31
0.0
  0
LINE
  5
9095
  8
0
 10
2061.044063228582
 20
2151.74403991717
 30
0.0
 11
2187.152804278395
 21
2151.74403991717
 31
0.0
  0
LINE
  5
9096
  8
0
 10
2187.152804278395
 20
2151.74403991717
 30
0.0
 11
2204.322959920798
 21
2134.749377021449
 31
0.0
  0
LINE
  5
9097
  8
0
 10
2204.322959920798
 20
2134.749377021449
 30
0.0
 11
2204.322959920798
 21
2010.607624444129
 31
0.0
  0
LINE
  5
9098
  8
0
 10
2204.322959920798
 20
2010.607624444129
 30
0.0
 11
2187.152804278395
 21
1993.41117795202
 31
0.0
  0
LINE
  5
9099
  8
0
 10
2187.152804278395
 20
1993.41117795202
 30
0.0
 11
2061.044063228582
 21
1993.41117795202
 31
0.0
  0
LINE
  5
909A
  8
0
 10
2061.044063228582
 20
1993.41117795202
 30
0.0
 11
2043.829076892595
 21
2010.607624444129
 31
0.0
  0
LINE
  5
909B
  8
0
 10
2204.188467840048
 20
2109.033178681881
 30
0.0
 11
2044.680860070678
 21
2109.033178681881
 31
0.0
  0
LINE
  5
909C
  8
0
 10
2204.188467840048
 20
2036.166879986506
 30
0.0
 11
2044.680860070678
 21
2036.166879986506
 31
0.0
  0
LINE
  5
909D
  8
0
 10
1883.178286436852
 20
2010.607624444129
 30
0.0
 11
1883.178286436852
 21
2134.749377021449
 31
0.0
  0
LINE
  5
909E
  8
0
 10
1883.178286436852
 20
2134.749377021449
 30
0.0
 11
1900.550180200379
 21
2151.74403991717
 31
0.0
  0
LINE
  5
909F
  8
0
 10
1900.550180200379
 20
2151.74403991717
 30
0.0
 11
2026.434767782276
 21
2151.74403991717
 31
0.0
  0
LINE
  5
90A0
  8
0
 10
2026.434767782276
 20
2151.74403991717
 30
0.0
 11
2043.829076892595
 21
2134.749377021449
 31
0.0
  0
LINE
  5
90A1
  8
0
 10
2043.829076892595
 20
2134.749377021449
 30
0.0
 11
2043.829076892595
 21
2010.607624444129
 31
0.0
  0
LINE
  5
90A2
  8
0
 10
2043.829076892595
 20
2010.607624444129
 30
0.0
 11
2026.434767782276
 21
1993.41117795202
 31
0.0
  0
LINE
  5
90A3
  8
0
 10
2026.434767782276
 20
1993.41117795202
 30
0.0
 11
1900.550180200379
 21
1993.41117795202
 31
0.0
  0
LINE
  5
90A4
  8
0
 10
1900.550180200379
 20
1993.41117795202
 30
0.0
 11
1883.178286436852
 21
2010.607624444129
 31
0.0
  0
LINE
  5
90A5
  8
0
 10
2043.515262037513
 20
2109.033178681881
 30
0.0
 11
1884.007654268144
 21
2109.033178681881
 31
0.0
  0
LINE
  5
90A6
  8
0
 10
2043.515262037513
 20
2036.166879986506
 30
0.0
 11
1884.007654268144
 21
2036.166879986506
 31
0.0
  0
LINE
  5
90A7
  8
0
 10
1722.482665287526
 20
2010.607624444129
 30
0.0
 11
1722.482665287526
 21
2134.749377021449
 31
0.0
  0
LINE
  5
90A8
  8
0
 10
1722.482665287526
 20
2134.749377021449
 30
0.0
 11
1739.854559051054
 21
2151.74403991717
 31
0.0
  0
LINE
  5
90A9
  8
0
 10
1739.854559051054
 20
2151.74403991717
 30
0.0
 11
1865.985715447658
 21
2151.74403991717
 31
0.0
  0
LINE
  5
90AA
  8
0
 10
1865.985715447658
 20
2151.74403991717
 30
0.0
 11
1883.178286436852
 21
2134.749377021449
 31
0.0
  0
LINE
  5
90AB
  8
0
 10
1883.178286436852
 20
2134.749377021449
 30
0.0
 11
1883.178286436852
 21
2010.607624444129
 31
0.0
  0
LINE
  5
90AC
  8
0
 10
1883.178286436852
 20
2010.607624444129
 30
0.0
 11
1865.985715447658
 21
1993.41117795202
 31
0.0
  0
LINE
  5
90AD
  8
0
 10
1865.985715447658
 20
1993.41117795202
 30
0.0
 11
1739.854559051054
 21
1993.41117795202
 31
0.0
  0
LINE
  5
90AE
  8
0
 10
1739.854559051054
 20
1993.41117795202
 30
0.0
 11
1722.482665287526
 21
2010.607624444129
 31
0.0
  0
LINE
  5
90AF
  8
0
 10
1882.976548315727
 20
2109.033178681881
 30
0.0
 11
1723.334448465609
 21
2109.033178681881
 31
0.0
  0
LINE
  5
90B0
  8
0
 10
1882.976548315727
 20
2036.166879986506
 30
0.0
 11
1723.334448465609
 21
2036.166879986506
 31
0.0
  0
LINE
  5
90B1
  8
0
 10
1562.022405279512
 20
2010.607624444129
 30
0.0
 11
1562.022405279512
 21
2134.749377021449
 31
0.0
  0
LINE
  5
90B2
  8
0
 10
1562.022405279512
 20
2134.749377021449
 30
0.0
 11
1579.181353248518
 21
2151.74403991717
 31
0.0
  0
LINE
  5
90B3
  8
0
 10
1579.181353248518
 20
2151.74403991717
 30
0.0
 11
1705.312509645123
 21
2151.74403991717
 31
0.0
  0
LINE
  5
90B4
  8
0
 10
1705.312509645123
 20
2151.74403991717
 30
0.0
 11
1722.482665287526
 21
2134.749377021449
 31
0.0
  0
LINE
  5
90B5
  8
0
 10
1722.482665287526
 20
2134.749377021449
 30
0.0
 11
1722.482665287526
 21
2010.607624444129
 31
0.0
  0
LINE
  5
90B6
  8
0
 10
1722.482665287526
 20
2010.607624444129
 30
0.0
 11
1705.312509645123
 21
1993.41117795202
 31
0.0
  0
LINE
  5
90B7
  8
0
 10
1705.312509645123
 20
1993.41117795202
 30
0.0
 11
1579.181353248518
 21
1993.41117795202
 31
0.0
  0
LINE
  5
90B8
  8
0
 10
1579.181353248518
 20
1993.41117795202
 30
0.0
 11
1562.022405279512
 21
2010.607624444129
 31
0.0
  0
LINE
  5
90B9
  8
0
 10
1722.348173206776
 20
2109.033178681881
 30
0.0
 11
1562.650034989679
 21
2109.033178681881
 31
0.0
  0
LINE
  5
90BA
  8
0
 10
1722.348173206776
 20
2036.166879986506
 30
0.0
 11
1562.650034989679
 21
2036.166879986506
 31
0.0
  0
LINE
  5
90BB
  8
0
 10
1401.349199476977
 20
2010.607624444129
 30
0.0
 11
1401.349199476977
 21
2134.749377021449
 31
0.0
  0
LINE
  5
90BC
  8
0
 10
1401.349199476977
 20
2134.749377021449
 30
0.0
 11
1418.653847200129
 21
2151.74403991717
 31
0.0
  0
LINE
  5
90BD
  8
0
 10
1418.653847200129
 20
2151.74403991717
 30
0.0
 11
1544.628096169193
 21
2151.74403991717
 31
0.0
  0
LINE
  5
90BE
  8
0
 10
1544.628096169193
 20
2151.74403991717
 30
0.0
 11
1562.022405279512
 21
2134.749377021449
 31
0.0
  0
LINE
  5
90BF
  8
0
 10
1562.022405279512
 20
2134.749377021449
 30
0.0
 11
1562.022405279512
 21
2010.607624444129
 31
0.0
  0
LINE
  5
90C0
  8
0
 10
1562.022405279512
 20
2010.607624444129
 30
0.0
 11
1544.628096169193
 21
1993.41117795202
 31
0.0
  0
LINE
  5
90C1
  8
0
 10
1544.628096169193
 20
1993.41117795202
 30
0.0
 11
1418.653847200129
 21
1993.41117795202
 31
0.0
  0
LINE
  5
90C2
  8
0
 10
1418.653847200129
 20
1993.41117795202
 30
0.0
 11
1401.349199476977
 21
2010.607624444129
 31
0.0
  0
LINE
  5
90C3
  8
0
 10
1561.641344384054
 20
2109.033178681881
 30
0.0
 11
1402.178567308268
 21
2109.033178681881
 31
0.0
  0
LINE
  5
90C4
  8
0
 10
1561.641344384054
 20
2036.166879986506
 30
0.0
 11
1402.178567308268
 21
2036.166879986506
 31
0.0
  0
LINE
  5
90C5
  8
0
 10
1240.642370654255
 20
2010.607624444129
 30
0.0
 11
1240.642370654255
 21
2134.749377021449
 31
0.0
  0
LINE
  5
90C6
  8
0
 10
1240.642370654255
 20
2134.749377021449
 30
0.0
 11
1258.014264417782
 21
2151.74403991717
 31
0.0
  0
LINE
  5
90C7
  8
0
 10
1258.014264417782
 20
2151.74403991717
 30
0.0
 11
1383.954890366657
 21
2151.74403991717
 31
0.0
  0
LINE
  5
90C8
  8
0
 10
1383.954890366657
 20
2151.74403991717
 30
0.0
 11
1401.349199476977
 21
2134.749377021449
 31
0.0
  0
LINE
  5
90C9
  8
0
 10
1401.349199476977
 20
2134.749377021449
 30
0.0
 11
1401.349199476977
 21
2010.607624444129
 31
0.0
  0
LINE
  5
90CA
  8
0
 10
1401.349199476977
 20
2010.607624444129
 30
0.0
 11
1383.954890366657
 21
1993.41117795202
 31
0.0
  0
LINE
  5
90CB
  8
0
 10
1383.954890366657
 20
1993.41117795202
 30
0.0
 11
1258.014264417782
 21
1993.41117795202
 31
0.0
  0
LINE
  5
90CC
  8
0
 10
1258.014264417782
 20
1993.41117795202
 30
0.0
 11
1240.642370654255
 21
2010.607624444129
 31
0.0
  0
LINE
  5
90CD
  8
0
 10
1401.158669029248
 20
2109.033178681881
 30
0.0
 11
1241.505361505733
 21
2109.033178681881
 31
0.0
  0
LINE
  5
90CE
  8
0
 10
1401.158669029248
 20
2036.166879986506
 30
0.0
 11
1241.505361505733
 21
2036.166879986506
 31
0.0
  0
LINE
  5
90CF
  8
0
 10
1080.18211064624
 20
2010.607624444129
 30
0.0
 11
1080.18211064624
 21
2134.749377021449
 31
0.0
  0
LINE
  5
90D0
  8
0
 10
1080.18211064624
 20
2134.749377021449
 30
0.0
 11
1097.363473962039
 21
2151.74403991717
 31
0.0
  0
LINE
  5
90D1
  8
0
 10
1097.363473962039
 20
2151.74403991717
 30
0.0
 11
1223.483422685248
 21
2151.74403991717
 31
0.0
  0
LINE
  5
90D2
  8
0
 10
1223.483422685248
 20
2151.74403991717
 30
0.0
 11
1240.642370654255
 21
2134.749377021449
 31
0.0
  0
LINE
  5
90D3
  8
0
 10
1240.642370654255
 20
2134.749377021449
 30
0.0
 11
1240.642370654255
 21
2010.607624444129
 31
0.0
  0
LINE
  5
90D4
  8
0
 10
1240.642370654255
 20
2010.607624444129
 30
0.0
 11
1223.483422685248
 21
1993.41117795202
 31
0.0
  0
LINE
  5
90D5
  8
0
 10
1223.483422685248
 20
1993.41117795202
 30
0.0
 11
1097.363473962039
 21
1993.41117795202
 31
0.0
  0
LINE
  5
90D6
  8
0
 10
1097.363473962039
 20
1993.41117795202
 30
0.0
 11
1080.18211064624
 21
2010.607624444129
 31
0.0
  0
LINE
  5
90D7
  8
0
 10
1240.496670900109
 20
2109.033178681881
 30
0.0
 11
1080.820948029803
 21
2109.033178681881
 31
0.0
  0
LINE
  5
90D8
  8
0
 10
1240.496670900109
 20
2036.166879986506
 30
0.0
 11
1080.820948029803
 21
2036.166879986506
 31
0.0
  0
LINE
  5
90D9
  8
0
 10
919.49769717031
 20
2010.607624444129
 30
0.0
 11
919.49769717031
 21
2134.749377021449
 31
0.0
  0
LINE
  5
90DA
  8
0
 10
919.49769717031
 20
2134.749377021449
 30
0.0
 11
936.6902681595038
 21
2151.74403991717
 31
0.0
  0
LINE
  5
90DB
  8
0
 10
936.6902681595038
 20
2151.74403991717
 30
0.0
 11
1062.810216882713
 21
2151.74403991717
 31
0.0
  0
LINE
  5
90DC
  8
0
 10
1062.810216882713
 20
2151.74403991717
 30
0.0
 11
1080.18211064624
 21
2134.749377021449
 31
0.0
  0
LINE
  5
90DD
  8
0
 10
1080.18211064624
 20
2134.749377021449
 30
0.0
 11
1080.18211064624
 21
2010.607624444129
 31
0.0
  0
LINE
  5
90DE
  8
0
 10
1080.18211064624
 20
2010.607624444129
 30
0.0
 11
1062.810216882713
 21
1993.41117795202
 31
0.0
  0
LINE
  5
90DF
  8
0
 10
1062.810216882713
 20
1993.41117795202
 30
0.0
 11
936.6902681595038
 21
1993.41117795202
 31
0.0
  0
LINE
  5
90E0
  8
0
 10
936.6902681595038
 20
1993.41117795202
 30
0.0
 11
919.49769717031
 21
2010.607624444129
 31
0.0
  0
LINE
  5
90E1
  8
0
 10
1079.812257424179
 20
2109.033178681881
 30
0.0
 11
920.3158573282053
 21
2109.033178681881
 31
0.0
  0
LINE
  5
90E2
  8
0
 10
1079.812257424179
 20
2036.166879986506
 30
0.0
 11
920.3158573282053
 21
2036.166879986506
 31
0.0
  0
LINE
  5
90E3
  8
0
 10
2043.829076892595
 20
2168.974117008676
 30
0.0
 11
2043.829076892595
 21
2293.071028786799
 31
0.0
  0
LINE
  5
90E4
  8
0
 10
2043.829076892595
 20
2293.071028786799
 30
0.0
 11
2061.044063228582
 21
2310.233844679509
 31
0.0
  0
LINE
  5
90E5
  8
0
 10
2061.044063228582
 20
2310.233844679509
 30
0.0
 11
2187.152804278395
 21
2310.233844679509
 31
0.0
  0
LINE
  5
90E6
  8
0
 10
2187.152804278395
 20
2310.233844679509
 30
0.0
 11
2204.322959920798
 21
2293.071028786799
 31
0.0
  0
LINE
  5
90E7
  8
0
 10
2204.322959920798
 20
2293.071028786799
 30
0.0
 11
2204.322959920798
 21
2168.974117008676
 31
0.0
  0
LINE
  5
90E8
  8
0
 10
2204.322959920798
 20
2168.974117008676
 30
0.0
 11
2187.152804278395
 21
2151.74403991717
 31
0.0
  0
LINE
  5
90E9
  8
0
 10
2187.152804278395
 20
2151.74403991717
 30
0.0
 11
2061.044063228582
 21
2151.74403991717
 31
0.0
  0
LINE
  5
90EA
  8
0
 10
2061.044063228582
 20
2151.74403991717
 30
0.0
 11
2043.829076892595
 21
2168.974117008676
 31
0.0
  0
LINE
  5
90EB
  8
0
 10
2204.188467840048
 20
2267.522983444221
 30
0.0
 11
2044.680860070678
 21
2267.522983444221
 31
0.0
  0
LINE
  5
90EC
  8
0
 10
2204.188467840048
 20
2194.499741951656
 30
0.0
 11
2044.680860070678
 21
2194.499741951656
 31
0.0
  0
LINE
  5
90ED
  8
0
 10
1883.178286436852
 20
2168.974117008676
 30
0.0
 11
1883.178286436852
 21
2293.071028786799
 31
0.0
  0
LINE
  5
90EE
  8
0
 10
1883.178286436852
 20
2293.071028786799
 30
0.0
 11
1900.550180200379
 21
2310.233844679509
 31
0.0
  0
LINE
  5
90EF
  8
0
 10
1900.550180200379
 20
2310.233844679509
 30
0.0
 11
2026.434767782276
 21
2310.233844679509
 31
0.0
  0
LINE
  5
90F0
  8
0
 10
2026.434767782276
 20
2310.233844679509
 30
0.0
 11
2043.829076892595
 21
2293.071028786799
 31
0.0
  0
LINE
  5
90F1
  8
0
 10
2043.829076892595
 20
2293.071028786799
 30
0.0
 11
2043.829076892595
 21
2168.974117008676
 31
0.0
  0
LINE
  5
90F2
  8
0
 10
2043.829076892595
 20
2168.974117008676
 30
0.0
 11
2026.434767782276
 21
2151.74403991717
 31
0.0
  0
LINE
  5
90F3
  8
0
 10
2026.434767782276
 20
2151.74403991717
 30
0.0
 11
1900.550180200379
 21
2151.74403991717
 31
0.0
  0
LINE
  5
90F4
  8
0
 10
1900.550180200379
 20
2151.74403991717
 30
0.0
 11
1883.178286436852
 21
2168.974117008676
 31
0.0
  0
LINE
  5
90F5
  8
0
 10
2043.515262037513
 20
2267.522983444221
 30
0.0
 11
1884.007654268144
 21
2267.522983444221
 31
0.0
  0
LINE
  5
90F6
  8
0
 10
2043.515262037513
 20
2194.499741951656
 30
0.0
 11
1884.007654268144
 21
2194.499741951656
 31
0.0
  0
LINE
  5
90F7
  8
0
 10
1722.482665287526
 20
2168.974117008676
 30
0.0
 11
1722.482665287526
 21
2293.071028786799
 31
0.0
  0
LINE
  5
90F8
  8
0
 10
1722.482665287526
 20
2293.071028786799
 30
0.0
 11
1739.854559051054
 21
2310.233844679509
 31
0.0
  0
LINE
  5
90F9
  8
0
 10
1739.854559051054
 20
2310.233844679509
 30
0.0
 11
1865.985715447658
 21
2310.233844679509
 31
0.0
  0
LINE
  5
90FA
  8
0
 10
1865.985715447658
 20
2310.233844679509
 30
0.0
 11
1883.178286436852
 21
2293.071028786799
 31
0.0
  0
LINE
  5
90FB
  8
0
 10
1883.178286436852
 20
2293.071028786799
 30
0.0
 11
1883.178286436852
 21
2168.974117008676
 31
0.0
  0
LINE
  5
90FC
  8
0
 10
1883.178286436852
 20
2168.974117008676
 30
0.0
 11
1865.985715447658
 21
2151.74403991717
 31
0.0
  0
LINE
  5
90FD
  8
0
 10
1865.985715447658
 20
2151.74403991717
 30
0.0
 11
1739.854559051054
 21
2151.74403991717
 31
0.0
  0
LINE
  5
90FE
  8
0
 10
1739.854559051054
 20
2151.74403991717
 30
0.0
 11
1722.482665287526
 21
2168.974117008676
 31
0.0
  0
LINE
  5
90FF
  8
0
 10
1882.976548315727
 20
2267.522983444221
 30
0.0
 11
1723.334448465609
 21
2267.522983444221
 31
0.0
  0
LINE
  5
9100
  8
0
 10
1882.976548315727
 20
2194.499741951656
 30
0.0
 11
1723.334448465609
 21
2194.499741951656
 31
0.0
  0
LINE
  5
9101
  8
0
 10
1562.022405279512
 20
2168.974117008676
 30
0.0
 11
1562.022405279512
 21
2293.071028786799
 31
0.0
  0
LINE
  5
9102
  8
0
 10
1562.022405279512
 20
2293.071028786799
 30
0.0
 11
1579.181353248518
 21
2310.233844679509
 31
0.0
  0
LINE
  5
9103
  8
0
 10
1579.181353248518
 20
2310.233844679509
 30
0.0
 11
1705.312509645123
 21
2310.233844679509
 31
0.0
  0
LINE
  5
9104
  8
0
 10
1705.312509645123
 20
2310.233844679509
 30
0.0
 11
1722.482665287526
 21
2293.071028786799
 31
0.0
  0
LINE
  5
9105
  8
0
 10
1722.482665287526
 20
2293.071028786799
 30
0.0
 11
1722.482665287526
 21
2168.974117008676
 31
0.0
  0
LINE
  5
9106
  8
0
 10
1722.482665287526
 20
2168.974117008676
 30
0.0
 11
1705.312509645123
 21
2151.74403991717
 31
0.0
  0
LINE
  5
9107
  8
0
 10
1705.312509645123
 20
2151.74403991717
 30
0.0
 11
1579.181353248518
 21
2151.74403991717
 31
0.0
  0
LINE
  5
9108
  8
0
 10
1579.181353248518
 20
2151.74403991717
 30
0.0
 11
1562.022405279512
 21
2168.974117008676
 31
0.0
  0
LINE
  5
9109
  8
0
 10
1722.348173206776
 20
2267.522983444221
 30
0.0
 11
1562.650034989679
 21
2267.522983444221
 31
0.0
  0
LINE
  5
910A
  8
0
 10
1722.348173206776
 20
2194.499741951656
 30
0.0
 11
1562.650034989679
 21
2194.499741951656
 31
0.0
  0
LINE
  5
910B
  8
0
 10
1401.349199476977
 20
2168.974117008676
 30
0.0
 11
1401.349199476977
 21
2293.071028786799
 31
0.0
  0
LINE
  5
910C
  8
0
 10
1401.349199476977
 20
2293.071028786799
 30
0.0
 11
1418.653847200129
 21
2310.233844679509
 31
0.0
  0
LINE
  5
910D
  8
0
 10
1418.653847200129
 20
2310.233844679509
 30
0.0
 11
1544.628096169193
 21
2310.233844679509
 31
0.0
  0
LINE
  5
910E
  8
0
 10
1544.628096169193
 20
2310.233844679509
 30
0.0
 11
1562.022405279512
 21
2293.071028786799
 31
0.0
  0
LINE
  5
910F
  8
0
 10
1562.022405279512
 20
2293.071028786799
 30
0.0
 11
1562.022405279512
 21
2168.974117008676
 31
0.0
  0
LINE
  5
9110
  8
0
 10
1562.022405279512
 20
2168.974117008676
 30
0.0
 11
1544.628096169193
 21
2151.74403991717
 31
0.0
  0
LINE
  5
9111
  8
0
 10
1544.628096169193
 20
2151.74403991717
 30
0.0
 11
1418.653847200129
 21
2151.74403991717
 31
0.0
  0
LINE
  5
9112
  8
0
 10
1418.653847200129
 20
2151.74403991717
 30
0.0
 11
1401.349199476977
 21
2168.974117008676
 31
0.0
  0
LINE
  5
9113
  8
0
 10
1561.641344384054
 20
2267.522983444221
 30
0.0
 11
1402.178567308268
 21
2267.522983444221
 31
0.0
  0
LINE
  5
9114
  8
0
 10
1561.641344384054
 20
2194.499741951656
 30
0.0
 11
1402.178567308268
 21
2194.499741951656
 31
0.0
  0
LINE
  5
9115
  8
0
 10
1240.642370654255
 20
2168.974117008676
 30
0.0
 11
1240.642370654255
 21
2293.071028786799
 31
0.0
  0
LINE
  5
9116
  8
0
 10
1240.642370654255
 20
2293.071028786799
 30
0.0
 11
1258.014264417782
 21
2310.233844679509
 31
0.0
  0
LINE
  5
9117
  8
0
 10
1258.014264417782
 20
2310.233844679509
 30
0.0
 11
1383.954890366657
 21
2310.233844679509
 31
0.0
  0
LINE
  5
9118
  8
0
 10
1383.954890366657
 20
2310.233844679509
 30
0.0
 11
1401.349199476977
 21
2293.071028786799
 31
0.0
  0
LINE
  5
9119
  8
0
 10
1401.349199476977
 20
2293.071028786799
 30
0.0
 11
1401.349199476977
 21
2168.974117008676
 31
0.0
  0
LINE
  5
911A
  8
0
 10
1401.349199476977
 20
2168.974117008676
 30
0.0
 11
1383.954890366657
 21
2151.74403991717
 31
0.0
  0
LINE
  5
911B
  8
0
 10
1383.954890366657
 20
2151.74403991717
 30
0.0
 11
1258.014264417782
 21
2151.74403991717
 31
0.0
  0
LINE
  5
911C
  8
0
 10
1258.014264417782
 20
2151.74403991717
 30
0.0
 11
1240.642370654255
 21
2168.974117008676
 31
0.0
  0
LINE
  5
911D
  8
0
 10
1401.158669029248
 20
2267.522983444221
 30
0.0
 11
1241.505361505733
 21
2267.522983444221
 31
0.0
  0
LINE
  5
911E
  8
0
 10
1401.158669029248
 20
2194.499741951656
 30
0.0
 11
1241.505361505733
 21
2194.499741951656
 31
0.0
  0
LINE
  5
911F
  8
0
 10
1080.18211064624
 20
2168.974117008676
 30
0.0
 11
1080.18211064624
 21
2293.071028786799
 31
0.0
  0
LINE
  5
9120
  8
0
 10
1080.18211064624
 20
2293.071028786799
 30
0.0
 11
1097.363473962039
 21
2310.233844679509
 31
0.0
  0
LINE
  5
9121
  8
0
 10
1097.363473962039
 20
2310.233844679509
 30
0.0
 11
1223.483422685248
 21
2310.233844679509
 31
0.0
  0
LINE
  5
9122
  8
0
 10
1223.483422685248
 20
2310.233844679509
 30
0.0
 11
1240.642370654255
 21
2293.071028786799
 31
0.0
  0
LINE
  5
9123
  8
0
 10
1240.642370654255
 20
2293.071028786799
 30
0.0
 11
1240.642370654255
 21
2168.974117008676
 31
0.0
  0
LINE
  5
9124
  8
0
 10
1240.642370654255
 20
2168.974117008676
 30
0.0
 11
1223.483422685248
 21
2151.74403991717
 31
0.0
  0
LINE
  5
9125
  8
0
 10
1223.483422685248
 20
2151.74403991717
 30
0.0
 11
1097.363473962039
 21
2151.74403991717
 31
0.0
  0
LINE
  5
9126
  8
0
 10
1097.363473962039
 20
2151.74403991717
 30
0.0
 11
1080.18211064624
 21
2168.974117008676
 31
0.0
  0
LINE
  5
9127
  8
0
 10
1240.496670900109
 20
2267.522983444221
 30
0.0
 11
1080.820948029803
 21
2267.522983444221
 31
0.0
  0
LINE
  5
9128
  8
0
 10
1240.496670900109
 20
2194.499741951656
 30
0.0
 11
1080.820948029803
 21
2194.499741951656
 31
0.0
  0
LINE
  5
9129
  8
0
 10
919.49769717031
 20
2168.974117008676
 30
0.0
 11
919.49769717031
 21
2293.071028786799
 31
0.0
  0
LINE
  5
912A
  8
0
 10
919.49769717031
 20
2293.071028786799
 30
0.0
 11
936.6902681595038
 21
2310.233844679509
 31
0.0
  0
LINE
  5
912B
  8
0
 10
936.6902681595038
 20
2310.233844679509
 30
0.0
 11
1062.810216882713
 21
2310.233844679509
 31
0.0
  0
LINE
  5
912C
  8
0
 10
1062.810216882713
 20
2310.233844679509
 30
0.0
 11
1080.18211064624
 21
2293.071028786799
 31
0.0
  0
LINE
  5
912D
  8
0
 10
1080.18211064624
 20
2293.071028786799
 30
0.0
 11
1080.18211064624
 21
2168.974117008676
 31
0.0
  0
LINE
  5
912E
  8
0
 10
1080.18211064624
 20
2168.974117008676
 30
0.0
 11
1062.810216882713
 21
2151.74403991717
 31
0.0
  0
LINE
  5
912F
  8
0
 10
1062.810216882713
 20
2151.74403991717
 30
0.0
 11
936.6902681595038
 21
2151.74403991717
 31
0.0
  0
LINE
  5
9130
  8
0
 10
936.6902681595038
 20
2151.74403991717
 30
0.0
 11
919.49769717031
 21
2168.974117008676
 31
0.0
  0
LINE
  5
9131
  8
0
 10
1079.812257424179
 20
2267.522983444221
 30
0.0
 11
920.3158573282053
 21
2267.522983444221
 31
0.0
  0
LINE
  5
9132
  8
0
 10
1079.812257424179
 20
2194.499741951656
 30
0.0
 11
920.3158573282053
 21
2194.499741951656
 31
0.0
  0
LINE
  5
9133
  8
0
 10
2043.829076892595
 20
2327.273348374428
 30
0.0
 11
2043.829076892595
 21
2451.392680552149
 31
0.0
  0
LINE
  5
9134
  8
0
 10
2043.829076892595
 20
2451.392680552149
 30
0.0
 11
2061.044063228582
 21
2468.533076045261
 31
0.0
  0
LINE
  5
9135
  8
0
 10
2061.044063228582
 20
2468.533076045261
 30
0.0
 11
2187.152804278395
 21
2468.533076045261
 31
0.0
  0
LINE
  5
9136
  8
0
 10
2187.152804278395
 20
2468.533076045261
 30
0.0
 11
2204.322959920798
 21
2451.392680552149
 31
0.0
  0
LINE
  5
9137
  8
0
 10
2204.322959920798
 20
2451.392680552149
 30
0.0
 11
2204.322959920798
 21
2327.273348374428
 31
0.0
  0
LINE
  5
9138
  8
0
 10
2204.322959920798
 20
2327.273348374428
 30
0.0
 11
2187.152804278395
 21
2310.233844679509
 31
0.0
  0
LINE
  5
9139
  8
0
 10
2187.152804278395
 20
2310.233844679509
 30
0.0
 11
2061.044063228582
 21
2310.233844679509
 31
0.0
  0
LINE
  5
913A
  8
0
 10
2061.044063228582
 20
2310.233844679509
 30
0.0
 11
2043.829076892595
 21
2327.273348374428
 31
0.0
  0
LINE
  5
913B
  8
0
 10
2204.188467840048
 20
2425.855845409369
 30
0.0
 11
2044.680860070678
 21
2425.855845409369
 31
0.0
  0
LINE
  5
913C
  8
0
 10
2204.188467840048
 20
2352.810183517206
 30
0.0
 11
2044.680860070678
 21
2352.810183517206
 31
0.0
  0
LINE
  5
913D
  8
0
 10
1883.178286436852
 20
2327.273348374428
 30
0.0
 11
1883.178286436852
 21
2451.392680552149
 31
0.0
  0
LINE
  5
913E
  8
0
 10
1883.178286436852
 20
2451.392680552149
 30
0.0
 11
1900.550180200379
 21
2468.533076045261
 31
0.0
  0
LINE
  5
913F
  8
0
 10
1900.550180200379
 20
2468.533076045261
 30
0.0
 11
2026.434767782276
 21
2468.533076045261
 31
0.0
  0
LINE
  5
9140
  8
0
 10
2026.434767782276
 20
2468.533076045261
 30
0.0
 11
2043.829076892595
 21
2451.392680552149
 31
0.0
  0
LINE
  5
9141
  8
0
 10
2043.829076892595
 20
2451.392680552149
 30
0.0
 11
2043.829076892595
 21
2327.273348374428
 31
0.0
  0
LINE
  5
9142
  8
0
 10
2043.829076892595
 20
2327.273348374428
 30
0.0
 11
2026.434767782276
 21
2310.233844679509
 31
0.0
  0
LINE
  5
9143
  8
0
 10
2026.434767782276
 20
2310.233844679509
 30
0.0
 11
1900.550180200379
 21
2310.233844679509
 31
0.0
  0
LINE
  5
9144
  8
0
 10
1900.550180200379
 20
2310.233844679509
 30
0.0
 11
1883.178286436852
 21
2327.273348374428
 31
0.0
  0
LINE
  5
9145
  8
0
 10
2043.515262037513
 20
2425.855845409369
 30
0.0
 11
1884.007654268144
 21
2425.855845409369
 31
0.0
  0
LINE
  5
9146
  8
0
 10
2043.515262037513
 20
2352.810183517206
 30
0.0
 11
1884.007654268144
 21
2352.810183517206
 31
0.0
  0
LINE
  5
9147
  8
0
 10
1722.482665287526
 20
2327.273348374428
 30
0.0
 11
1722.482665287526
 21
2451.392680552149
 31
0.0
  0
LINE
  5
9148
  8
0
 10
1722.482665287526
 20
2451.392680552149
 30
0.0
 11
1739.854559051054
 21
2468.533076045261
 31
0.0
  0
LINE
  5
9149
  8
0
 10
1739.854559051054
 20
2468.533076045261
 30
0.0
 11
1865.985715447658
 21
2468.533076045261
 31
0.0
  0
LINE
  5
914A
  8
0
 10
1865.985715447658
 20
2468.533076045261
 30
0.0
 11
1883.178286436852
 21
2451.392680552149
 31
0.0
  0
LINE
  5
914B
  8
0
 10
1883.178286436852
 20
2451.392680552149
 30
0.0
 11
1883.178286436852
 21
2327.273348374428
 31
0.0
  0
LINE
  5
914C
  8
0
 10
1883.178286436852
 20
2327.273348374428
 30
0.0
 11
1865.985715447658
 21
2310.233844679509
 31
0.0
  0
LINE
  5
914D
  8
0
 10
1865.985715447658
 20
2310.233844679509
 30
0.0
 11
1739.854559051054
 21
2310.233844679509
 31
0.0
  0
LINE
  5
914E
  8
0
 10
1739.854559051054
 20
2310.233844679509
 30
0.0
 11
1722.482665287526
 21
2327.273348374428
 31
0.0
  0
LINE
  5
914F
  8
0
 10
1882.976548315727
 20
2425.855845409369
 30
0.0
 11
1723.334448465609
 21
2425.855845409369
 31
0.0
  0
LINE
  5
9150
  8
0
 10
1882.976548315727
 20
2352.810183517206
 30
0.0
 11
1723.334448465609
 21
2352.810183517206
 31
0.0
  0
LINE
  5
9151
  8
0
 10
1562.022405279512
 20
2327.273348374428
 30
0.0
 11
1562.022405279512
 21
2451.392680552149
 31
0.0
  0
LINE
  5
9152
  8
0
 10
1562.022405279512
 20
2451.392680552149
 30
0.0
 11
1579.181353248518
 21
2468.533076045261
 31
0.0
  0
LINE
  5
9153
  8
0
 10
1579.181353248518
 20
2468.533076045261
 30
0.0
 11
1705.312509645123
 21
2468.533076045261
 31
0.0
  0
LINE
  5
9154
  8
0
 10
1705.312509645123
 20
2468.533076045261
 30
0.0
 11
1722.482665287526
 21
2451.392680552149
 31
0.0
  0
LINE
  5
9155
  8
0
 10
1722.482665287526
 20
2451.392680552149
 30
0.0
 11
1722.482665287526
 21
2327.273348374428
 31
0.0
  0
LINE
  5
9156
  8
0
 10
1722.482665287526
 20
2327.273348374428
 30
0.0
 11
1705.312509645123
 21
2310.233844679509
 31
0.0
  0
LINE
  5
9157
  8
0
 10
1705.312509645123
 20
2310.233844679509
 30
0.0
 11
1579.181353248518
 21
2310.233844679509
 31
0.0
  0
LINE
  5
9158
  8
0
 10
1579.181353248518
 20
2310.233844679509
 30
0.0
 11
1562.022405279512
 21
2327.273348374428
 31
0.0
  0
LINE
  5
9159
  8
0
 10
1722.348173206776
 20
2425.855845409369
 30
0.0
 11
1562.650034989679
 21
2425.855845409369
 31
0.0
  0
LINE
  5
915A
  8
0
 10
1722.348173206776
 20
2352.810183517206
 30
0.0
 11
1562.650034989679
 21
2352.810183517206
 31
0.0
  0
LINE
  5
915B
  8
0
 10
1401.349199476977
 20
2327.273348374428
 30
0.0
 11
1401.349199476977
 21
2451.392680552149
 31
0.0
  0
LINE
  5
915C
  8
0
 10
1401.349199476977
 20
2451.392680552149
 30
0.0
 11
1418.653847200129
 21
2468.533076045261
 31
0.0
  0
LINE
  5
915D
  8
0
 10
1418.653847200129
 20
2468.533076045261
 30
0.0
 11
1544.628096169193
 21
2468.533076045261
 31
0.0
  0
LINE
  5
915E
  8
0
 10
1544.628096169193
 20
2468.533076045261
 30
0.0
 11
1562.022405279512
 21
2451.392680552149
 31
0.0
  0
LINE
  5
915F
  8
0
 10
1562.022405279512
 20
2451.392680552149
 30
0.0
 11
1562.022405279512
 21
2327.273348374428
 31
0.0
  0
LINE
  5
9160
  8
0
 10
1562.022405279512
 20
2327.273348374428
 30
0.0
 11
1544.628096169193
 21
2310.233844679509
 31
0.0
  0
LINE
  5
9161
  8
0
 10
1544.628096169193
 20
2310.233844679509
 30
0.0
 11
1418.653847200129
 21
2310.233844679509
 31
0.0
  0
LINE
  5
9162
  8
0
 10
1418.653847200129
 20
2310.233844679509
 30
0.0
 11
1401.349199476977
 21
2327.273348374428
 31
0.0
  0
LINE
  5
9163
  8
0
 10
1561.641344384054
 20
2425.855845409369
 30
0.0
 11
1402.178567308268
 21
2425.855845409369
 31
0.0
  0
LINE
  5
9164
  8
0
 10
1561.641344384054
 20
2352.810183517206
 30
0.0
 11
1402.178567308268
 21
2352.810183517206
 31
0.0
  0
LINE
  5
9165
  8
0
 10
1240.642370654255
 20
2327.273348374428
 30
0.0
 11
1240.642370654255
 21
2451.392680552149
 31
0.0
  0
LINE
  5
9166
  8
0
 10
1240.642370654255
 20
2451.392680552149
 30
0.0
 11
1258.014264417782
 21
2468.533076045261
 31
0.0
  0
LINE
  5
9167
  8
0
 10
1258.014264417782
 20
2468.533076045261
 30
0.0
 11
1383.954890366657
 21
2468.533076045261
 31
0.0
  0
LINE
  5
9168
  8
0
 10
1383.954890366657
 20
2468.533076045261
 30
0.0
 11
1401.349199476977
 21
2451.392680552149
 31
0.0
  0
LINE
  5
9169
  8
0
 10
1401.349199476977
 20
2451.392680552149
 30
0.0
 11
1401.349199476977
 21
2327.273348374428
 31
0.0
  0
LINE
  5
916A
  8
0
 10
1401.349199476977
 20
2327.273348374428
 30
0.0
 11
1383.954890366657
 21
2310.233844679509
 31
0.0
  0
LINE
  5
916B
  8
0
 10
1383.954890366657
 20
2310.233844679509
 30
0.0
 11
1258.014264417782
 21
2310.233844679509
 31
0.0
  0
LINE
  5
916C
  8
0
 10
1258.014264417782
 20
2310.233844679509
 30
0.0
 11
1240.642370654255
 21
2327.273348374428
 31
0.0
  0
LINE
  5
916D
  8
0
 10
1401.158669029248
 20
2425.855845409369
 30
0.0
 11
1241.505361505733
 21
2425.855845409369
 31
0.0
  0
LINE
  5
916E
  8
0
 10
1401.158669029248
 20
2352.810183517206
 30
0.0
 11
1241.505361505733
 21
2352.810183517206
 31
0.0
  0
LINE
  5
916F
  8
0
 10
1080.18211064624
 20
2327.273348374428
 30
0.0
 11
1080.18211064624
 21
2451.392680552149
 31
0.0
  0
LINE
  5
9170
  8
0
 10
1080.18211064624
 20
2451.392680552149
 30
0.0
 11
1097.363473962039
 21
2468.533076045261
 31
0.0
  0
LINE
  5
9171
  8
0
 10
1097.363473962039
 20
2468.533076045261
 30
0.0
 11
1223.483422685248
 21
2468.533076045261
 31
0.0
  0
LINE
  5
9172
  8
0
 10
1223.483422685248
 20
2468.533076045261
 30
0.0
 11
1240.642370654255
 21
2451.392680552149
 31
0.0
  0
LINE
  5
9173
  8
0
 10
1240.642370654255
 20
2451.392680552149
 30
0.0
 11
1240.642370654255
 21
2327.273348374428
 31
0.0
  0
LINE
  5
9174
  8
0
 10
1240.642370654255
 20
2327.273348374428
 30
0.0
 11
1223.483422685248
 21
2310.233844679509
 31
0.0
  0
LINE
  5
9175
  8
0
 10
1223.483422685248
 20
2310.233844679509
 30
0.0
 11
1097.363473962039
 21
2310.233844679509
 31
0.0
  0
LINE
  5
9176
  8
0
 10
1097.363473962039
 20
2310.233844679509
 30
0.0
 11
1080.18211064624
 21
2327.273348374428
 31
0.0
  0
LINE
  5
9177
  8
0
 10
1240.496670900109
 20
2425.855845409369
 30
0.0
 11
1080.820948029803
 21
2425.855845409369
 31
0.0
  0
LINE
  5
9178
  8
0
 10
1240.496670900109
 20
2352.810183517206
 30
0.0
 11
1080.820948029803
 21
2352.810183517206
 31
0.0
  0
LINE
  5
9179
  8
0
 10
919.49769717031
 20
2327.273348374428
 30
0.0
 11
919.49769717031
 21
2451.392680552149
 31
0.0
  0
LINE
  5
917A
  8
0
 10
919.49769717031
 20
2451.392680552149
 30
0.0
 11
936.6902681595038
 21
2468.533076045261
 31
0.0
  0
LINE
  5
917B
  8
0
 10
936.6902681595038
 20
2468.533076045261
 30
0.0
 11
1062.810216882713
 21
2468.533076045261
 31
0.0
  0
LINE
  5
917C
  8
0
 10
1062.810216882713
 20
2468.533076045261
 30
0.0
 11
1080.18211064624
 21
2451.392680552149
 31
0.0
  0
LINE
  5
917D
  8
0
 10
1080.18211064624
 20
2451.392680552149
 30
0.0
 11
1080.18211064624
 21
2327.273348374428
 31
0.0
  0
LINE
  5
917E
  8
0
 10
1080.18211064624
 20
2327.273348374428
 30
0.0
 11
1062.810216882713
 21
2310.233844679509
 31
0.0
  0
LINE
  5
917F
  8
0
 10
1062.810216882713
 20
2310.233844679509
 30
0.0
 11
936.6902681595038
 21
2310.233844679509
 31
0.0
  0
LINE
  5
9180
  8
0
 10
936.6902681595038
 20
2310.233844679509
 30
0.0
 11
919.49769717031
 21
2327.273348374428
 31
0.0
  0
LINE
  5
9181
  8
0
 10
1079.812257424179
 20
2425.855845409369
 30
0.0
 11
920.3158573282053
 21
2425.855845409369
 31
0.0
  0
LINE
  5
9182
  8
0
 10
1079.812257424179
 20
2352.810183517206
 30
0.0
 11
920.3158573282053
 21
2352.810183517206
 31
0.0
  0
LINE
  5
94AE
  8
0
 10
2520.999977933803
 20
2485.013757552422
 30
0.0
 11
2520.999977933803
 21
2685.428757552422
 31
0.0
  0
LINE
  5
94AF
  8
0
 10
2566.999998068363
 20
2485.013757552422
 30
0.0
 11
2566.999998068363
 21
2685.428757552422
 31
0.0
  0
LINE
  5
94B0
  8
0
 10
2450.999977933803
 20
2685.068757552422
 30
0.0
 11
2380.999977933803
 21
2685.068757552422
 31
0.0
  0
LINE
  5
94B1
  8
0
 10
2636.999998068363
 20
2685.068757552422
 30
0.0
 11
2839.670452613818
 21
2685.068757552422
 31
0.0
  0
LINE
  5
94B2
  8
0
 10
2520.999977933803
 20
2685.068757552422
 30
0.0
 11
2566.999998068363
 21
2685.068757552422
 31
0.0
  0
LINE
  5
94B6
  8
0
 10
2220.999977933803
 20
2485.013757552422
 30
0.0
 11
2220.999977933803
 21
2685.248757552422
 31
0.0
  0
LINE
  5
94B7
  8
0
 10
903.0000019316365
 20
2485.013757552422
 30
0.0
 11
903.0000019316365
 21
2685.248757552422
 31
0.0
  0
LINE
  5
94B8
  8
0
 10
2150.999977933803
 20
2684.888757552422
 30
0.0
 11
973.0000019316365
 21
2684.888757552422
 31
0.0
  0
LINE
  5
94BC
  8
0
 10
2221.124977933803
 20
1501.888757552422
 30
0.0
 11
2367.516161321721
 21
1501.888757552422
 31
0.0
  0
LINE
  5
94BD
  8
0
 10
2221.124977933803
 20
2484.888757552422
 30
0.0
 11
2367.516161321721
 21
2484.888757552422
 31
0.0
  0
LINE
  5
94BE
  8
0
 10
2367.156161321721
 20
1571.888757552422
 30
0.0
 11
2367.156161321721
 21
2414.888757552422
 31
0.0
  0
LINE
  5
94E3
  8
0
 10
3355.0
 20
2543.388757552422
 30
0.0
 11
5455.0
 21
2543.388757552422
 31
0.0
  0
LINE
  5
94E4
  8
0
 10
3355.0
 20
2443.388757552422
 30
0.0
 11
5455.0
 21
2443.388757552422
 31
0.0
  0
LINE
  5
94E5
  8
0
 10
3355.0
 20
2343.388757552422
 30
0.0
 11
5455.0
 21
2343.388757552422
 31
0.0
  0
LINE
  5
94E6
  8
0
 10
3355.0
 20
2243.388757552422
 30
0.0
 11
5455.0
 21
2243.388757552422
 31
0.0
  0
LINE
  5
94E7
  8
0
 10
3355.0
 20
2143.388757552422
 30
0.0
 11
5455.0
 21
2143.388757552422
 31
0.0
  0
LINE
  5
94E8
  8
0
 10
3355.0
 20
2043.388757552422
 30
0.0
 11
5455.0
 21
2043.388757552422
 31
0.0
  0
LINE
  5
94E9
  8
0
 10
3355.0
 20
1943.388757552422
 30
0.0
 11
5455.0
 21
1943.388757552422
 31
0.0
  0
LINE
  5
94EA
  8
0
 10
3355.0
 20
1843.388757552422
 30
0.0
 11
5455.0
 21
1843.388757552422
 31
0.0
  0
LINE
  5
94EB
  8
0
 10
3355.0
 20
1743.388757552422
 30
0.0
 11
5455.0
 21
1743.388757552422
 31
0.0
  0
LINE
  5
94EC
  8
0
 10
3355.0
 20
1643.388757552422
 30
0.0
 11
5455.0
 21
1643.388757552422
 31
0.0
  0
LINE
  5
94ED
  8
0
 10
3355.0
 20
1543.388757552422
 30
0.0
 11
5455.0
 21
1543.388757552422
 31
0.0
  0
LINE
  5
94EE
  8
0
 10
3355.0
 20
1443.388757552422
 30
0.0
 11
5455.0
 21
1443.388757552422
 31
0.0
  0
LINE
  5
94EF
  8
0
 10
3355.0
 20
2543.388757552422
 30
0.0
 11
3355.0
 21
1443.388757552422
 31
0.0
  0
LINE
  5
94F0
  8
0
 10
4055.0
 20
2543.388757552422
 30
0.0
 11
4055.0
 21
1443.388757552422
 31
0.0
  0
LINE
  5
94F1
  8
0
 10
4755.0
 20
2543.388757552422
 30
0.0
 11
4755.0
 21
1443.388757552422
 31
0.0
  0
LINE
  5
94F2
  8
0
 10
5455.0
 20
2543.388757552422
 30
0.0
 11
5455.0
 21
1443.388757552422
 31
0.0
  0
LINE
  5
94F3
  8
0
 62
     8
 10
3355.0
 20
2543.388757552422
 30
0.0
 11
3355.0
 21
2543.388757552422
 31
0.0
  0
LINE
  5
94F4
  8
図面枠
 10
5740.0
 20
200.0
 30
0.0
 11
5740.0
 21
4000.0
 31
0.0
  0
LINE
  5
94F5
  8
図面枠
 10
5740.0
 20
4000.0
 30
0.0
 11
400.0
 21
4000.0
 31
0.0
  0
LINE
  5
94F6
  8
図面枠
 10
400.0
 20
4000.0
 30
0.0
 11
400.0
 21
200.0
 31
0.0
  0
LINE
  5
94F7
  8
図面枠
 10
400.0
 20
200.0
 30
0.0
 11
5740.0
 21
200.0
 31
0.0
  0
LINE
  5
94F8
  8
用紙枠
 10
0.0
 20
0.0
 30
0.0
 11
5940.0
 21
0.0
 31
0.0
  0
LINE
  5
94F9
  8
用紙枠
 10
5940.0
 20
0.0
 30
0.0
 11
5940.0
 21
4200.0
 31
0.0
  0
LINE
  5
94FA
  8
用紙枠
 10
5940.0
 20
4200.0
 30
0.0
 11
0.0
 21
4200.0
 31
0.0
  0
LINE
  5
94FB
  8
用紙枠
 10
0.0
 20
4200.0
 30
0.0
 11
0.0
 21
0.0
 31
0.0
  0
TEXT
  5
94FC
  8
0
 10
2723.420452613818
 20
2705.068757552422
 30
0.0
 40
70.0
  1
46
  0
LINE
  5
94FD
  8
0
 10
2636.999998068363
 20
2673.402090885756
 30
0.0
 11
2566.999998068363
 21
2685.068757552422
 31
0.0
  0
LINE
  5
94FE
  8
0
 10
2636.999998068363
 20
2696.735424219089
 30
0.0
 11
2566.999998068363
 21
2685.068757552422
 31
0.0
  0
LINE
  5
94FF
  8
0
 10
2566.999998068363
 20
2685.068757552422
 30
0.0
 11
2636.999998068363
 21
2685.068757552422
 31
0.0
  0
LINE
  5
9500
  8
0
 10
2450.999977933803
 20
2696.735424219089
 30
0.0
 11
2520.999977933803
 21
2685.068757552422
 31
0.0
  0
LINE
  5
9501
  8
0
 10
2450.999977933803
 20
2673.402090885756
 30
0.0
 11
2520.999977933803
 21
2685.068757552422
 31
0.0
  0
LINE
  5
9502
  8
0
 10
2520.999977933803
 20
2685.068757552422
 30
0.0
 11
2450.999977933803
 21
2685.068757552422
 31
0.0
  0
TEXT
  5
9503
  8
0
 10
1457.198853569084
 20
2704.888757552422
 30
0.0
 40
70.0
  1
1318
  0
LINE
  5
9504
  8
0
 10
973.0000019316365
 20
2673.222090885756
 30
0.0
 11
903.0000019316365
 21
2684.888757552422
 31
0.0
  0
LINE
  5
9505
  8
0
 10
973.0000019316365
 20
2696.555424219089
 30
0.0
 11
903.0000019316365
 21
2684.888757552422
 31
0.0
  0
LINE
  5
9506
  8
0
 10
903.0000019316365
 20
2684.888757552422
 30
0.0
 11
973.0000019316365
 21
2684.888757552422
 31
0.0
  0
LINE
  5
9507
  8
0
 10
2150.999977933803
 20
2696.555424219089
 30
0.0
 11
2220.999977933803
 21
2684.888757552422
 31
0.0
  0
LINE
  5
9508
  8
0
 10
2150.999977933803
 20
2673.222090885756
 30
0.0
 11
2220.999977933803
 21
2684.888757552422
 31
0.0
  0
LINE
  5
9509
  8
0
 10
2220.999977933803
 20
2684.888757552422
 30
0.0
 11
2150.999977933803
 21
2684.888757552422
 31
0.0
  0
TEXT
  5
950A
  8
0
 10
2347.15616132172
 20
1916.826257552422
 30
0.0
 40
70.0
  1
983
 50
90.0
  0
LINE
  5
950B
  8
0
 10
2355.489494655054
 20
2414.888757552422
 30
0.0
 11
2367.156161321721
 21
2484.888757552422
 31
0.0
  0
LINE
  5
950C
  8
0
 10
2378.822827988387
 20
2414.888757552422
 30
0.0
 11
2367.156161321721
 21
2484.888757552422
 31
0.0
  0
LINE
  5
950D
  8
0
 10
2367.156161321721
 20
2484.888757552422
 30
0.0
 11
2367.156161321721
 21
2414.888757552422
 31
0.0
  0
LINE
  5
950E
  8
0
 10
2378.822827988387
 20
1571.888757552422
 30
0.0
 11
2367.156161321721
 21
1501.888757552422
 31
0.0
  0
LINE
  5
950F
  8
0
 10
2355.489494655054
 20
1571.888757552422
 30
0.0
 11
2367.156161321721
 21
1501.888757552422
 31
0.0
  0
LINE
  5
9510
  8
0
 10
2367.156161321721
 20
1501.888757552422
 30
0.0
 11
2367.156161321721
 21
1571.888757552422
 31
0.0
  0
TEXT
  5
9511
  8
0
 10
5024.65909090909
 20
1473.729666643331
 30
0.0
 40
40.0
  1
15.7㎏
  0
TEXT
  5
9512
  8
0
 10
4324.65909090909
 20
1473.729666643331
 30
0.0
 40
40.0
  1
15.7㎏
  0
TEXT
  5
9513
  8
0
 10
3358.0
 20
1473.047848461513
 30
0.0
 40
40.0
  1
  質量
  0
TEXT
  5
9514
  8
0
 10
4886.022727272727
 20
1576.116030279695
 30
0.0
 40
40.0
  1
1,318x983x46ｍｍ
  0
TEXT
  5
9515
  8
0
 10
4186.022727272727
 20
1576.116030279695
 30
0.0
 40
40.0
  1
1,318x983x46ｍｍ
  0
TEXT
  5
9516
  8
0
 10
3358.0
 20
1573.047848461513
 30
0.0
 40
40.0
  1
  外形寸法（WxHxD）
  0
TEXT
  5
9517
  8
0
 10
5041.818181818182
 20
1673.388757552422
 30
0.0
 40
40.0
  1
600V
  0
TEXT
  5
9518
  8
0
 10
4341.818181818182
 20
1673.388757552422
 30
0.0
 40
40.0
  1
600V
  0
TEXT
  5
9519
  8
0
 10
3358.0
 20
1672.934212097877
 30
0.0
 40
40.0
  1
  最大システム電圧
  0
TEXT
  5
951A
  8
0
 10
5036.022727272727
 20
1773.388757552422
 30
0.0
 40
40.0
  1
8.80A
  0
TEXT
  5
951B
  8
0
 10
4336.022727272727
 20
1773.388757552422
 30
0.0
 40
40.0
  1
8.80A
  0
TEXT
  5
951C
  8
0
 10
3358.0
 20
1772.252393916059
 30
0.0
 40
40.0
  1
  公称短絡電流
  0
TEXT
  5
951D
  8
0
 10
5036.022727272728
 20
1873.388757552422
 30
0.0
 40
40.0
  1
29.5V
  0
TEXT
  5
951E
  8
0
 10
4336.022727272728
 20
1873.388757552422
 30
0.0
 40
40.0
  1
29.5V
  0
TEXT
  5
951F
  8
0
 10
3358.0
 20
1872.479666643331
 30
0.0
 40
40.0
  1
  公称開放電圧
  0
TEXT
  5
9520
  8
0
 10
5036.022727272727
 20
1973.388757552422
 30
0.0
 40
40.0
  1
8.29A
  0
TEXT
  5
9521
  8
0
 10
4336.022727272727
 20
1973.388757552422
 30
0.0
 40
40.0
  1
8.29A
  0
TEXT
  5
9522
  8
0
 10
3358.0
 20
1972.593303006968
 30
0.0
 40
40.0
  1
  公称最大出力動作電流
  0
TEXT
  5
9523
  8
0
 10
5036.022727272728
 20
2073.388757552422
 30
0.0
 40
40.0
  1
24.1V
  0
TEXT
  5
9524
  8
0
 10
4336.022727272728
 20
2073.388757552422
 30
0.0
 40
40.0
  1
24.1V
  0
TEXT
  5
9525
  8
0
 10
3358.0
 20
2072.593303006968
 30
0.0
 40
40.0
  1
  公称最大出力動作電圧
  0
TEXT
  5
9526
  8
0
 10
5038.522727272728
 20
2173.388757552422
 30
0.0
 40
40.0
  1
200W
  0
TEXT
  5
9527
  8
0
 10
4338.522727272728
 20
2173.388757552422
 30
0.0
 40
40.0
  1
200W
  0
TEXT
  5
9528
  8
0
 10
3358.0
 20
2172.479666643331
 30
0.0
 40
40.0
  1
  公称最大出力
  0
TEXT
  5
9529
  8
0
 10
5038.75
 20
2273.388757552422
 30
0.0
 40
40.0
  1
15.4%%%
  0
TEXT
  5
952A
  8
0
 10
4338.75
 20
2273.388757552422
 30
0.0
 40
40.0
  1
15.4%%%
  0
TEXT
  5
952B
  8
0
 10
3358.0
 20
2272.252393916059
 30
0.0
 40
40.0
  1
  最大モジュール変換効率
  0
TEXT
  5
952C
  8
0
 10
4893.068181818182
 20
2372.252393916058
 30
0.0
 40
40.0
  1
シリコン単結晶系
  0
TEXT
  5
952D
  8
0
 10
4193.068181818182
 20
2372.252393916058
 30
0.0
 40
40.0
  1
シリコン単結晶系
  0
TEXT
  5
952E
  8
0
 10
3358.0
 20
2372.934212097877
 30
0.0
 40
40.0
  1
  セル種類
  0
TEXT
  5
952F
  8
0
 10
4879.65909090909
 20
2473.388757552422
 30
0.0
 40
40.0
  1
LPV-200V-BLK-J
  0
TEXT
  5
9530
  8
0
 10
4181.590909090909
 20
2473.388757552422
 30
0.0
 40
40.0
  1
LPV-200E-BLK-J
  0
TEXT
  5
9531
  8
0
 10
3358.0
 20
2471.911484825149
 30
0.0
 40
40.0
  1
  型式
  0
VIEWPORT
  5
2C13
 67
     1
  8
0
  6
CONTINUOUS
 10
145.330337524414
 20
103.4700949029312
 30
0.0
 40
366.1848134449208
 41
225.4710986155243
 68
     1
 69
     1
1001
ACAD
1000
MVIEW
1002
{
1070
    16
1010
0.0
1020
0.0
1030
0.0
1020
0.0
1030
0.0
1010
0.0
1020
0.0
1030
1.0
1020
0.0
1030
1.0
1040
0.0
1040
225.4710986155243
1040
145.330337524414
1040
103.4700949029312
1040
50.0
1040
0.0
1040
0.0
1070
     0
1070
   100
1070
     0
1070
     1
1070
     0
1070
     0
1070
     0
1070
     0
1040
0.0
1040
0.0
1040
0.0
1040
10.0
1040
10.0
1040
10.0
1040
10.0
1070
     0
1002
{
1002
}
1002
}
  0
VIEWPORT
  5
2C17
 67
     1
  8
0
  6
CONTINUOUS
 10
145.3303314447403
 20
101.8328338861465
 30
0.0
 40
232.5285303115845
 41
162.9325342178345
 68
     2
 69
     2
1001
ACAD
1000
MVIEW
1002
{
1070
    16
1010
0.0
1020
0.0
1030
0.0
1020
0.0
1030
0.0
1010
0.0
1020
0.0
1030
1.0
1020
0.0
1030
1.0
1040
0.0
1040
8205.767713711226
1040
5809.965151642898
1040
1137.040193552135
1040
50.0
1040
0.0
1040
0.0
1070
     0
1070
   100
1070
     0
1070
     1
1070
     0
1070
     0
1070
     0
1070
     0
1040
0.0
1040
0.0
1040
0.0
1040
10.0
1040
10.0
1040
10.0
1040
10.0
1070
     0
1002
{
1002
}
1002
}
  0
ENDSEC
  0
EOF
