  0
SECTION
  2
HEADER
  9
$ACADVER
  1
AC1009
  9
$DWGCODEPAGE
  3
ansi_932
  9
$INSBASE
 10
0.0
 20
0.0
 30
0.0
  9
$EXTMIN
 10
0.0
 20
0.0
 30
0.0
  9
$EXTMAX
 10
5940.0
 20
4200.0
 30
0.0
  9
$LIMMIN
 10
109.6511881510417
 20
82.19722222222221
  9
$LIMMAX
 10
147.8903700086805
 20
96.5028089735243
  9
$ORTHOMODE
 70
     0
  9
$REGENMODE
 70
     1
  9
$FILLMODE
 70
     1
  9
$QTEXTMODE
 70
     0
  9
$MIRRTEXT
 70
     1
  9
$DRAGMODE
 70
     2
  9
$LTSCALE
 40
1.0
  9
$OSMODE
 70
   511
  9
$ATTMODE
 70
     1
  9
$TEXTSIZE
 40
0.0
  9
$TRACEWID
 40
0.05
  9
$TEXTSTYLE
  7
STANDARD
  9
$CLAYER
  8
0
  9
$CELTYPE
  6
BYLAYER
  9
$CECOLOR
 62
   256
  9
$DIMSCALE
 40
2.0
  9
$DIMASZ
 40
35.0
  9
$DIMEXO
 40
0.0625
  9
$DIMDLI
 40
10.0
  9
$DIMRND
 40
0.0
  9
$DIMDLE
 40
0.0
  9
$DIMEXE
 40
0.18
  9
$DIMTP
 40
0.0
  9
$DIMTM
 40
0.0
  9
$DIMTXT
 40
35.0
  9
$DIMCEN
 40
0.09
  9
$DIMTSZ
 40
0.0
  9
$DIMTOL
 70
     0
  9
$DIMLIM
 70
     0
  9
$DIMTIH
 70
     0
  9
$DIMTOH
 70
     0
  9
$DIMSE1
 70
     0
  9
$DIMSE2
 70
     0
  9
$DIMTAD
 70
     3
  9
$DIMZIN
 70
     0
  9
$DIMBLK
  1
OPEN
  9
$DIMASO
 70
     1
  9
$DIMSHO
 70
     1
  9
$DIMPOST
  1

  9
$DIMAPOST
  1

  9
$DIMALT
 70
     0
  9
$DIMALTD
 70
     2
  9
$DIMALTF
 40
25.4
  9
$DIMLFAC
 40
1.0
  9
$DIMTOFL
 70
     1
  9
$DIMTVP
 40
0.0
  9
$DIMTIX
 70
     0
  9
$DIMSOXD
 70
     0
  9
$DIMSAH
 70
     0
  9
$DIMBLK1
  1

  9
$DIMBLK2
  1

  9
$DIMSTYLE
  2
STANDARD
  9
$DIMCLRD
 70
     0
  9
$DIMCLRE
 70
     0
  9
$DIMCLRT
 70
     0
  9
$DIMTFAC
 40
1.0
  9
$DIMGAP
 40
10.0
  9
$LUNITS
 70
     2
  9
$LUPREC
 70
     4
  9
$SKETCHINC
 40
0.1
  9
$FILLETRAD
 40
100.0
  9
$AUNITS
 70
     0
  9
$AUPREC
 70
     0
  9
$MENU
  1
acad
  9
$ELEVATION
 40
0.0
  9
$PELEVATION
 40
0.0
  9
$THICKNESS
 40
0.0
  9
$LIMCHECK
 70
     0
  9
$CHAMFERA
 40
0.0
  9
$CHAMFERB
 40
0.0
  9
$SKPOLY
 70
     0
  9
$TDCREATE
 40
2456743.597399803
  9
$TDUPDATE
 40
2456794.692544884
  9
$TDINDWG
 40
0.662914294
  9
$TDUSRTIMER
 40
2456794.314001875
  9
$USRTIMER
 70
     1
  9
$ANGBASE
 50
0.0
  9
$ANGDIR
 70
     0
  9
$PDMODE
 70
     1
  9
$PDSIZE
 40
0.0
  9
$PLINEWID
 40
0.0
  9
$COORDS
 70
     1
  9
$SPLFRAME
 70
     0
  9
$SPLINETYPE
 70
     6
  9
$SPLINESEGS
 70
     8
  9
$ATTDIA
 70
     0
  9
$ATTREQ
 70
     1
  9
$HANDLING
 70
     1
  9
$HANDSEED
  5
9D48
  9
$SURFTAB1
 70
     6
  9
$SURFTAB2
 70
     6
  9
$SURFTYPE
 70
     6
  9
$SURFU
 70
     6
  9
$SURFV
 70
     6
  9
$UCSNAME
  2

  9
$UCSORG
 10
0.0
 20
0.0
 30
0.0
  9
$UCSXDIR
 10
1.0
 20
0.0
 30
0.0
  9
$UCSYDIR
 10
0.0
 20
1.0
 30
0.0
  9
$PUCSNAME
  2

  9
$PUCSORG
 10
0.0
 20
0.0
 30
0.0
  9
$PUCSXDIR
 10
1.0
 20
0.0
 30
0.0
  9
$PUCSYDIR
 10
0.0
 20
1.0
 30
0.0
  9
$USERI1
 70
     0
  9
$USERI2
 70
     0
  9
$USERI3
 70
     0
  9
$USERI4
 70
     0
  9
$USERI5
 70
     0
  9
$USERR1
 40
0.0
  9
$USERR2
 40
0.0
  9
$USERR3
 40
0.0
  9
$USERR4
 40
0.0
  9
$USERR5
 40
0.0
  9
$WORLDVIEW
 70
     1
  9
$SHADEDGE
 70
     3
  9
$SHADEDIF
 70
    70
  9
$TILEMODE
 70
     1
  9
$MAXACTVP
 70
    16
  9
$PLIMCHECK
 70
     0
  9
$PEXTMIN
 10
29.06606628894805
 20
20.36656677722931
 30
0.0
  9
$PEXTMAX
 10
261.5945966005326
 20
183.2991009950638
 30
0.0
  9
$PLIMMIN
 10
-0.0000000000000231
 20
0.0000000000000053
  9
$PLIMMAX
 10
420.0
 20
297.0
  9
$UNITMODE
 70
     0
  9
$VISRETAIN
 70
     0
  9
$PLINEGEN
 70
     1
  9
$PSLTSCALE
 70
     0
  0
ENDSEC
  0
SECTION
  2
TABLES
  0
TABLE
  2
VPORT
 70
     1
  0
VPORT
  2
*ACTIVE
 70
     0
 10
0.0
 20
0.0
 11
1.0
 21
1.0
 12
3367.539021693075
 22
2014.18250265726
 13
0.0
 23
0.0
 14
1.0
 24
1.0
 15
0.0
 25
0.0
 16
0.0
 26
0.0
 36
1.0
 17
0.0
 27
0.0
 37
0.0
 40
5104.896236435015
 41
1.624087591240876
 42
50.0
 43
0.0
 44
0.0
 50
0.0
 51
0.0
 71
     0
 72
   100
 73
     1
 74
     1
 75
     0
 76
     0
 77
     0
 78
     0
  0
ENDTAB
  0
TABLE
  2
LTYPE
 70
     1
  0
LTYPE
  2
CONTINUOUS
 70
     0
  3
Solid line
 72
    65
 73
     0
 40
0.0
  0
ENDTAB
  0
TABLE
  2
LAYER
 70
     4
  0
LAYER
  2
0
 70
     0
 62
     7
  6
CONTINUOUS
  0
LAYER
  2
DEFPOINTS
 70
     0
 62
     7
  6
CONTINUOUS
  0
LAYER
  2
用紙枠
 70
     4
 62
     7
  6
CONTINUOUS
  0
LAYER
  2
図面枠
 70
     0
 62
     7
  6
CONTINUOUS
  0
ENDTAB
  0
TABLE
  2
STYLE
 70
     1
  0
STYLE
  2
STANDARD
 70
     0
 40
0.0
 41
1.0
 50
0.0
 71
     0
 42
0.0
  3

  4

  0
ENDTAB
  0
TABLE
  2
VIEW
 70
     0
  0
ENDTAB
  0
TABLE
  2
UCS
 70
     0
  0
ENDTAB
  0
TABLE
  2
APPID
 70
    20
  0
APPID
  2
ACAD
 70
     0
  0
APPID
  2
ACAD_EXEMPT_FROM_CAD_STAND
 70
     0
  0
APPID
  2
ACAD_DSTYLE_DIMJAG
 70
     0
  0
APPID
  2
ACAD_DSTYLE_DIMTALN
 70
     0
  0
APPID
  2
ACAD_NAV_VCDISPLAY
 70
     0
  0
APPID
  2
ACAD_PSEXT
 70
     0
  0
APPID
  2
ACADANNOTATIVE
 70
     0
  0
APPID
  2
ACAECLAYERSTANDARD
 70
     0
  0
APPID
  2
ACCMTRANSPARENCY
 70
     0
  0
APPID
  2
ACADANNOAV
 70
     0
  0
APPID
  2
ACADANNOPO
 70
     0
  0
APPID
  2
ACAD_MLEADERVER
 70
     0
  0
APPID
  2
ACADSTRINGINFO
 70
     0
  0
APPID
  2
ACAD_DSTYLE_DIMBREAK
 70
     0
  0
APPID
  2
PLOTTRANSPARENCY
 70
     0
  0
APPID
  2
ACDBDYNAMICBLOCKGUID
 70
     0
  0
APPID
  2
ACAUTHENVIRON
 70
     0
  0
APPID
  2
ACLAYERTOOLS
 70
     0
  0
APPID
  2
ACDBDYNAMICBLOCKTRUENAME
 70
     0
  0
APPID
  2
ACADANNOMONITORALERTICONDI
 70
     0
  0
ENDTAB
  0
TABLE
  2
DIMSTYLE
 70
     1
  0
DIMSTYLE
  2
STANDARD
 70
     0
  3

  4

  5
OPEN
  6

  7

 40
2.0
 41
35.0
 42
0.0625
 43
10.0
 44
0.18
 45
0.0
 46
0.0
 47
0.0
 48
0.0
140
35.0
141
0.09
142
0.0
143
25.4
144
1.0
145
0.0
146
1.0
147
10.0
 71
     0
 72
     0
 73
     0
 74
     0
 75
     0
 76
     0
 77
     3
 78
     0
170
     0
171
     2
172
     1
173
     0
174
     0
175
     0
176
     0
177
     0
178
     0
  0
ENDTAB
  0
ENDSEC
  0
SECTION
  2
BLOCKS
  0
BLOCK
  8
0
  2
$MODEL_SPACE
 70
     0
 10
0.0
 20
0.0
 30
0.0
  3
$MODEL_SPACE
  1

  0
ENDBLK
  5
E
  8
0
  0
BLOCK
 67
     1
  8
0
  2
$PAPER_SPACE
 70
     0
 10
0.0
 20
0.0
 30
0.0
  3
$PAPER_SPACE
  1

  0
ENDBLK
  5
10
 67
     1
  8
0
  0
BLOCK
  8
0
  2
_OPEN
 70
     0
 10
0.0
 20
0.0
 30
0.0
  3
_OPEN
  1

  0
LINE
  5
AB0
  8
0
  6
BYBLOCK
 62
     0
 10
-1.0
 20
0.1666666666666667
 30
0.0
 11
0.0
 21
0.0
 31
0.0
  0
LINE
  5
AB1
  8
0
  6
BYBLOCK
 62
     0
 10
-1.0
 20
-0.1666666666666667
 30
0.0
 11
0.0
 21
0.0
 31
0.0
  0
LINE
  5
AB2
  8
0
  6
BYBLOCK
 62
     0
 10
0.0
 20
0.0
 30
0.0
 11
-1.0
 21
0.0
 31
0.0
  0
ENDBLK
  5
AB4
  8
0
  0
BLOCK
  8
0
  2
_CLOSED
 70
     0
 10
0.0
 20
0.0
 30
0.0
  3
_CLOSED
  1

  0
LINE
  5
AB6
  8
0
  6
BYBLOCK
 62
     0
 10
-1.0
 20
0.1666666666666667
 30
0.0
 11
0.0
 21
0.0
 31
0.0
  0
LINE
  5
AB7
  8
0
  6
BYBLOCK
 62
     0
 10
0.0
 20
0.0
 30
0.0
 11
-1.0
 21
-0.1666666666666667
 31
0.0
  0
LINE
  5
AB8
  8
0
  6
BYBLOCK
 62
     0
 10
-1.0
 20
0.1666666666666667
 30
0.0
 11
-1.0
 21
-0.1666666666666667
 31
0.0
  0
LINE
  5
AB9
  8
0
  6
BYBLOCK
 62
     0
 10
0.0
 20
0.0
 30
0.0
 11
-1.0
 21
0.0
 31
0.0
  0
ENDBLK
  5
ABB
  8
0
  0
ENDSEC
  0
SECTION
  2
ENTITIES
  0
LINE
  5
FCA
  8
図面枠
 10
5740.0
 20
3786.777515104844
 30
0.0
 11
400.0
 21
3786.777515104844
 31
0.0
  0
TEXT
  5
1230
  8
図面枠
 10
500.0
 20
3836.777515104844
 30
0.0
 40
100.0
  1
太陽電池モジュール　LPV-175V-BLK-J
 11
500.0
 21
3886.777515104844
 31
0.0
 73
     2
  0
LINE
  5
92BE
  8
0
 10
2450.438129623942
 20
2484.888757552419
 30
0.0
 11
2450.438129623942
 21
2484.888757552419
 31
0.0
  0
LINE
  5
92BF
  8
0
 10
2450.438129623942
 20
1501.888757552419
 30
0.0
 11
2450.438129623942
 21
1501.888757552419
 31
0.0
  0
LINE
  5
92C0
  8
0
 10
2461.97525755632
 20
2484.888757552419
 30
0.0
 11
2461.97525755632
 21
2484.888757552419
 31
0.0
  0
LINE
  5
92C1
  8
0
 10
2461.97525755632
 20
1501.888757552419
 30
0.0
 11
2461.97525755632
 21
1501.888757552419
 31
0.0
  0
LINE
  5
92C2
  8
0
 10
2484.999997850557
 20
2484.888757552419
 30
0.0
 11
2484.999997850557
 21
1501.888757552419
 31
0.0
  0
LINE
  5
92C3
  8
0
 10
2484.999997850557
 20
1501.888757552419
 30
0.0
 11
2439.000032832569
 21
1501.888757552419
 31
0.0
  0
LINE
  5
92C4
  8
0
 10
2439.000032832569
 20
1501.888757552419
 30
0.0
 11
2439.000032832569
 21
2484.888757552419
 31
0.0
  0
LINE
  5
92C5
  8
0
 10
2439.000032832569
 20
2484.888757552419
 30
0.0
 11
2484.999997850557
 21
2484.888757552419
 31
0.0
  0
LINE
  5
92C6
  8
0
 10
2463.411209101539
 20
2484.88875755242
 30
0.0
 11
2463.411209101539
 21
1509.280652953644
 31
0.0
  0
LINE
  5
9975
  8
0
 10
1001.42437056097
 20
2327.293856446567
 30
0.0
 11
1001.42437056097
 21
2451.27783909632
 31
0.0
  0
LINE
  5
9976
  8
0
 10
1001.42437056097
 20
2451.27783909632
 30
0.0
 11
1018.689879133742
 21
2468.444168773602
 31
0.0
  0
LINE
  5
9977
  8
0
 10
1018.689879133742
 20
2468.444168773602
 30
0.0
 11
1144.28538636695
 21
2468.444168773602
 31
0.0
  0
LINE
  5
9978
  8
0
 10
1144.28538636695
 20
2468.444168773602
 30
0.0
 11
1161.50662440492
 21
2451.27783909632
 31
0.0
  0
LINE
  5
9979
  8
0
 10
1161.50662440492
 20
2451.27783909632
 30
0.0
 11
1161.50662440492
 21
2327.293856446567
 31
0.0
  0
LINE
  5
997A
  8
0
 10
1161.50662440492
 20
2327.293856446567
 30
0.0
 11
1144.28538636695
 21
2310.060904532505
 31
0.0
  0
LINE
  5
997B
  8
0
 10
1144.28538636695
 20
2310.060904532505
 30
0.0
 11
1018.689879133742
 21
2310.060904532505
 31
0.0
  0
LINE
  5
997C
  8
0
 10
1018.689879133742
 20
2310.060904532505
 30
0.0
 11
1001.42437056097
 21
2327.293856446567
 31
0.0
  0
LINE
  5
997D
  8
0
 10
1161.329542265711
 20
2425.717107584612
 30
0.0
 11
1002.265510722208
 21
2425.717107584612
 31
0.0
  0
LINE
  5
997E
  8
0
 10
1161.329542265711
 20
2352.743550896973
 30
0.0
 11
1002.265510722208
 21
2352.743550896973
 31
0.0
  0
LINE
  5
997F
  8
0
 10
1161.50662440492
 20
2327.293856446567
 30
0.0
 11
1161.50662440492
 21
2451.27783909632
 31
0.0
  0
LINE
  5
9980
  8
0
 10
1161.50662440492
 20
2451.27783909632
 30
0.0
 11
1178.77213297769
 21
2468.444168773602
 31
0.0
  0
LINE
  5
9981
  8
0
 10
1178.77213297769
 20
2468.444168773602
 30
0.0
 11
1304.4119107457
 21
2468.444168773602
 31
0.0
  0
LINE
  5
9982
  8
0
 10
1304.4119107457
 20
2468.444168773602
 30
0.0
 11
1321.677419318472
 21
2451.27783909632
 31
0.0
  0
LINE
  5
9983
  8
0
 10
1321.677419318472
 20
2451.27783909632
 30
0.0
 11
1321.677419318472
 21
2327.293856446567
 31
0.0
  0
LINE
  5
9984
  8
0
 10
1321.677419318472
 20
2327.293856446567
 30
0.0
 11
1304.4119107457
 21
2310.060904532505
 31
0.0
  0
LINE
  5
9985
  8
0
 10
1304.4119107457
 20
2310.060904532505
 30
0.0
 11
1178.77213297769
 21
2310.060904532505
 31
0.0
  0
LINE
  5
9986
  8
0
 10
1178.77213297769
 20
2310.060904532505
 30
0.0
 11
1161.50662440492
 21
2327.293856446567
 31
0.0
  0
LINE
  5
9987
  8
0
 10
1321.500337179264
 20
2425.717107584612
 30
0.0
 11
1162.347764566157
 21
2425.717107584612
 31
0.0
  0
LINE
  5
9988
  8
0
 10
1321.500337179264
 20
2352.743550896973
 30
0.0
 11
1162.347764566157
 21
2352.743550896973
 31
0.0
  0
LINE
  5
9989
  8
0
 10
1321.677419318472
 20
2327.293856446567
 30
0.0
 11
1321.677419318472
 21
2451.27783909632
 31
0.0
  0
LINE
  5
998A
  8
0
 10
1321.677419318472
 20
2451.27783909632
 30
0.0
 11
1338.89865735644
 21
2468.444168773602
 31
0.0
  0
LINE
  5
998B
  8
0
 10
1338.89865735644
 20
2468.444168773602
 30
0.0
 11
1464.626976194055
 21
2468.444168773602
 31
0.0
  0
LINE
  5
998C
  8
0
 10
1464.626976194055
 20
2468.444168773602
 30
0.0
 11
1481.803943697221
 21
2451.27783909632
 31
0.0
  0
LINE
  5
998D
  8
0
 10
1481.803943697221
 20
2451.27783909632
 30
0.0
 11
1481.803943697221
 21
2327.293856446567
 31
0.0
  0
LINE
  5
998E
  8
0
 10
1481.803943697221
 20
2327.293856446567
 30
0.0
 11
1464.626976194055
 21
2310.060904532505
 31
0.0
  0
LINE
  5
998F
  8
0
 10
1464.626976194055
 20
2310.060904532505
 30
0.0
 11
1338.89865735644
 21
2310.060904532505
 31
0.0
  0
LINE
  5
9990
  8
0
 10
1338.89865735644
 20
2310.060904532505
 30
0.0
 11
1321.677419318472
 21
2327.293856446567
 31
0.0
  0
LINE
  5
9991
  8
0
 10
1481.626861558013
 20
2425.717107584612
 30
0.0
 11
1322.474288944907
 21
2425.717107584612
 31
0.0
  0
LINE
  5
9992
  8
0
 10
1481.626861558013
 20
2352.743550896973
 30
0.0
 11
1322.474288944907
 21
2352.743550896973
 31
0.0
  0
LINE
  5
9993
  8
0
 10
1481.803943697221
 20
2327.293856446567
 30
0.0
 11
1481.803943697221
 21
2451.27783909632
 31
0.0
  0
LINE
  5
9994
  8
0
 10
1481.803943697221
 20
2451.27783909632
 30
0.0
 11
1499.069452269993
 21
2468.444168773602
 31
0.0
  0
LINE
  5
9995
  8
0
 10
1499.069452269993
 20
2468.444168773602
 30
0.0
 11
1624.709230038003
 21
2468.444168773602
 31
0.0
  0
LINE
  5
9996
  8
0
 10
1624.709230038003
 20
2468.444168773602
 30
0.0
 11
1641.930468075973
 21
2451.27783909632
 31
0.0
  0
LINE
  5
9997
  8
0
 10
1641.930468075973
 20
2451.27783909632
 30
0.0
 11
1641.930468075973
 21
2327.293856446567
 31
0.0
  0
LINE
  5
9998
  8
0
 10
1641.930468075973
 20
2327.293856446567
 30
0.0
 11
1624.709230038003
 21
2310.060904532505
 31
0.0
  0
LINE
  5
9999
  8
0
 10
1624.709230038003
 20
2310.060904532505
 30
0.0
 11
1499.069452269993
 21
2310.060904532505
 31
0.0
  0
LINE
  5
999A
  8
0
 10
1499.069452269993
 20
2310.060904532505
 30
0.0
 11
1481.803943697221
 21
2327.293856446567
 31
0.0
  0
LINE
  5
999B
  8
0
 10
1641.709115401963
 20
2425.717107584612
 30
0.0
 11
1482.600813323657
 21
2425.717107584612
 31
0.0
  0
LINE
  5
999C
  8
0
 10
1641.709115401963
 20
2352.743550896973
 30
0.0
 11
1482.600813323657
 21
2352.743550896973
 31
0.0
  0
LINE
  5
999D
  8
0
 10
1641.930468075973
 20
2327.293856446567
 30
0.0
 11
1641.930468075973
 21
2451.27783909632
 31
0.0
  0
LINE
  5
999E
  8
0
 10
1641.930468075973
 20
2451.27783909632
 30
0.0
 11
1659.195976648743
 21
2468.444168773602
 31
0.0
  0
LINE
  5
999F
  8
0
 10
1659.195976648743
 20
2468.444168773602
 30
0.0
 11
1784.835754416753
 21
2468.444168773602
 31
0.0
  0
LINE
  5
99A0
  8
0
 10
1784.835754416753
 20
2468.444168773602
 30
0.0
 11
1802.101262989525
 21
2451.27783909632
 31
0.0
  0
LINE
  5
99A1
  8
0
 10
1802.101262989525
 20
2451.27783909632
 30
0.0
 11
1802.101262989525
 21
2327.293856446567
 31
0.0
  0
LINE
  5
99A2
  8
0
 10
1802.101262989525
 20
2327.293856446567
 30
0.0
 11
1784.835754416753
 21
2310.060904532505
 31
0.0
  0
LINE
  5
99A3
  8
0
 10
1784.835754416753
 20
2310.060904532505
 30
0.0
 11
1659.195976648743
 21
2310.060904532505
 31
0.0
  0
LINE
  5
99A4
  8
0
 10
1659.195976648743
 20
2310.060904532505
 30
0.0
 11
1641.930468075973
 21
2327.293856446567
 31
0.0
  0
LINE
  5
99A5
  8
0
 10
1801.879910315515
 20
2425.717107584612
 30
0.0
 11
1642.77160823721
 21
2425.717107584612
 31
0.0
  0
LINE
  5
99A6
  8
0
 10
1801.879910315515
 20
2352.743550896973
 30
0.0
 11
1642.77160823721
 21
2352.743550896973
 31
0.0
  0
LINE
  5
99A7
  8
0
 10
1802.101262989525
 20
2327.293856446567
 30
0.0
 11
1802.101262989525
 21
2451.27783909632
 31
0.0
  0
LINE
  5
99A8
  8
0
 10
1802.101262989525
 20
2451.27783909632
 30
0.0
 11
1819.322501027493
 21
2468.444168773602
 31
0.0
  0
LINE
  5
99A9
  8
0
 10
1819.322501027493
 20
2468.444168773602
 30
0.0
 11
1945.006549330306
 21
2468.444168773602
 31
0.0
  0
LINE
  5
99AA
  8
0
 10
1945.006549330306
 20
2468.444168773602
 30
0.0
 11
1962.227787368274
 21
2451.27783909632
 31
0.0
  0
LINE
  5
99AB
  8
0
 10
1962.227787368274
 20
2451.27783909632
 30
0.0
 11
1962.227787368274
 21
2327.293856446567
 31
0.0
  0
LINE
  5
99AC
  8
0
 10
1962.227787368274
 20
2327.293856446567
 30
0.0
 11
1945.006549330306
 21
2310.060904532505
 31
0.0
  0
LINE
  5
99AD
  8
0
 10
1945.006549330306
 20
2310.060904532505
 30
0.0
 11
1819.322501027493
 21
2310.060904532505
 31
0.0
  0
LINE
  5
99AE
  8
0
 10
1819.322501027493
 20
2310.060904532505
 30
0.0
 11
1802.101262989525
 21
2327.293856446567
 31
0.0
  0
LINE
  5
99AF
  8
0
 10
1962.006434694265
 20
2425.717107584612
 30
0.0
 11
1802.89813261596
 21
2425.717107584612
 31
0.0
  0
LINE
  5
99B0
  8
0
 10
1962.006434694265
 20
2352.743550896973
 30
0.0
 11
1802.89813261596
 21
2352.743550896973
 31
0.0
  0
LINE
  5
99B1
  8
0
 10
1962.227787368274
 20
2327.293856446567
 30
0.0
 11
1962.227787368274
 21
2451.27783909632
 31
0.0
  0
LINE
  5
99B2
  8
0
 10
1962.227787368274
 20
2451.27783909632
 30
0.0
 11
1979.493295941046
 21
2468.444168773602
 31
0.0
  0
LINE
  5
99B3
  8
0
 10
1979.493295941046
 20
2468.444168773602
 30
0.0
 11
2105.133073709056
 21
2468.444168773602
 31
0.0
  0
LINE
  5
99B4
  8
0
 10
2105.133073709056
 20
2468.444168773602
 30
0.0
 11
2122.354311747025
 21
2451.27783909632
 31
0.0
  0
LINE
  5
99B5
  8
0
 10
2122.354311747025
 20
2451.27783909632
 30
0.0
 11
2122.354311747025
 21
2327.293856446567
 31
0.0
  0
LINE
  5
99B6
  8
0
 10
2122.354311747025
 20
2327.293856446567
 30
0.0
 11
2105.133073709056
 21
2310.060904532505
 31
0.0
  0
LINE
  5
99B7
  8
0
 10
2105.133073709056
 20
2310.060904532505
 30
0.0
 11
1979.493295941046
 21
2310.060904532505
 31
0.0
  0
LINE
  5
99B8
  8
0
 10
1979.493295941046
 20
2310.060904532505
 30
0.0
 11
1962.227787368274
 21
2327.293856446567
 31
0.0
  0
LINE
  5
99B9
  8
0
 10
2122.088688538213
 20
2425.717107584612
 30
0.0
 11
1963.068927529513
 21
2425.717107584612
 31
0.0
  0
LINE
  5
99BA
  8
0
 10
2122.088688538213
 20
2352.743550896973
 30
0.0
 11
1963.068927529513
 21
2352.743550896973
 31
0.0
  0
LINE
  5
99BB
  8
0
 10
1001.42437056097
 20
2168.88838479321
 30
0.0
 11
1001.42437056097
 21
2292.916782267484
 31
0.0
  0
LINE
  5
99BC
  8
0
 10
1001.42437056097
 20
2292.916782267484
 30
0.0
 11
1018.689879133742
 21
2310.060904532505
 31
0.0
  0
LINE
  5
99BD
  8
0
 10
1018.689879133742
 20
2310.060904532505
 30
0.0
 11
1144.28538636695
 21
2310.060904532505
 31
0.0
  0
LINE
  5
99BE
  8
0
 10
1144.28538636695
 20
2310.060904532505
 30
0.0
 11
1161.50662440492
 21
2292.916782267484
 31
0.0
  0
LINE
  5
99BF
  8
0
 10
1161.50662440492
 20
2292.916782267484
 30
0.0
 11
1161.50662440492
 21
2168.88838479321
 31
0.0
  0
LINE
  5
99C0
  8
0
 10
1161.50662440492
 20
2168.88838479321
 30
0.0
 11
1144.28538636695
 21
2151.744262528189
 31
0.0
  0
LINE
  5
99C1
  8
0
 10
1144.28538636695
 20
2151.744262528189
 30
0.0
 11
1018.689879133742
 21
2151.744262528189
 31
0.0
  0
LINE
  5
99C2
  8
0
 10
1018.689879133742
 20
2151.744262528189
 30
0.0
 11
1001.42437056097
 21
2168.88838479321
 31
0.0
  0
LINE
  5
99C3
  8
0
 10
1161.329542265711
 20
2267.378258168036
 30
0.0
 11
1002.265510722208
 21
2267.378258168036
 31
0.0
  0
LINE
  5
99C4
  8
0
 10
1161.329542265711
 20
2194.382494068137
 30
0.0
 11
1002.265510722208
 21
2194.382494068137
 31
0.0
  0
LINE
  5
99C5
  8
0
 10
1161.50662440492
 20
2168.88838479321
 30
0.0
 11
1161.50662440492
 21
2292.916782267484
 31
0.0
  0
LINE
  5
99C6
  8
0
 10
1161.50662440492
 20
2292.916782267484
 30
0.0
 11
1178.77213297769
 21
2310.060904532505
 31
0.0
  0
LINE
  5
99C7
  8
0
 10
1178.77213297769
 20
2310.060904532505
 30
0.0
 11
1304.4119107457
 21
2310.060904532505
 31
0.0
  0
LINE
  5
99C8
  8
0
 10
1304.4119107457
 20
2310.060904532505
 30
0.0
 11
1321.677419318472
 21
2292.916782267484
 31
0.0
  0
LINE
  5
99C9
  8
0
 10
1321.677419318472
 20
2292.916782267484
 30
0.0
 11
1321.677419318472
 21
2168.88838479321
 31
0.0
  0
LINE
  5
99CA
  8
0
 10
1321.677419318472
 20
2168.88838479321
 30
0.0
 11
1304.4119107457
 21
2151.744262528189
 31
0.0
  0
LINE
  5
99CB
  8
0
 10
1304.4119107457
 20
2151.744262528189
 30
0.0
 11
1178.77213297769
 21
2151.744262528189
 31
0.0
  0
LINE
  5
99CC
  8
0
 10
1178.77213297769
 20
2151.744262528189
 30
0.0
 11
1161.50662440492
 21
2168.88838479321
 31
0.0
  0
LINE
  5
99CD
  8
0
 10
1321.500337179264
 20
2267.378258168036
 30
0.0
 11
1162.347764566157
 21
2267.378258168036
 31
0.0
  0
LINE
  5
99CE
  8
0
 10
1321.500337179264
 20
2194.382494068137
 30
0.0
 11
1162.347764566157
 21
2194.382494068137
 31
0.0
  0
LINE
  5
99CF
  8
0
 10
1321.677419318472
 20
2168.88838479321
 30
0.0
 11
1321.677419318472
 21
2292.916782267484
 31
0.0
  0
LINE
  5
99D0
  8
0
 10
1321.677419318472
 20
2292.916782267484
 30
0.0
 11
1338.89865735644
 21
2310.060904532505
 31
0.0
  0
LINE
  5
99D1
  8
0
 10
1338.89865735644
 20
2310.060904532505
 30
0.0
 11
1464.626976194055
 21
2310.060904532505
 31
0.0
  0
LINE
  5
99D2
  8
0
 10
1464.626976194055
 20
2310.060904532505
 30
0.0
 11
1481.803943697221
 21
2292.916782267484
 31
0.0
  0
LINE
  5
99D3
  8
0
 10
1481.803943697221
 20
2292.916782267484
 30
0.0
 11
1481.803943697221
 21
2168.88838479321
 31
0.0
  0
LINE
  5
99D4
  8
0
 10
1481.803943697221
 20
2168.88838479321
 30
0.0
 11
1464.626976194055
 21
2151.744262528189
 31
0.0
  0
LINE
  5
99D5
  8
0
 10
1464.626976194055
 20
2151.744262528189
 30
0.0
 11
1338.89865735644
 21
2151.744262528189
 31
0.0
  0
LINE
  5
99D6
  8
0
 10
1338.89865735644
 20
2151.744262528189
 30
0.0
 11
1321.677419318472
 21
2168.88838479321
 31
0.0
  0
LINE
  5
99D7
  8
0
 10
1481.626861558013
 20
2267.378258168036
 30
0.0
 11
1322.474288944907
 21
2267.378258168036
 31
0.0
  0
LINE
  5
99D8
  8
0
 10
1481.626861558013
 20
2194.382494068137
 30
0.0
 11
1322.474288944907
 21
2194.382494068137
 31
0.0
  0
LINE
  5
99D9
  8
0
 10
1481.803943697221
 20
2168.88838479321
 30
0.0
 11
1481.803943697221
 21
2292.916782267484
 31
0.0
  0
LINE
  5
99DA
  8
0
 10
1481.803943697221
 20
2292.916782267484
 30
0.0
 11
1499.069452269993
 21
2310.060904532505
 31
0.0
  0
LINE
  5
99DB
  8
0
 10
1499.069452269993
 20
2310.060904532505
 30
0.0
 11
1624.709230038003
 21
2310.060904532505
 31
0.0
  0
LINE
  5
99DC
  8
0
 10
1624.709230038003
 20
2310.060904532505
 30
0.0
 11
1641.930468075973
 21
2292.916782267484
 31
0.0
  0
LINE
  5
99DD
  8
0
 10
1641.930468075973
 20
2292.916782267484
 30
0.0
 11
1641.930468075973
 21
2168.88838479321
 31
0.0
  0
LINE
  5
99DE
  8
0
 10
1641.930468075973
 20
2168.88838479321
 30
0.0
 11
1624.709230038003
 21
2151.744262528189
 31
0.0
  0
LINE
  5
99DF
  8
0
 10
1624.709230038003
 20
2151.744262528189
 30
0.0
 11
1499.069452269993
 21
2151.744262528189
 31
0.0
  0
LINE
  5
99E0
  8
0
 10
1499.069452269993
 20
2151.744262528189
 30
0.0
 11
1481.803943697221
 21
2168.88838479321
 31
0.0
  0
LINE
  5
99E1
  8
0
 10
1641.709115401963
 20
2267.378258168036
 30
0.0
 11
1482.600813323657
 21
2267.378258168036
 31
0.0
  0
LINE
  5
99E2
  8
0
 10
1641.709115401963
 20
2194.382494068137
 30
0.0
 11
1482.600813323657
 21
2194.382494068137
 31
0.0
  0
LINE
  5
99E3
  8
0
 10
1641.930468075973
 20
2168.88838479321
 30
0.0
 11
1641.930468075973
 21
2292.916782267484
 31
0.0
  0
LINE
  5
99E4
  8
0
 10
1641.930468075973
 20
2292.916782267484
 30
0.0
 11
1659.195976648743
 21
2310.060904532505
 31
0.0
  0
LINE
  5
99E5
  8
0
 10
1659.195976648743
 20
2310.060904532505
 30
0.0
 11
1784.835754416753
 21
2310.060904532505
 31
0.0
  0
LINE
  5
99E6
  8
0
 10
1784.835754416753
 20
2310.060904532505
 30
0.0
 11
1802.101262989525
 21
2292.916782267484
 31
0.0
  0
LINE
  5
99E7
  8
0
 10
1802.101262989525
 20
2292.916782267484
 30
0.0
 11
1802.101262989525
 21
2168.88838479321
 31
0.0
  0
LINE
  5
99E8
  8
0
 10
1802.101262989525
 20
2168.88838479321
 30
0.0
 11
1784.835754416753
 21
2151.744262528189
 31
0.0
  0
LINE
  5
99E9
  8
0
 10
1784.835754416753
 20
2151.744262528189
 30
0.0
 11
1659.195976648743
 21
2151.744262528189
 31
0.0
  0
LINE
  5
99EA
  8
0
 10
1659.195976648743
 20
2151.744262528189
 30
0.0
 11
1641.930468075973
 21
2168.88838479321
 31
0.0
  0
LINE
  5
99EB
  8
0
 10
1801.879910315515
 20
2267.378258168036
 30
0.0
 11
1642.77160823721
 21
2267.378258168036
 31
0.0
  0
LINE
  5
99EC
  8
0
 10
1801.879910315515
 20
2194.382494068137
 30
0.0
 11
1642.77160823721
 21
2194.382494068137
 31
0.0
  0
LINE
  5
99ED
  8
0
 10
1802.101262989525
 20
2168.88838479321
 30
0.0
 11
1802.101262989525
 21
2292.916782267484
 31
0.0
  0
LINE
  5
99EE
  8
0
 10
1802.101262989525
 20
2292.916782267484
 30
0.0
 11
1819.322501027493
 21
2310.060904532505
 31
0.0
  0
LINE
  5
99EF
  8
0
 10
1819.322501027493
 20
2310.060904532505
 30
0.0
 11
1945.006549330306
 21
2310.060904532505
 31
0.0
  0
LINE
  5
99F0
  8
0
 10
1945.006549330306
 20
2310.060904532505
 30
0.0
 11
1962.227787368274
 21
2292.916782267484
 31
0.0
  0
LINE
  5
99F1
  8
0
 10
1962.227787368274
 20
2292.916782267484
 30
0.0
 11
1962.227787368274
 21
2168.88838479321
 31
0.0
  0
LINE
  5
99F2
  8
0
 10
1962.227787368274
 20
2168.88838479321
 30
0.0
 11
1945.006549330306
 21
2151.744262528189
 31
0.0
  0
LINE
  5
99F3
  8
0
 10
1945.006549330306
 20
2151.744262528189
 30
0.0
 11
1819.322501027493
 21
2151.744262528189
 31
0.0
  0
LINE
  5
99F4
  8
0
 10
1819.322501027493
 20
2151.744262528189
 30
0.0
 11
1802.101262989525
 21
2168.88838479321
 31
0.0
  0
LINE
  5
99F5
  8
0
 10
1962.006434694265
 20
2267.378258168036
 30
0.0
 11
1802.89813261596
 21
2267.378258168036
 31
0.0
  0
LINE
  5
99F6
  8
0
 10
1962.006434694265
 20
2194.382494068137
 30
0.0
 11
1802.89813261596
 21
2194.382494068137
 31
0.0
  0
LINE
  5
99F7
  8
0
 10
1962.227787368274
 20
2168.88838479321
 30
0.0
 11
1962.227787368274
 21
2292.916782267484
 31
0.0
  0
LINE
  5
99F8
  8
0
 10
1962.227787368274
 20
2292.916782267484
 30
0.0
 11
1979.493295941046
 21
2310.060904532505
 31
0.0
  0
LINE
  5
99F9
  8
0
 10
1979.493295941046
 20
2310.060904532505
 30
0.0
 11
2105.133073709056
 21
2310.060904532505
 31
0.0
  0
LINE
  5
99FA
  8
0
 10
2105.133073709056
 20
2310.060904532505
 30
0.0
 11
2122.354311747025
 21
2292.916782267484
 31
0.0
  0
LINE
  5
99FB
  8
0
 10
2122.354311747025
 20
2292.916782267484
 30
0.0
 11
2122.354311747025
 21
2168.88838479321
 31
0.0
  0
LINE
  5
99FC
  8
0
 10
2122.354311747025
 20
2168.88838479321
 30
0.0
 11
2105.133073709056
 21
2151.744262528189
 31
0.0
  0
LINE
  5
99FD
  8
0
 10
2105.133073709056
 20
2151.744262528189
 30
0.0
 11
1979.493295941046
 21
2151.744262528189
 31
0.0
  0
LINE
  5
99FE
  8
0
 10
1979.493295941046
 20
2151.744262528189
 30
0.0
 11
1962.227787368274
 21
2168.88838479321
 31
0.0
  0
LINE
  5
99FF
  8
0
 10
2122.088688538213
 20
2267.378258168036
 30
0.0
 11
1963.068927529513
 21
2267.378258168036
 31
0.0
  0
LINE
  5
9A00
  8
0
 10
2122.088688538213
 20
2194.382494068137
 30
0.0
 11
1963.068927529513
 21
2194.382494068137
 31
0.0
  0
LINE
  5
9A01
  8
0
 10
1001.42437056097
 20
2010.571742788895
 30
0.0
 11
1001.42437056097
 21
2134.600140263169
 31
0.0
  0
LINE
  5
9A02
  8
0
 10
1001.42437056097
 20
2134.600140263169
 30
0.0
 11
1018.689879133742
 21
2151.744262528189
 31
0.0
  0
LINE
  5
9A03
  8
0
 10
1018.689879133742
 20
2151.744262528189
 30
0.0
 11
1144.28538636695
 21
2151.744262528189
 31
0.0
  0
LINE
  5
9A04
  8
0
 10
1144.28538636695
 20
2151.744262528189
 30
0.0
 11
1161.50662440492
 21
2134.600140263169
 31
0.0
  0
LINE
  5
9A05
  8
0
 10
1161.50662440492
 20
2134.600140263169
 30
0.0
 11
1161.50662440492
 21
2010.571742788895
 31
0.0
  0
LINE
  5
9A06
  8
0
 10
1161.50662440492
 20
2010.571742788895
 30
0.0
 11
1144.28538636695
 21
1993.383205699353
 31
0.0
  0
LINE
  5
9A07
  8
0
 10
1144.28538636695
 20
1993.383205699353
 30
0.0
 11
1018.689879133742
 21
1993.383205699353
 31
0.0
  0
LINE
  5
9A08
  8
0
 10
1018.689879133742
 20
1993.383205699353
 30
0.0
 11
1001.42437056097
 21
2010.571742788895
 31
0.0
  0
LINE
  5
9A09
  8
0
 10
1161.329542265711
 20
2109.039408751461
 30
0.0
 11
1002.265510722208
 21
2109.039408751461
 31
0.0
  0
LINE
  5
9A0A
  8
0
 10
1161.329542265711
 20
2036.043644651561
 30
0.0
 11
1002.265510722208
 21
2036.043644651561
 31
0.0
  0
LINE
  5
9A0B
  8
0
 10
1161.50662440492
 20
2010.571742788895
 30
0.0
 11
1161.50662440492
 21
2134.600140263169
 31
0.0
  0
LINE
  5
9A0C
  8
0
 10
1161.50662440492
 20
2134.600140263169
 30
0.0
 11
1178.77213297769
 21
2151.744262528189
 31
0.0
  0
LINE
  5
9A0D
  8
0
 10
1178.77213297769
 20
2151.744262528189
 30
0.0
 11
1304.4119107457
 21
2151.744262528189
 31
0.0
  0
LINE
  5
9A0E
  8
0
 10
1304.4119107457
 20
2151.744262528189
 30
0.0
 11
1321.677419318472
 21
2134.600140263169
 31
0.0
  0
LINE
  5
9A0F
  8
0
 10
1321.677419318472
 20
2134.600140263169
 30
0.0
 11
1321.677419318472
 21
2010.571742788895
 31
0.0
  0
LINE
  5
9A10
  8
0
 10
1321.677419318472
 20
2010.571742788895
 30
0.0
 11
1304.4119107457
 21
1993.383205699353
 31
0.0
  0
LINE
  5
9A11
  8
0
 10
1304.4119107457
 20
1993.383205699353
 30
0.0
 11
1178.77213297769
 21
1993.383205699353
 31
0.0
  0
LINE
  5
9A12
  8
0
 10
1178.77213297769
 20
1993.383205699353
 30
0.0
 11
1161.50662440492
 21
2010.571742788895
 31
0.0
  0
LINE
  5
9A13
  8
0
 10
1321.500337179264
 20
2109.039408751461
 30
0.0
 11
1162.347764566157
 21
2109.039408751461
 31
0.0
  0
LINE
  5
9A14
  8
0
 10
1321.500337179264
 20
2036.043644651561
 30
0.0
 11
1162.347764566157
 21
2036.043644651561
 31
0.0
  0
LINE
  5
9A15
  8
0
 10
1321.677419318472
 20
2010.571742788895
 30
0.0
 11
1321.677419318472
 21
2134.600140263169
 31
0.0
  0
LINE
  5
9A16
  8
0
 10
1321.677419318472
 20
2134.600140263169
 30
0.0
 11
1338.89865735644
 21
2151.744262528189
 31
0.0
  0
LINE
  5
9A17
  8
0
 10
1338.89865735644
 20
2151.744262528189
 30
0.0
 11
1464.626976194055
 21
2151.744262528189
 31
0.0
  0
LINE
  5
9A18
  8
0
 10
1464.626976194055
 20
2151.744262528189
 30
0.0
 11
1481.803943697221
 21
2134.600140263169
 31
0.0
  0
LINE
  5
9A19
  8
0
 10
1481.803943697221
 20
2134.600140263169
 30
0.0
 11
1481.803943697221
 21
2010.571742788895
 31
0.0
  0
LINE
  5
9A1A
  8
0
 10
1481.803943697221
 20
2010.571742788895
 30
0.0
 11
1464.626976194055
 21
1993.383205699353
 31
0.0
  0
LINE
  5
9A1B
  8
0
 10
1464.626976194055
 20
1993.383205699353
 30
0.0
 11
1338.89865735644
 21
1993.383205699353
 31
0.0
  0
LINE
  5
9A1C
  8
0
 10
1338.89865735644
 20
1993.383205699353
 30
0.0
 11
1321.677419318472
 21
2010.571742788895
 31
0.0
  0
LINE
  5
9A1D
  8
0
 10
1481.626861558013
 20
2109.039408751461
 30
0.0
 11
1322.474288944907
 21
2109.039408751461
 31
0.0
  0
LINE
  5
9A1E
  8
0
 10
1481.626861558013
 20
2036.043644651561
 30
0.0
 11
1322.474288944907
 21
2036.043644651561
 31
0.0
  0
LINE
  5
9A1F
  8
0
 10
1481.803943697221
 20
2010.571742788895
 30
0.0
 11
1481.803943697221
 21
2134.600140263169
 31
0.0
  0
LINE
  5
9A20
  8
0
 10
1481.803943697221
 20
2134.600140263169
 30
0.0
 11
1499.069452269993
 21
2151.744262528189
 31
0.0
  0
LINE
  5
9A21
  8
0
 10
1499.069452269993
 20
2151.744262528189
 30
0.0
 11
1624.709230038003
 21
2151.744262528189
 31
0.0
  0
LINE
  5
9A22
  8
0
 10
1624.709230038003
 20
2151.744262528189
 30
0.0
 11
1641.930468075973
 21
2134.600140263169
 31
0.0
  0
LINE
  5
9A23
  8
0
 10
1641.930468075973
 20
2134.600140263169
 30
0.0
 11
1641.930468075973
 21
2010.571742788895
 31
0.0
  0
LINE
  5
9A24
  8
0
 10
1641.930468075973
 20
2010.571742788895
 30
0.0
 11
1624.709230038003
 21
1993.383205699353
 31
0.0
  0
LINE
  5
9A25
  8
0
 10
1624.709230038003
 20
1993.383205699353
 30
0.0
 11
1499.069452269993
 21
1993.383205699353
 31
0.0
  0
LINE
  5
9A26
  8
0
 10
1499.069452269993
 20
1993.383205699353
 30
0.0
 11
1481.803943697221
 21
2010.571742788895
 31
0.0
  0
LINE
  5
9A27
  8
0
 10
1641.709115401963
 20
2109.039408751461
 30
0.0
 11
1482.600813323657
 21
2109.039408751461
 31
0.0
  0
LINE
  5
9A28
  8
0
 10
1641.709115401963
 20
2036.043644651561
 30
0.0
 11
1482.600813323657
 21
2036.043644651561
 31
0.0
  0
LINE
  5
9A29
  8
0
 10
1641.930468075973
 20
2010.571742788895
 30
0.0
 11
1641.930468075973
 21
2134.600140263169
 31
0.0
  0
LINE
  5
9A2A
  8
0
 10
1641.930468075973
 20
2134.600140263169
 30
0.0
 11
1659.195976648743
 21
2151.744262528189
 31
0.0
  0
LINE
  5
9A2B
  8
0
 10
1659.195976648743
 20
2151.744262528189
 30
0.0
 11
1784.835754416753
 21
2151.744262528189
 31
0.0
  0
LINE
  5
9A2C
  8
0
 10
1784.835754416753
 20
2151.744262528189
 30
0.0
 11
1802.101262989525
 21
2134.600140263169
 31
0.0
  0
LINE
  5
9A2D
  8
0
 10
1802.101262989525
 20
2134.600140263169
 30
0.0
 11
1802.101262989525
 21
2010.571742788895
 31
0.0
  0
LINE
  5
9A2E
  8
0
 10
1802.101262989525
 20
2010.571742788895
 30
0.0
 11
1784.835754416753
 21
1993.383205699353
 31
0.0
  0
LINE
  5
9A2F
  8
0
 10
1784.835754416753
 20
1993.383205699353
 30
0.0
 11
1659.195976648743
 21
1993.383205699353
 31
0.0
  0
LINE
  5
9A30
  8
0
 10
1659.195976648743
 20
1993.383205699353
 30
0.0
 11
1641.930468075973
 21
2010.571742788895
 31
0.0
  0
LINE
  5
9A31
  8
0
 10
1801.879910315515
 20
2109.039408751461
 30
0.0
 11
1642.77160823721
 21
2109.039408751461
 31
0.0
  0
LINE
  5
9A32
  8
0
 10
1801.879910315515
 20
2036.043644651561
 30
0.0
 11
1642.77160823721
 21
2036.043644651561
 31
0.0
  0
LINE
  5
9A33
  8
0
 10
1802.101262989525
 20
2010.571742788895
 30
0.0
 11
1802.101262989525
 21
2134.600140263169
 31
0.0
  0
LINE
  5
9A34
  8
0
 10
1802.101262989525
 20
2134.600140263169
 30
0.0
 11
1819.322501027493
 21
2151.744262528189
 31
0.0
  0
LINE
  5
9A35
  8
0
 10
1819.322501027493
 20
2151.744262528189
 30
0.0
 11
1945.006549330306
 21
2151.744262528189
 31
0.0
  0
LINE
  5
9A36
  8
0
 10
1945.006549330306
 20
2151.744262528189
 30
0.0
 11
1962.227787368274
 21
2134.600140263169
 31
0.0
  0
LINE
  5
9A37
  8
0
 10
1962.227787368274
 20
2134.600140263169
 30
0.0
 11
1962.227787368274
 21
2010.571742788895
 31
0.0
  0
LINE
  5
9A38
  8
0
 10
1962.227787368274
 20
2010.571742788895
 30
0.0
 11
1945.006549330306
 21
1993.383205699353
 31
0.0
  0
LINE
  5
9A39
  8
0
 10
1945.006549330306
 20
1993.383205699353
 30
0.0
 11
1819.322501027493
 21
1993.383205699353
 31
0.0
  0
LINE
  5
9A3A
  8
0
 10
1819.322501027493
 20
1993.383205699353
 30
0.0
 11
1802.101262989525
 21
2010.571742788895
 31
0.0
  0
LINE
  5
9A3B
  8
0
 10
1962.006434694265
 20
2109.039408751461
 30
0.0
 11
1802.89813261596
 21
2109.039408751461
 31
0.0
  0
LINE
  5
9A3C
  8
0
 10
1962.006434694265
 20
2036.043644651561
 30
0.0
 11
1802.89813261596
 21
2036.043644651561
 31
0.0
  0
LINE
  5
9A3D
  8
0
 10
1962.227787368274
 20
2010.571742788895
 30
0.0
 11
1962.227787368274
 21
2134.600140263169
 31
0.0
  0
LINE
  5
9A3E
  8
0
 10
1962.227787368274
 20
2134.600140263169
 30
0.0
 11
1979.493295941046
 21
2151.744262528189
 31
0.0
  0
LINE
  5
9A3F
  8
0
 10
1979.493295941046
 20
2151.744262528189
 30
0.0
 11
2105.133073709056
 21
2151.744262528189
 31
0.0
  0
LINE
  5
9A40
  8
0
 10
2105.133073709056
 20
2151.744262528189
 30
0.0
 11
2122.354311747025
 21
2134.600140263169
 31
0.0
  0
LINE
  5
9A41
  8
0
 10
2122.354311747025
 20
2134.600140263169
 30
0.0
 11
2122.354311747025
 21
2010.571742788895
 31
0.0
  0
LINE
  5
9A42
  8
0
 10
2122.354311747025
 20
2010.571742788895
 30
0.0
 11
2105.133073709056
 21
1993.383205699353
 31
0.0
  0
LINE
  5
9A43
  8
0
 10
2105.133073709056
 20
1993.383205699353
 30
0.0
 11
1979.493295941046
 21
1993.383205699353
 31
0.0
  0
LINE
  5
9A44
  8
0
 10
1979.493295941046
 20
1993.383205699353
 30
0.0
 11
1962.227787368274
 21
2010.571742788895
 31
0.0
  0
LINE
  5
9A45
  8
0
 10
2122.088688538213
 20
2109.039408751461
 30
0.0
 11
1963.068927529513
 21
2109.039408751461
 31
0.0
  0
LINE
  5
9A46
  8
0
 10
2122.088688538213
 20
2036.043644651561
 30
0.0
 11
1963.068927529513
 21
2036.043644651561
 31
0.0
  0
LINE
  5
9A47
  8
0
 10
1001.42437056097
 20
1852.188478547798
 30
0.0
 11
1001.42437056097
 21
1976.216876022072
 31
0.0
  0
LINE
  5
9A48
  8
0
 10
1001.42437056097
 20
1976.216876022072
 30
0.0
 11
1018.689879133742
 21
1993.383205699353
 31
0.0
  0
LINE
  5
9A49
  8
0
 10
1018.689879133742
 20
1993.383205699353
 30
0.0
 11
1144.28538636695
 21
1993.383205699353
 31
0.0
  0
LINE
  5
9A4A
  8
0
 10
1144.28538636695
 20
1993.383205699353
 30
0.0
 11
1161.50662440492
 21
1976.216876022072
 31
0.0
  0
LINE
  5
9A4B
  8
0
 10
1161.50662440492
 20
1976.216876022072
 30
0.0
 11
1161.50662440492
 21
1852.188478547798
 31
0.0
  0
LINE
  5
9A4C
  8
0
 10
1161.50662440492
 20
1852.188478547798
 30
0.0
 11
1144.28538636695
 21
1835.022148870517
 31
0.0
  0
LINE
  5
9A4D
  8
0
 10
1144.28538636695
 20
1835.022148870517
 30
0.0
 11
1018.689879133742
 21
1835.022148870517
 31
0.0
  0
LINE
  5
9A4E
  8
0
 10
1018.689879133742
 20
1835.022148870517
 30
0.0
 11
1001.42437056097
 21
1852.188478547798
 31
0.0
  0
LINE
  5
9A4F
  8
0
 10
1161.329542265711
 20
1950.633937098104
 30
0.0
 11
1002.265510722208
 21
1950.633937098104
 31
0.0
  0
LINE
  5
9A50
  8
0
 10
1161.329542265711
 20
1877.682587822725
 30
0.0
 11
1002.265510722208
 21
1877.682587822725
 31
0.0
  0
LINE
  5
9A51
  8
0
 10
1161.50662440492
 20
1852.188478547798
 30
0.0
 11
1161.50662440492
 21
1976.216876022072
 31
0.0
  0
LINE
  5
9A52
  8
0
 10
1161.50662440492
 20
1976.216876022072
 30
0.0
 11
1178.77213297769
 21
1993.383205699353
 31
0.0
  0
LINE
  5
9A53
  8
0
 10
1178.77213297769
 20
1993.383205699353
 30
0.0
 11
1304.4119107457
 21
1993.383205699353
 31
0.0
  0
LINE
  5
9A54
  8
0
 10
1304.4119107457
 20
1993.383205699353
 30
0.0
 11
1321.677419318472
 21
1976.216876022072
 31
0.0
  0
LINE
  5
9A55
  8
0
 10
1321.677419318472
 20
1976.216876022072
 30
0.0
 11
1321.677419318472
 21
1852.188478547798
 31
0.0
  0
LINE
  5
9A56
  8
0
 10
1321.677419318472
 20
1852.188478547798
 30
0.0
 11
1304.4119107457
 21
1835.022148870517
 31
0.0
  0
LINE
  5
9A57
  8
0
 10
1304.4119107457
 20
1835.022148870517
 30
0.0
 11
1178.77213297769
 21
1835.022148870517
 31
0.0
  0
LINE
  5
9A58
  8
0
 10
1178.77213297769
 20
1835.022148870517
 30
0.0
 11
1161.50662440492
 21
1852.188478547798
 31
0.0
  0
LINE
  5
9A59
  8
0
 10
1321.500337179264
 20
1950.633937098104
 30
0.0
 11
1162.347764566157
 21
1950.633937098104
 31
0.0
  0
LINE
  5
9A5A
  8
0
 10
1321.500337179264
 20
1877.682587822725
 30
0.0
 11
1162.347764566157
 21
1877.682587822725
 31
0.0
  0
LINE
  5
9A5B
  8
0
 10
1321.677419318472
 20
1852.188478547798
 30
0.0
 11
1321.677419318472
 21
1976.216876022072
 31
0.0
  0
LINE
  5
9A5C
  8
0
 10
1321.677419318472
 20
1976.216876022072
 30
0.0
 11
1338.89865735644
 21
1993.383205699353
 31
0.0
  0
LINE
  5
9A5D
  8
0
 10
1338.89865735644
 20
1993.383205699353
 30
0.0
 11
1464.626976194055
 21
1993.383205699353
 31
0.0
  0
LINE
  5
9A5E
  8
0
 10
1464.626976194055
 20
1993.383205699353
 30
0.0
 11
1481.803943697221
 21
1976.216876022072
 31
0.0
  0
LINE
  5
9A5F
  8
0
 10
1481.803943697221
 20
1976.216876022072
 30
0.0
 11
1481.803943697221
 21
1852.188478547798
 31
0.0
  0
LINE
  5
9A60
  8
0
 10
1481.803943697221
 20
1852.188478547798
 30
0.0
 11
1464.626976194055
 21
1835.022148870517
 31
0.0
  0
LINE
  5
9A61
  8
0
 10
1464.626976194055
 20
1835.022148870517
 30
0.0
 11
1338.89865735644
 21
1835.022148870517
 31
0.0
  0
LINE
  5
9A62
  8
0
 10
1338.89865735644
 20
1835.022148870517
 30
0.0
 11
1321.677419318472
 21
1852.188478547798
 31
0.0
  0
LINE
  5
9A63
  8
0
 10
1481.626861558013
 20
1950.633937098104
 30
0.0
 11
1322.474288944907
 21
1950.633937098104
 31
0.0
  0
LINE
  5
9A64
  8
0
 10
1481.626861558013
 20
1877.682587822725
 30
0.0
 11
1322.474288944907
 21
1877.682587822725
 31
0.0
  0
LINE
  5
9A65
  8
0
 10
1481.803943697221
 20
1852.188478547798
 30
0.0
 11
1481.803943697221
 21
1976.216876022072
 31
0.0
  0
LINE
  5
9A66
  8
0
 10
1481.803943697221
 20
1976.216876022072
 30
0.0
 11
1499.069452269993
 21
1993.383205699353
 31
0.0
  0
LINE
  5
9A67
  8
0
 10
1499.069452269993
 20
1993.383205699353
 30
0.0
 11
1624.709230038003
 21
1993.383205699353
 31
0.0
  0
LINE
  5
9A68
  8
0
 10
1624.709230038003
 20
1993.383205699353
 30
0.0
 11
1641.930468075973
 21
1976.216876022072
 31
0.0
  0
LINE
  5
9A69
  8
0
 10
1641.930468075973
 20
1976.216876022072
 30
0.0
 11
1641.930468075973
 21
1852.188478547798
 31
0.0
  0
LINE
  5
9A6A
  8
0
 10
1641.930468075973
 20
1852.188478547798
 30
0.0
 11
1624.709230038003
 21
1835.022148870517
 31
0.0
  0
LINE
  5
9A6B
  8
0
 10
1624.709230038003
 20
1835.022148870517
 30
0.0
 11
1499.069452269993
 21
1835.022148870517
 31
0.0
  0
LINE
  5
9A6C
  8
0
 10
1499.069452269993
 20
1835.022148870517
 30
0.0
 11
1481.803943697221
 21
1852.188478547798
 31
0.0
  0
LINE
  5
9A6D
  8
0
 10
1641.709115401963
 20
1950.633937098104
 30
0.0
 11
1482.600813323657
 21
1950.633937098104
 31
0.0
  0
LINE
  5
9A6E
  8
0
 10
1641.709115401963
 20
1877.682587822725
 30
0.0
 11
1482.600813323657
 21
1877.682587822725
 31
0.0
  0
LINE
  5
9A6F
  8
0
 10
1641.930468075973
 20
1852.188478547798
 30
0.0
 11
1641.930468075973
 21
1976.216876022072
 31
0.0
  0
LINE
  5
9A70
  8
0
 10
1641.930468075973
 20
1976.216876022072
 30
0.0
 11
1659.195976648743
 21
1993.383205699353
 31
0.0
  0
LINE
  5
9A71
  8
0
 10
1659.195976648743
 20
1993.383205699353
 30
0.0
 11
1784.835754416753
 21
1993.383205699353
 31
0.0
  0
LINE
  5
9A72
  8
0
 10
1784.835754416753
 20
1993.383205699353
 30
0.0
 11
1802.101262989525
 21
1976.216876022072
 31
0.0
  0
LINE
  5
9A73
  8
0
 10
1802.101262989525
 20
1976.216876022072
 30
0.0
 11
1802.101262989525
 21
1852.188478547798
 31
0.0
  0
LINE
  5
9A74
  8
0
 10
1802.101262989525
 20
1852.188478547798
 30
0.0
 11
1784.835754416753
 21
1835.022148870517
 31
0.0
  0
LINE
  5
9A75
  8
0
 10
1784.835754416753
 20
1835.022148870517
 30
0.0
 11
1659.195976648743
 21
1835.022148870517
 31
0.0
  0
LINE
  5
9A76
  8
0
 10
1659.195976648743
 20
1835.022148870517
 30
0.0
 11
1641.930468075973
 21
1852.188478547798
 31
0.0
  0
LINE
  5
9A77
  8
0
 10
1801.879910315515
 20
1950.633937098104
 30
0.0
 11
1642.77160823721
 21
1950.633937098104
 31
0.0
  0
LINE
  5
9A78
  8
0
 10
1801.879910315515
 20
1877.682587822725
 30
0.0
 11
1642.77160823721
 21
1877.682587822725
 31
0.0
  0
LINE
  5
9A79
  8
0
 10
1802.101262989525
 20
1852.188478547798
 30
0.0
 11
1802.101262989525
 21
1976.216876022072
 31
0.0
  0
LINE
  5
9A7A
  8
0
 10
1802.101262989525
 20
1976.216876022072
 30
0.0
 11
1819.322501027493
 21
1993.383205699353
 31
0.0
  0
LINE
  5
9A7B
  8
0
 10
1819.322501027493
 20
1993.383205699353
 30
0.0
 11
1945.006549330306
 21
1993.383205699353
 31
0.0
  0
LINE
  5
9A7C
  8
0
 10
1945.006549330306
 20
1993.383205699353
 30
0.0
 11
1962.227787368274
 21
1976.216876022072
 31
0.0
  0
LINE
  5
9A7D
  8
0
 10
1962.227787368274
 20
1976.216876022072
 30
0.0
 11
1962.227787368274
 21
1852.188478547798
 31
0.0
  0
LINE
  5
9A7E
  8
0
 10
1962.227787368274
 20
1852.188478547798
 30
0.0
 11
1945.006549330306
 21
1835.022148870517
 31
0.0
  0
LINE
  5
9A7F
  8
0
 10
1945.006549330306
 20
1835.022148870517
 30
0.0
 11
1819.322501027493
 21
1835.022148870517
 31
0.0
  0
LINE
  5
9A80
  8
0
 10
1819.322501027493
 20
1835.022148870517
 30
0.0
 11
1802.101262989525
 21
1852.188478547798
 31
0.0
  0
LINE
  5
9A81
  8
0
 10
1962.006434694265
 20
1950.633937098104
 30
0.0
 11
1802.89813261596
 21
1950.633937098104
 31
0.0
  0
LINE
  5
9A82
  8
0
 10
1962.006434694265
 20
1877.682587822725
 30
0.0
 11
1802.89813261596
 21
1877.682587822725
 31
0.0
  0
LINE
  5
9A83
  8
0
 10
1962.227787368274
 20
1852.188478547798
 30
0.0
 11
1962.227787368274
 21
1976.216876022072
 31
0.0
  0
LINE
  5
9A84
  8
0
 10
1962.227787368274
 20
1976.216876022072
 30
0.0
 11
1979.493295941046
 21
1993.383205699353
 31
0.0
  0
LINE
  5
9A85
  8
0
 10
1979.493295941046
 20
1993.383205699353
 30
0.0
 11
2105.133073709056
 21
1993.383205699353
 31
0.0
  0
LINE
  5
9A86
  8
0
 10
2105.133073709056
 20
1993.383205699353
 30
0.0
 11
2122.354311747025
 21
1976.216876022072
 31
0.0
  0
LINE
  5
9A87
  8
0
 10
2122.354311747025
 20
1976.216876022072
 30
0.0
 11
2122.354311747025
 21
1852.188478547798
 31
0.0
  0
LINE
  5
9A88
  8
0
 10
2122.354311747025
 20
1852.188478547798
 30
0.0
 11
2105.133073709056
 21
1835.022148870517
 31
0.0
  0
LINE
  5
9A89
  8
0
 10
2105.133073709056
 20
1835.022148870517
 30
0.0
 11
1979.493295941046
 21
1835.022148870517
 31
0.0
  0
LINE
  5
9A8A
  8
0
 10
1979.493295941046
 20
1835.022148870517
 30
0.0
 11
1962.227787368274
 21
1852.188478547798
 31
0.0
  0
LINE
  5
9A8B
  8
0
 10
2122.088688538213
 20
1950.633937098104
 30
0.0
 11
1963.068927529513
 21
1950.633937098104
 31
0.0
  0
LINE
  5
9A8C
  8
0
 10
2122.088688538213
 20
1877.682587822725
 30
0.0
 11
1963.068927529513
 21
1877.682587822725
 31
0.0
  0
LINE
  5
9A8D
  8
0
 10
1001.42437056097
 20
1693.849629131222
 30
0.0
 11
1001.42437056097
 21
1817.855819193236
 31
0.0
  0
LINE
  5
9A8E
  8
0
 10
1001.42437056097
 20
1817.855819193236
 30
0.0
 11
1018.689879133742
 21
1835.022148870517
 31
0.0
  0
LINE
  5
9A8F
  8
0
 10
1018.689879133742
 20
1835.022148870517
 30
0.0
 11
1144.28538636695
 21
1835.022148870517
 31
0.0
  0
LINE
  5
9A90
  8
0
 10
1144.28538636695
 20
1835.022148870517
 30
0.0
 11
1161.50662440492
 21
1817.855819193236
 31
0.0
  0
LINE
  5
9A91
  8
0
 10
1161.50662440492
 20
1817.855819193236
 30
0.0
 11
1161.50662440492
 21
1693.849629131222
 31
0.0
  0
LINE
  5
9A92
  8
0
 10
1161.50662440492
 20
1693.849629131222
 30
0.0
 11
1144.28538636695
 21
1676.63888462942
 31
0.0
  0
LINE
  5
9A93
  8
0
 10
1144.28538636695
 20
1676.63888462942
 30
0.0
 11
1018.689879133742
 21
1676.63888462942
 31
0.0
  0
LINE
  5
9A94
  8
0
 10
1018.689879133742
 20
1676.63888462942
 30
0.0
 11
1001.42437056097
 21
1693.849629131222
 31
0.0
  0
LINE
  5
9A95
  8
0
 10
1161.329542265711
 20
1792.339502506049
 30
0.0
 11
1002.265510722208
 21
1792.339502506049
 31
0.0
  0
LINE
  5
9A96
  8
0
 10
1161.329542265711
 20
1719.321530993889
 30
0.0
 11
1002.265510722208
 21
1719.321530993889
 31
0.0
  0
LINE
  5
9A97
  8
0
 10
1161.50662440492
 20
1693.849629131222
 30
0.0
 11
1161.50662440492
 21
1817.855819193236
 31
0.0
  0
LINE
  5
9A98
  8
0
 10
1161.50662440492
 20
1817.855819193236
 30
0.0
 11
1178.77213297769
 21
1835.022148870517
 31
0.0
  0
LINE
  5
9A99
  8
0
 10
1178.77213297769
 20
1835.022148870517
 30
0.0
 11
1304.4119107457
 21
1835.022148870517
 31
0.0
  0
LINE
  5
9A9A
  8
0
 10
1304.4119107457
 20
1835.022148870517
 30
0.0
 11
1321.677419318472
 21
1817.855819193236
 31
0.0
  0
LINE
  5
9A9B
  8
0
 10
1321.677419318472
 20
1817.855819193236
 30
0.0
 11
1321.677419318472
 21
1693.849629131222
 31
0.0
  0
LINE
  5
9A9C
  8
0
 10
1321.677419318472
 20
1693.849629131222
 30
0.0
 11
1304.4119107457
 21
1676.63888462942
 31
0.0
  0
LINE
  5
9A9D
  8
0
 10
1304.4119107457
 20
1676.63888462942
 30
0.0
 11
1178.77213297769
 21
1676.63888462942
 31
0.0
  0
LINE
  5
9A9E
  8
0
 10
1178.77213297769
 20
1676.63888462942
 30
0.0
 11
1161.50662440492
 21
1693.849629131222
 31
0.0
  0
LINE
  5
9A9F
  8
0
 10
1321.500337179264
 20
1792.339502506049
 30
0.0
 11
1162.347764566157
 21
1792.339502506049
 31
0.0
  0
LINE
  5
9AA0
  8
0
 10
1321.500337179264
 20
1719.321530993889
 30
0.0
 11
1162.347764566157
 21
1719.321530993889
 31
0.0
  0
LINE
  5
9AA1
  8
0
 10
1321.677419318472
 20
1693.849629131222
 30
0.0
 11
1321.677419318472
 21
1817.855819193236
 31
0.0
  0
LINE
  5
9AA2
  8
0
 10
1321.677419318472
 20
1817.855819193236
 30
0.0
 11
1338.89865735644
 21
1835.022148870517
 31
0.0
  0
LINE
  5
9AA3
  8
0
 10
1338.89865735644
 20
1835.022148870517
 30
0.0
 11
1464.626976194055
 21
1835.022148870517
 31
0.0
  0
LINE
  5
9AA4
  8
0
 10
1464.626976194055
 20
1835.022148870517
 30
0.0
 11
1481.803943697221
 21
1817.855819193236
 31
0.0
  0
LINE
  5
9AA5
  8
0
 10
1481.803943697221
 20
1817.855819193236
 30
0.0
 11
1481.803943697221
 21
1693.849629131222
 31
0.0
  0
LINE
  5
9AA6
  8
0
 10
1481.803943697221
 20
1693.849629131222
 30
0.0
 11
1464.626976194055
 21
1676.63888462942
 31
0.0
  0
LINE
  5
9AA7
  8
0
 10
1464.626976194055
 20
1676.63888462942
 30
0.0
 11
1338.89865735644
 21
1676.63888462942
 31
0.0
  0
LINE
  5
9AA8
  8
0
 10
1338.89865735644
 20
1676.63888462942
 30
0.0
 11
1321.677419318472
 21
1693.849629131222
 31
0.0
  0
LINE
  5
9AA9
  8
0
 10
1481.626861558013
 20
1792.295087681528
 30
0.0
 11
1322.474288944907
 21
1792.339502506049
 31
0.0
  0
LINE
  5
9AAA
  8
0
 10
1481.626861558013
 20
1719.321530993889
 30
0.0
 11
1322.474288944907
 21
1719.321530993889
 31
0.0
  0
LINE
  5
9AAB
  8
0
 10
1481.803943697221
 20
1693.849629131222
 30
0.0
 11
1481.803943697221
 21
1817.855819193236
 31
0.0
  0
LINE
  5
9AAC
  8
0
 10
1481.803943697221
 20
1817.855819193236
 30
0.0
 11
1499.069452269993
 21
1835.022148870517
 31
0.0
  0
LINE
  5
9AAD
  8
0
 10
1499.069452269993
 20
1835.022148870517
 30
0.0
 11
1624.709230038003
 21
1835.022148870517
 31
0.0
  0
LINE
  5
9AAE
  8
0
 10
1624.709230038003
 20
1835.022148870517
 30
0.0
 11
1641.930468075973
 21
1817.855819193236
 31
0.0
  0
LINE
  5
9AAF
  8
0
 10
1641.930468075973
 20
1817.855819193236
 30
0.0
 11
1641.930468075973
 21
1693.849629131222
 31
0.0
  0
LINE
  5
9AB0
  8
0
 10
1641.930468075973
 20
1693.849629131222
 30
0.0
 11
1624.709230038003
 21
1676.63888462942
 31
0.0
  0
LINE
  5
9AB1
  8
0
 10
1624.709230038003
 20
1676.63888462942
 30
0.0
 11
1499.069452269993
 21
1676.63888462942
 31
0.0
  0
LINE
  5
9AB2
  8
0
 10
1499.069452269993
 20
1676.63888462942
 30
0.0
 11
1481.803943697221
 21
1693.849629131222
 31
0.0
  0
LINE
  5
9AB3
  8
0
 10
1641.709115401963
 20
1792.295087681528
 30
0.0
 11
1482.600813323657
 21
1792.295087681528
 31
0.0
  0
LINE
  5
9AB4
  8
0
 10
1641.709115401963
 20
1719.321530993889
 30
0.0
 11
1482.600813323657
 21
1719.321530993889
 31
0.0
  0
LINE
  5
9AB5
  8
0
 10
1641.930468075973
 20
1693.849629131222
 30
0.0
 11
1641.930468075973
 21
1817.855819193236
 31
0.0
  0
LINE
  5
9AB6
  8
0
 10
1641.930468075973
 20
1817.855819193236
 30
0.0
 11
1659.195976648743
 21
1835.022148870517
 31
0.0
  0
LINE
  5
9AB7
  8
0
 10
1659.195976648743
 20
1835.022148870517
 30
0.0
 11
1784.835754416753
 21
1835.022148870517
 31
0.0
  0
LINE
  5
9AB8
  8
0
 10
1784.835754416753
 20
1835.022148870517
 30
0.0
 11
1802.101262989525
 21
1817.855819193236
 31
0.0
  0
LINE
  5
9AB9
  8
0
 10
1802.101262989525
 20
1817.855819193236
 30
0.0
 11
1802.101262989525
 21
1693.849629131222
 31
0.0
  0
LINE
  5
9ABA
  8
0
 10
1802.101262989525
 20
1693.849629131222
 30
0.0
 11
1784.835754416753
 21
1676.63888462942
 31
0.0
  0
LINE
  5
9ABB
  8
0
 10
1784.835754416753
 20
1676.63888462942
 30
0.0
 11
1659.195976648743
 21
1676.63888462942
 31
0.0
  0
LINE
  5
9ABC
  8
0
 10
1659.195976648743
 20
1676.63888462942
 30
0.0
 11
1641.930468075973
 21
1693.849629131222
 31
0.0
  0
LINE
  5
9ABD
  8
0
 10
1801.879910315515
 20
1792.295087681528
 30
0.0
 11
1642.77160823721
 21
1792.295087681528
 31
0.0
  0
LINE
  5
9ABE
  8
0
 10
1801.879910315515
 20
1719.321530993889
 30
0.0
 11
1642.77160823721
 21
1719.321530993889
 31
0.0
  0
LINE
  5
9ABF
  8
0
 10
1802.101262989525
 20
1693.849629131222
 30
0.0
 11
1802.101262989525
 21
1817.855819193236
 31
0.0
  0
LINE
  5
9AC0
  8
0
 10
1802.101262989525
 20
1817.855819193236
 30
0.0
 11
1819.322501027493
 21
1835.022148870517
 31
0.0
  0
LINE
  5
9AC1
  8
0
 10
1819.322501027493
 20
1835.022148870517
 30
0.0
 11
1945.006549330306
 21
1835.022148870517
 31
0.0
  0
LINE
  5
9AC2
  8
0
 10
1945.006549330306
 20
1835.022148870517
 30
0.0
 11
1962.227787368274
 21
1817.855819193236
 31
0.0
  0
LINE
  5
9AC3
  8
0
 10
1962.227787368274
 20
1817.855819193236
 30
0.0
 11
1962.227787368274
 21
1693.849629131222
 31
0.0
  0
LINE
  5
9AC4
  8
0
 10
1962.227787368274
 20
1693.849629131222
 30
0.0
 11
1945.006549330306
 21
1676.63888462942
 31
0.0
  0
LINE
  5
9AC5
  8
0
 10
1945.006549330306
 20
1676.63888462942
 30
0.0
 11
1819.322501027493
 21
1676.63888462942
 31
0.0
  0
LINE
  5
9AC6
  8
0
 10
1819.322501027493
 20
1676.63888462942
 30
0.0
 11
1802.101262989525
 21
1693.849629131222
 31
0.0
  0
LINE
  5
9AC7
  8
0
 10
1962.006434694265
 20
1792.295087681528
 30
0.0
 11
1802.89813261596
 21
1792.295087681528
 31
0.0
  0
LINE
  5
9AC8
  8
0
 10
1962.006434694265
 20
1719.321530993889
 30
0.0
 11
1802.89813261596
 21
1719.321530993889
 31
0.0
  0
LINE
  5
9AC9
  8
0
 10
1962.227787368274
 20
1693.849629131222
 30
0.0
 11
1962.227787368274
 21
1817.855819193236
 31
0.0
  0
LINE
  5
9ACA
  8
0
 10
1962.227787368274
 20
1817.855819193236
 30
0.0
 11
1979.493295941046
 21
1835.022148870517
 31
0.0
  0
LINE
  5
9ACB
  8
0
 10
1979.493295941046
 20
1835.022148870517
 30
0.0
 11
2105.133073709056
 21
1835.022148870517
 31
0.0
  0
LINE
  5
9ACC
  8
0
 10
2105.133073709056
 20
1835.022148870517
 30
0.0
 11
2122.354311747025
 21
1817.855819193236
 31
0.0
  0
LINE
  5
9ACD
  8
0
 10
2122.354311747025
 20
1817.855819193236
 30
0.0
 11
2122.354311747025
 21
1693.849629131222
 31
0.0
  0
LINE
  5
9ACE
  8
0
 10
2122.354311747025
 20
1693.849629131222
 30
0.0
 11
2105.133073709056
 21
1676.63888462942
 31
0.0
  0
LINE
  5
9ACF
  8
0
 10
2105.133073709056
 20
1676.63888462942
 30
0.0
 11
1979.493295941046
 21
1676.63888462942
 31
0.0
  0
LINE
  5
9AD0
  8
0
 10
1979.493295941046
 20
1676.63888462942
 30
0.0
 11
1962.227787368274
 21
1693.849629131222
 31
0.0
  0
LINE
  5
9AD1
  8
0
 10
2122.088688538213
 20
1792.295087681528
 30
0.0
 11
1963.068927529513
 21
1792.295087681528
 31
0.0
  0
LINE
  5
9AD2
  8
0
 10
2122.088688538213
 20
1719.321530993889
 30
0.0
 11
1963.068927529513
 21
1719.321530993889
 31
0.0
  0
LINE
  5
9AD3
  8
0
 10
1001.42437056097
 20
1535.466364890126
 30
0.0
 11
1001.42437056097
 21
1659.494762364399
 31
0.0
  0
LINE
  5
9AD4
  8
0
 10
1001.42437056097
 20
1659.494762364399
 30
0.0
 11
1018.689879133742
 21
1676.63888462942
 31
0.0
  0
LINE
  5
9AD5
  8
0
 10
1018.689879133742
 20
1676.63888462942
 30
0.0
 11
1144.28538636695
 21
1676.63888462942
 31
0.0
  0
LINE
  5
9AD6
  8
0
 10
1144.28538636695
 20
1676.63888462942
 30
0.0
 11
1161.50662440492
 21
1659.494762364399
 31
0.0
  0
LINE
  5
9AD7
  8
0
 10
1161.50662440492
 20
1659.494762364399
 30
0.0
 11
1161.50662440492
 21
1535.466364890126
 31
0.0
  0
LINE
  5
9AD8
  8
0
 10
1161.50662440492
 20
1535.466364890126
 30
0.0
 11
1144.28538636695
 21
1518.300035212846
 31
0.0
  0
LINE
  5
9AD9
  8
0
 10
1144.28538636695
 20
1518.300035212846
 30
0.0
 11
1018.689879133742
 21
1518.300035212846
 31
0.0
  0
LINE
  5
9ADA
  8
0
 10
1018.689879133742
 20
1518.300035212846
 30
0.0
 11
1001.42437056097
 21
1535.466364890126
 31
0.0
  0
LINE
  5
9ADB
  8
0
 10
1161.329542265711
 20
1633.956238264953
 30
0.0
 11
1002.265510722208
 21
1633.956238264953
 31
0.0
  0
LINE
  5
9ADC
  8
0
 10
1161.329542265711
 20
1560.982681577313
 30
0.0
 11
1002.265510722208
 21
1560.982681577313
 31
0.0
  0
LINE
  5
9ADD
  8
0
 10
1161.50662440492
 20
1535.466364890126
 30
0.0
 11
1161.50662440492
 21
1659.494762364399
 31
0.0
  0
LINE
  5
9ADE
  8
0
 10
1161.50662440492
 20
1659.494762364399
 30
0.0
 11
1178.77213297769
 21
1676.63888462942
 31
0.0
  0
LINE
  5
9ADF
  8
0
 10
1178.77213297769
 20
1676.63888462942
 30
0.0
 11
1304.4119107457
 21
1676.63888462942
 31
0.0
  0
LINE
  5
9AE0
  8
0
 10
1304.4119107457
 20
1676.63888462942
 30
0.0
 11
1321.677419318472
 21
1659.494762364399
 31
0.0
  0
LINE
  5
9AE1
  8
0
 10
1321.677419318472
 20
1659.494762364399
 30
0.0
 11
1321.677419318472
 21
1535.466364890126
 31
0.0
  0
LINE
  5
9AE2
  8
0
 10
1321.677419318472
 20
1535.466364890126
 30
0.0
 11
1304.4119107457
 21
1518.300035212846
 31
0.0
  0
LINE
  5
9AE3
  8
0
 10
1304.4119107457
 20
1518.300035212846
 30
0.0
 11
1178.77213297769
 21
1518.300035212846
 31
0.0
  0
LINE
  5
9AE4
  8
0
 10
1178.77213297769
 20
1518.300035212846
 30
0.0
 11
1161.50662440492
 21
1535.466364890126
 31
0.0
  0
LINE
  5
9AE5
  8
0
 10
1321.500337179264
 20
1633.956238264953
 30
0.0
 11
1162.347764566157
 21
1633.956238264953
 31
0.0
  0
LINE
  5
9AE6
  8
0
 10
1321.500337179264
 20
1560.982681577313
 30
0.0
 11
1162.347764566157
 21
1560.982681577313
 31
0.0
  0
LINE
  5
9AE7
  8
0
 10
1321.677419318472
 20
1535.466364890126
 30
0.0
 11
1321.677419318472
 21
1659.494762364399
 31
0.0
  0
LINE
  5
9AE8
  8
0
 10
1321.677419318472
 20
1659.494762364399
 30
0.0
 11
1338.89865735644
 21
1676.63888462942
 31
0.0
  0
LINE
  5
9AE9
  8
0
 10
1338.89865735644
 20
1676.63888462942
 30
0.0
 11
1464.626976194055
 21
1676.63888462942
 31
0.0
  0
LINE
  5
9AEA
  8
0
 10
1464.626976194055
 20
1676.63888462942
 30
0.0
 11
1481.803943697221
 21
1659.494762364399
 31
0.0
  0
LINE
  5
9AEB
  8
0
 10
1481.803943697221
 20
1659.494762364399
 30
0.0
 11
1481.803943697221
 21
1535.466364890126
 31
0.0
  0
LINE
  5
9AEC
  8
0
 10
1481.803943697221
 20
1535.466364890126
 30
0.0
 11
1464.626976194055
 21
1518.300035212846
 31
0.0
  0
LINE
  5
9AED
  8
0
 10
1464.626976194055
 20
1518.300035212846
 30
0.0
 11
1338.89865735644
 21
1518.300035212846
 31
0.0
  0
LINE
  5
9AEE
  8
0
 10
1338.89865735644
 20
1518.300035212846
 30
0.0
 11
1321.677419318472
 21
1535.466364890126
 31
0.0
  0
LINE
  5
9AEF
  8
0
 10
1481.626861558013
 20
1633.956238264953
 30
0.0
 11
1322.474288944907
 21
1633.956238264953
 31
0.0
  0
LINE
  5
9AF0
  8
0
 10
1481.626861558013
 20
1560.982681577313
 30
0.0
 11
1322.474288944907
 21
1560.982681577313
 31
0.0
  0
LINE
  5
9AF1
  8
0
 10
1481.803943697221
 20
1535.466364890126
 30
0.0
 11
1481.803943697221
 21
1659.494762364399
 31
0.0
  0
LINE
  5
9AF2
  8
0
 10
1481.803943697221
 20
1659.494762364399
 30
0.0
 11
1499.069452269993
 21
1676.63888462942
 31
0.0
  0
LINE
  5
9AF3
  8
0
 10
1499.069452269993
 20
1676.63888462942
 30
0.0
 11
1624.709230038003
 21
1676.63888462942
 31
0.0
  0
LINE
  5
9AF4
  8
0
 10
1624.709230038003
 20
1676.63888462942
 30
0.0
 11
1641.930468075973
 21
1659.494762364399
 31
0.0
  0
LINE
  5
9AF5
  8
0
 10
1641.930468075973
 20
1659.494762364399
 30
0.0
 11
1641.930468075973
 21
1535.466364890126
 31
0.0
  0
LINE
  5
9AF6
  8
0
 10
1641.930468075973
 20
1535.466364890126
 30
0.0
 11
1624.709230038003
 21
1518.300035212846
 31
0.0
  0
LINE
  5
9AF7
  8
0
 10
1624.709230038003
 20
1518.300035212846
 30
0.0
 11
1499.069452269993
 21
1518.300035212846
 31
0.0
  0
LINE
  5
9AF8
  8
0
 10
1499.069452269993
 20
1518.300035212846
 30
0.0
 11
1481.803943697221
 21
1535.466364890126
 31
0.0
  0
LINE
  5
9AF9
  8
0
 10
1641.709115401963
 20
1633.956238264953
 30
0.0
 11
1482.600813323657
 21
1633.956238264953
 31
0.0
  0
LINE
  5
9AFA
  8
0
 10
1641.709115401963
 20
1560.982681577313
 30
0.0
 11
1482.600813323657
 21
1560.982681577313
 31
0.0
  0
LINE
  5
9AFB
  8
0
 10
1641.930468075973
 20
1535.466364890126
 30
0.0
 11
1641.930468075973
 21
1659.494762364399
 31
0.0
  0
LINE
  5
9AFC
  8
0
 10
1641.930468075973
 20
1659.494762364399
 30
0.0
 11
1659.195976648743
 21
1676.63888462942
 31
0.0
  0
LINE
  5
9AFD
  8
0
 10
1659.195976648743
 20
1676.63888462942
 30
0.0
 11
1784.835754416753
 21
1676.63888462942
 31
0.0
  0
LINE
  5
9AFE
  8
0
 10
1784.835754416753
 20
1676.63888462942
 30
0.0
 11
1802.101262989525
 21
1659.494762364399
 31
0.0
  0
LINE
  5
9AFF
  8
0
 10
1802.101262989525
 20
1659.494762364399
 30
0.0
 11
1802.101262989525
 21
1535.466364890126
 31
0.0
  0
LINE
  5
9B00
  8
0
 10
1802.101262989525
 20
1535.466364890126
 30
0.0
 11
1784.835754416753
 21
1518.300035212846
 31
0.0
  0
LINE
  5
9B01
  8
0
 10
1784.835754416753
 20
1518.300035212846
 30
0.0
 11
1659.195976648743
 21
1518.300035212846
 31
0.0
  0
LINE
  5
9B02
  8
0
 10
1659.195976648743
 20
1518.300035212846
 30
0.0
 11
1641.930468075973
 21
1535.466364890126
 31
0.0
  0
LINE
  5
9B03
  8
0
 10
1801.879910315515
 20
1633.956238264953
 30
0.0
 11
1642.77160823721
 21
1633.956238264953
 31
0.0
  0
LINE
  5
9B04
  8
0
 10
1801.879910315515
 20
1560.982681577313
 30
0.0
 11
1642.77160823721
 21
1560.982681577313
 31
0.0
  0
LINE
  5
9B05
  8
0
 10
1802.101262989525
 20
1535.466364890126
 30
0.0
 11
1802.101262989525
 21
1659.494762364399
 31
0.0
  0
LINE
  5
9B06
  8
0
 10
1802.101262989525
 20
1659.494762364399
 30
0.0
 11
1819.322501027493
 21
1676.63888462942
 31
0.0
  0
LINE
  5
9B07
  8
0
 10
1819.322501027493
 20
1676.63888462942
 30
0.0
 11
1945.006549330306
 21
1676.63888462942
 31
0.0
  0
LINE
  5
9B08
  8
0
 10
1945.006549330306
 20
1676.63888462942
 30
0.0
 11
1962.227787368274
 21
1659.494762364399
 31
0.0
  0
LINE
  5
9B09
  8
0
 10
1962.227787368274
 20
1659.494762364399
 30
0.0
 11
1962.227787368274
 21
1535.466364890126
 31
0.0
  0
LINE
  5
9B0A
  8
0
 10
1962.227787368274
 20
1535.466364890126
 30
0.0
 11
1945.006549330306
 21
1518.300035212846
 31
0.0
  0
LINE
  5
9B0B
  8
0
 10
1945.006549330306
 20
1518.300035212846
 30
0.0
 11
1819.322501027493
 21
1518.300035212846
 31
0.0
  0
LINE
  5
9B0C
  8
0
 10
1819.322501027493
 20
1518.300035212846
 30
0.0
 11
1802.101262989525
 21
1535.466364890126
 31
0.0
  0
LINE
  5
9B0D
  8
0
 10
1962.006434694265
 20
1633.956238264953
 30
0.0
 11
1802.89813261596
 21
1633.956238264953
 31
0.0
  0
LINE
  5
9B0E
  8
0
 10
1962.006434694265
 20
1560.982681577313
 30
0.0
 11
1802.89813261596
 21
1560.982681577313
 31
0.0
  0
LINE
  5
9B0F
  8
0
 10
1962.227787368274
 20
1535.466364890126
 30
0.0
 11
1962.227787368274
 21
1659.494762364399
 31
0.0
  0
LINE
  5
9B10
  8
0
 10
1962.227787368274
 20
1659.494762364399
 30
0.0
 11
1979.493295941046
 21
1676.63888462942
 31
0.0
  0
LINE
  5
9B11
  8
0
 10
1979.493295941046
 20
1676.63888462942
 30
0.0
 11
2105.133073709056
 21
1676.63888462942
 31
0.0
  0
LINE
  5
9B12
  8
0
 10
2105.133073709056
 20
1676.63888462942
 30
0.0
 11
2122.354311747025
 21
1659.494762364399
 31
0.0
  0
LINE
  5
9B13
  8
0
 10
2122.354311747025
 20
1659.494762364399
 30
0.0
 11
2122.354311747025
 21
1535.466364890126
 31
0.0
  0
LINE
  5
9B14
  8
0
 10
2122.354311747025
 20
1535.466364890126
 30
0.0
 11
2105.133073709056
 21
1518.300035212846
 31
0.0
  0
LINE
  5
9B15
  8
0
 10
2105.133073709056
 20
1518.300035212846
 30
0.0
 11
1979.493295941046
 21
1518.300035212846
 31
0.0
  0
LINE
  5
9B16
  8
0
 10
1979.493295941046
 20
1518.300035212846
 30
0.0
 11
1962.227787368274
 21
1535.466364890126
 31
0.0
  0
LINE
  5
9B17
  8
0
 10
2122.088688538213
 20
1633.956238264953
 30
0.0
 11
1963.068927529513
 21
1633.956238264953
 31
0.0
  0
LINE
  5
9B18
  8
0
 10
2122.088688538213
 20
1560.982681577313
 30
0.0
 11
1963.068927529513
 21
1560.982681577313
 31
0.0
  0
LINE
  5
9B19
  8
0
 10
985.0000021494438
 20
1501.888757552419
 30
0.0
 11
985.0000021494438
 21
2484.888757552426
 31
0.0
  0
LINE
  5
9B1A
  8
0
 10
985.0000021494438
 20
2484.888757552426
 30
0.0
 11
2139.000032832569
 21
2484.888757552426
 31
0.0
  0
LINE
  5
9B1B
  8
0
 10
2139.000032832569
 20
2484.888757552426
 30
0.0
 11
2139.000032832569
 21
1501.888757552419
 31
0.0
  0
LINE
  5
9B1C
  8
0
 10
2139.000032832569
 20
1501.888757552419
 30
0.0
 11
985.0000021494438
 21
1501.888757552419
 31
0.0
  0
LINE
  5
9B1D
  8
0
 10
993.2343216226207
 20
2476.649807603817
 30
0.0
 11
2130.809983894203
 21
2476.649807603817
 31
0.0
  0
LINE
  5
9B1E
  8
0
 10
2130.809983894203
 20
2476.649807603817
 30
0.0
 11
2130.809983894203
 21
1510.12770750102
 31
0.0
  0
LINE
  5
9B1F
  8
0
 10
2130.809983894203
 20
1510.12770750102
 30
0.0
 11
993.2343216226207
 21
1510.12770750102
 31
0.0
  0
LINE
  5
9B20
  8
0
 10
993.2343216226207
 20
1510.12770750102
 30
0.0
 11
993.2343216226207
 21
2476.649807603817
 31
0.0
  0
LINE
  5
9CBF
  8
0
 10
2439.000032832569
 20
2485.013757552419
 30
0.0
 11
2439.000032832569
 21
2685.248757552426
 31
0.0
  0
LINE
  5
9CC0
  8
0
 10
2484.999997850557
 20
2485.013757552419
 30
0.0
 11
2484.999997850557
 21
2685.248757552426
 31
0.0
  0
LINE
  5
9CC1
  8
0
 10
2369.000032832569
 20
2684.888757552426
 30
0.0
 11
2299.000032832569
 21
2684.888757552426
 31
0.0
  0
LINE
  5
9CC2
  8
0
 10
2554.999997850557
 20
2684.888757552426
 30
0.0
 11
2757.670452396011
 21
2684.888757552426
 31
0.0
  0
LINE
  5
9CC3
  8
0
 10
2439.000032832569
 20
2684.888757552426
 30
0.0
 11
2484.999997850557
 21
2684.888757552426
 31
0.0
  0
LINE
  5
9CC7
  8
0
 10
985.0000021494438
 20
2485.013757552426
 30
0.0
 11
985.0000021494438
 21
2685.248757552426
 31
0.0
  0
LINE
  5
9CC8
  8
0
 10
2139.000032832569
 20
2485.013757552426
 30
0.0
 11
2139.000032832569
 21
2685.248757552426
 31
0.0
  0
LINE
  5
9CC9
  8
0
 10
1055.000002149444
 20
2684.888757552426
 30
0.0
 11
2069.000032832569
 21
2684.888757552426
 31
0.0
  0
LINE
  5
9CCD
  8
0
 10
2139.125032832569
 20
1501.888757552419
 30
0.0
 11
2239.360032832569
 21
1501.888757552419
 31
0.0
  0
LINE
  5
9CCE
  8
0
 10
2139.125032832569
 20
2484.888757552426
 30
0.0
 11
2239.360032832569
 21
2484.888757552426
 31
0.0
  0
LINE
  5
9CCF
  8
0
 10
2239.000032832569
 20
1571.888757552419
 30
0.0
 11
2239.000032832569
 21
2414.888757552426
 31
0.0
  0
LINE
  5
9CE9
  8
0
 10
3655.0
 20
2543.388757552422
 30
0.0
 11
5155.0
 21
2543.388757552422
 31
0.0
  0
LINE
  5
9CEA
  8
0
 10
3655.0
 20
2443.388757552422
 30
0.0
 11
5155.0
 21
2443.388757552422
 31
0.0
  0
LINE
  5
9CEB
  8
0
 10
3655.0
 20
2343.388757552422
 30
0.0
 11
5155.0
 21
2343.388757552422
 31
0.0
  0
LINE
  5
9CEC
  8
0
 10
3655.0
 20
2243.388757552422
 30
0.0
 11
5155.0
 21
2243.388757552422
 31
0.0
  0
LINE
  5
9CED
  8
0
 10
3655.0
 20
2143.388757552422
 30
0.0
 11
5155.0
 21
2143.388757552422
 31
0.0
  0
LINE
  5
9CEE
  8
0
 10
3655.0
 20
2043.388757552422
 30
0.0
 11
5155.0
 21
2043.388757552422
 31
0.0
  0
LINE
  5
9CEF
  8
0
 10
3655.0
 20
1943.388757552422
 30
0.0
 11
5155.0
 21
1943.388757552422
 31
0.0
  0
LINE
  5
9CF0
  8
0
 10
3655.0
 20
1843.388757552422
 30
0.0
 11
5155.0
 21
1843.388757552422
 31
0.0
  0
LINE
  5
9CF1
  8
0
 10
3655.0
 20
1743.388757552422
 30
0.0
 11
5155.0
 21
1743.388757552422
 31
0.0
  0
LINE
  5
9CF2
  8
0
 10
3655.0
 20
1643.388757552422
 30
0.0
 11
5155.0
 21
1643.388757552422
 31
0.0
  0
LINE
  5
9CF3
  8
0
 10
3655.0
 20
1543.388757552422
 30
0.0
 11
5155.0
 21
1543.388757552422
 31
0.0
  0
LINE
  5
9CF4
  8
0
 10
3655.0
 20
1443.388757552422
 30
0.0
 11
5155.0
 21
1443.388757552422
 31
0.0
  0
LINE
  5
9CF5
  8
0
 10
3655.0
 20
2543.388757552422
 30
0.0
 11
3655.0
 21
1443.388757552422
 31
0.0
  0
LINE
  5
9CF6
  8
0
 10
4355.0
 20
2543.388757552422
 30
0.0
 11
4355.0
 21
1443.388757552422
 31
0.0
  0
LINE
  5
9CF7
  8
0
 10
5155.0
 20
2543.388757552422
 30
0.0
 11
5155.0
 21
1443.388757552422
 31
0.0
  0
LINE
  5
9CF8
  8
0
 62
     8
 10
3655.0
 20
2543.388757552422
 30
0.0
 11
3655.0
 21
2543.388757552422
 31
0.0
  0
LINE
  5
9CF9
  8
図面枠
 10
5740.0
 20
200.0
 30
0.0
 11
5740.0
 21
4000.0
 31
0.0
  0
LINE
  5
9CFA
  8
図面枠
 10
5740.0
 20
4000.0
 30
0.0
 11
400.0
 21
4000.0
 31
0.0
  0
LINE
  5
9CFB
  8
図面枠
 10
400.0
 20
4000.0
 30
0.0
 11
400.0
 21
200.0
 31
0.0
  0
LINE
  5
9CFC
  8
図面枠
 10
400.0
 20
200.0
 30
0.0
 11
5740.0
 21
200.0
 31
0.0
  0
LINE
  5
9CFD
  8
用紙枠
 10
0.0
 20
0.0
 30
0.0
 11
5940.0
 21
0.0
 31
0.0
  0
LINE
  5
9CFE
  8
用紙枠
 10
5940.0
 20
0.0
 30
0.0
 11
5940.0
 21
4200.0
 31
0.0
  0
LINE
  5
9CFF
  8
用紙枠
 10
5940.0
 20
4200.0
 30
0.0
 11
0.0
 21
4200.0
 31
0.0
  0
LINE
  5
9D00
  8
用紙枠
 10
0.0
 20
4200.0
 30
0.0
 11
0.0
 21
0.0
 31
0.0
  0
TEXT
  5
9D01
  8
0
 10
2641.420452396011
 20
2704.888757552426
 30
0.0
 40
70.0
  1
46
  0
LINE
  5
9D02
  8
0
 10
2554.999997850557
 20
2673.222090885759
 30
0.0
 11
2484.999997850557
 21
2684.888757552426
 31
0.0
  0
LINE
  5
9D03
  8
0
 10
2554.999997850557
 20
2696.555424219092
 30
0.0
 11
2484.999997850557
 21
2684.888757552426
 31
0.0
  0
LINE
  5
9D04
  8
0
 10
2484.999997850557
 20
2684.888757552426
 30
0.0
 11
2554.999997850557
 21
2684.888757552426
 31
0.0
  0
LINE
  5
9D05
  8
0
 10
2369.000032832569
 20
2696.555424219092
 30
0.0
 11
2439.000032832569
 21
2684.888757552426
 31
0.0
  0
LINE
  5
9D06
  8
0
 10
2369.000032832569
 20
2673.222090885759
 30
0.0
 11
2439.000032832569
 21
2684.888757552426
 31
0.0
  0
LINE
  5
9D07
  8
0
 10
2439.000032832569
 20
2684.888757552426
 30
0.0
 11
2369.000032832569
 21
2684.888757552426
 31
0.0
  0
TEXT
  5
9D08
  8
0
 10
1456.403426581915
 20
2704.888757552426
 30
0.0
 40
70.0
  1
1154
  0
LINE
  5
9D09
  8
0
 10
2069.000032832569
 20
2696.555424219092
 30
0.0
 11
2139.000032832569
 21
2684.888757552426
 31
0.0
  0
LINE
  5
9D0A
  8
0
 10
2069.000032832569
 20
2673.222090885759
 30
0.0
 11
2139.000032832569
 21
2684.888757552426
 31
0.0
  0
LINE
  5
9D0B
  8
0
 10
2139.000032832569
 20
2684.888757552426
 30
0.0
 11
2069.000032832569
 21
2684.888757552426
 31
0.0
  0
LINE
  5
9D0C
  8
0
 10
1055.000002149444
 20
2673.222090885759
 30
0.0
 11
985.0000021494438
 21
2684.888757552426
 31
0.0
  0
LINE
  5
9D0D
  8
0
 10
1055.000002149444
 20
2696.555424219092
 30
0.0
 11
985.0000021494438
 21
2684.888757552426
 31
0.0
  0
LINE
  5
9D0E
  8
0
 10
985.0000021494438
 20
2684.888757552426
 30
0.0
 11
1055.000002149444
 21
2684.888757552426
 31
0.0
  0
TEXT
  5
9D0F
  8
0
 10
2219.000032832568
 20
1916.826257552422
 30
0.0
 40
70.0
  1
983
 50
90.0
  0
LINE
  5
9D10
  8
0
 10
2227.333366165902
 20
2414.888757552426
 30
0.0
 11
2239.000032832569
 21
2484.888757552426
 31
0.0
  0
LINE
  5
9D11
  8
0
 10
2250.666699499235
 20
2414.888757552426
 30
0.0
 11
2239.000032832569
 21
2484.888757552426
 31
0.0
  0
LINE
  5
9D12
  8
0
 10
2239.000032832569
 20
2484.888757552426
 30
0.0
 11
2239.000032832569
 21
2414.888757552426
 31
0.0
  0
LINE
  5
9D13
  8
0
 10
2250.666699499235
 20
1571.888757552419
 30
0.0
 11
2239.000032832569
 21
1501.888757552419
 31
0.0
  0
LINE
  5
9D14
  8
0
 10
2227.333366165902
 20
1571.888757552419
 30
0.0
 11
2239.000032832569
 21
1501.888757552419
 31
0.0
  0
LINE
  5
9D15
  8
0
 10
2239.000032832569
 20
1501.888757552419
 30
0.0
 11
2239.000032832569
 21
1571.888757552419
 31
0.0
  0
TEXT
  5
9D16
  8
0
 10
4674.65909090909
 20
1473.729666643331
 30
0.0
 40
40.0
  1
13.8㎏
  0
TEXT
  5
9D17
  8
0
 10
3658.0
 20
1473.047848461513
 30
0.0
 40
40.0
  1
  質量
  0
TEXT
  5
9D18
  8
0
 10
4536.022727272727
 20
1576.116030279695
 30
0.0
 40
40.0
  1
1,154x983x46ｍｍ
  0
TEXT
  5
9D19
  8
0
 10
3658.0
 20
1573.047848461513
 30
0.0
 40
40.0
  1
  外形寸法（WxHxD）
  0
TEXT
  5
9D1A
  8
0
 10
4691.818181818182
 20
1673.388757552422
 30
0.0
 40
40.0
  1
600V
  0
TEXT
  5
9D1B
  8
0
 10
3658.0
 20
1672.934212097877
 30
0.0
 40
40.0
  1
  最大システム電圧
  0
TEXT
  5
9D1C
  8
0
 10
4686.022727272727
 20
1773.388757552422
 30
0.0
 40
40.0
  1
8.81A
  0
TEXT
  5
9D1D
  8
0
 10
3658.0
 20
1772.252393916059
 30
0.0
 40
40.0
  1
  公称短絡電流
  0
TEXT
  5
9D1E
  8
0
 10
4686.022727272728
 20
1873.388757552422
 30
0.0
 40
40.0
  1
25.9V
  0
TEXT
  5
9D1F
  8
0
 10
3658.0
 20
1872.479666643331
 30
0.0
 40
40.0
  1
  公称開放電圧
  0
TEXT
  5
9D20
  8
0
 10
4686.022727272727
 20
1973.388757552422
 30
0.0
 40
40.0
  1
8.26A
  0
TEXT
  5
9D21
  8
0
 10
3658.0
 20
1972.593303006968
 30
0.0
 40
40.0
  1
  公称最大出力動作電流
  0
TEXT
  5
9D22
  8
0
 10
4686.022727272728
 20
2073.388757552422
 30
0.0
 40
40.0
  1
21.2V
  0
TEXT
  5
9D23
  8
0
 10
3658.0
 20
2072.593303006968
 30
0.0
 40
40.0
  1
  公称最大出力動作電圧
  0
TEXT
  5
9D24
  8
0
 10
4686.931818181818
 20
2173.388757552422
 30
0.0
 40
40.0
  1
175W
  0
TEXT
  5
9D25
  8
0
 10
3658.0
 20
2172.479666643331
 30
0.0
 40
40.0
  1
  公称最大出力
  0
TEXT
  5
9D26
  8
0
 10
4688.75
 20
2273.388757552422
 30
0.0
 40
40.0
  1
15.4%%%
  0
TEXT
  5
9D27
  8
0
 10
3658.0
 20
2272.252393916059
 30
0.0
 40
40.0
  1
  最大モジュール変換効率
  0
TEXT
  5
9D28
  8
0
 10
4543.068181818182
 20
2372.252393916058
 30
0.0
 40
40.0
  1
シリコン単結晶系
  0
TEXT
  5
9D29
  8
0
 10
3658.0
 20
2372.934212097877
 30
0.0
 40
40.0
  1
  セル種類
  0
TEXT
  5
9D2A
  8
0
 10
4529.65909090909
 20
2473.388757552422
 30
0.0
 40
40.0
  1
LPV-175V-BLK-J
  0
TEXT
  5
9D2B
  8
0
 10
3658.0
 20
2471.911484825149
 30
0.0
 40
40.0
  1
  型式
  0
VIEWPORT
  5
2C13
 67
     1
  8
0
  6
CONTINUOUS
 10
206.591620888881
 20
141.1905255588052
 30
0.0
 40
488.7073801738547
 41
300.9119599272723
 68
     1
 69
     1
1001
ACAD
1000
MVIEW
1002
{
1070
    16
1010
0.0
1020
0.0
1030
0.0
1020
0.0
1030
0.0
1010
0.0
1020
0.0
1030
1.0
1020
0.0
1030
1.0
1040
0.0
1040
300.9119599272723
1040
206.591620888881
1040
141.1905255588052
1040
50.0
1040
0.0
1040
0.0
1070
     0
1070
   100
1070
     0
1070
     1
1070
     1
1070
     0
1070
     0
1070
     0
1040
0.0
1040
0.0
1040
0.0
1040
10.0
1040
10.0
1040
10.0
1040
10.0
1070
     0
1002
{
1002
}
1002
}
  0
VIEWPORT
  5
2C17
 67
     1
  8
0
  6
CONTINUOUS
 10
145.3303314447403
 20
101.8328338861465
 30
0.0
 40
232.5285303115845
 41
162.9325342178345
 68
     2
 69
     2
1001
ACAD
1000
MVIEW
1002
{
1070
    16
1010
0.0
1020
0.0
1030
0.0
1020
0.0
1030
0.0
1010
0.0
1020
0.0
1030
1.0
1020
0.0
1030
1.0
1040
0.0
1040
8205.767713711226
1040
5809.965151642898
1040
1137.040193552135
1040
50.0
1040
0.0
1040
0.0
1070
     0
1070
   100
1070
     0
1070
     1
1070
     0
1070
     0
1070
     0
1070
     0
1040
0.0
1040
0.0
1040
0.0
1040
10.0
1040
10.0
1040
10.0
1040
10.0
1070
     0
1002
{
1002
}
1002
}
  0
ENDSEC
  0
EOF
