  0
SECTION
  2
HEADER
  9
$ACADVER
  1
AC1009
  9
$DWGCODEPAGE
  3
ansi_932
  9
$INSBASE
 10
0.0
 20
0.0
 30
0.0
  9
$EXTMIN
 10
0.0
 20
0.0
 30
0.0
  9
$EXTMAX
 10
5940.0
 20
4200.0
 30
0.0
  9
$LIMMIN
 10
109.6511881510417
 20
82.19722222222221
  9
$LIMMAX
 10
147.8903700086805
 20
96.5028089735243
  9
$ORTHOMODE
 70
     0
  9
$REGENMODE
 70
     1
  9
$FILLMODE
 70
     1
  9
$QTEXTMODE
 70
     0
  9
$MIRRTEXT
 70
     1
  9
$DRAGMODE
 70
     2
  9
$LTSCALE
 40
1.0
  9
$OSMODE
 70
   511
  9
$ATTMODE
 70
     1
  9
$TEXTSIZE
 40
0.0
  9
$TRACEWID
 40
0.05
  9
$TEXTSTYLE
  7
STANDARD
  9
$CLAYER
  8
0
  9
$CELTYPE
  6
BYLAYER
  9
$CECOLOR
 62
   256
  9
$DIMSCALE
 40
2.0
  9
$DIMASZ
 40
35.0
  9
$DIMEXO
 40
0.0625
  9
$DIMDLI
 40
10.0
  9
$DIMRND
 40
0.0
  9
$DIMDLE
 40
0.0
  9
$DIMEXE
 40
0.18
  9
$DIMTP
 40
0.0
  9
$DIMTM
 40
0.0
  9
$DIMTXT
 40
35.0
  9
$DIMCEN
 40
0.09
  9
$DIMTSZ
 40
0.0
  9
$DIMTOL
 70
     0
  9
$DIMLIM
 70
     0
  9
$DIMTIH
 70
     0
  9
$DIMTOH
 70
     0
  9
$DIMSE1
 70
     0
  9
$DIMSE2
 70
     0
  9
$DIMTAD
 70
     3
  9
$DIMZIN
 70
     0
  9
$DIMBLK
  1
OPEN
  9
$DIMASO
 70
     1
  9
$DIMSHO
 70
     1
  9
$DIMPOST
  1

  9
$DIMAPOST
  1

  9
$DIMALT
 70
     0
  9
$DIMALTD
 70
     2
  9
$DIMALTF
 40
25.4
  9
$DIMLFAC
 40
1.0
  9
$DIMTOFL
 70
     1
  9
$DIMTVP
 40
0.0
  9
$DIMTIX
 70
     0
  9
$DIMSOXD
 70
     0
  9
$DIMSAH
 70
     0
  9
$DIMBLK1
  1

  9
$DIMBLK2
  1

  9
$DIMSTYLE
  2
STANDARD
  9
$DIMCLRD
 70
     0
  9
$DIMCLRE
 70
     0
  9
$DIMCLRT
 70
     0
  9
$DIMTFAC
 40
1.0
  9
$DIMGAP
 40
10.0
  9
$LUNITS
 70
     2
  9
$LUPREC
 70
     4
  9
$SKETCHINC
 40
0.1
  9
$FILLETRAD
 40
100.0
  9
$AUNITS
 70
     0
  9
$AUPREC
 70
     0
  9
$MENU
  1
acad
  9
$ELEVATION
 40
0.0
  9
$PELEVATION
 40
0.0
  9
$THICKNESS
 40
0.0
  9
$LIMCHECK
 70
     0
  9
$CHAMFERA
 40
0.0
  9
$CHAMFERB
 40
0.0
  9
$SKPOLY
 70
     0
  9
$TDCREATE
 40
2456743.597399803
  9
$TDUPDATE
 40
2456794.692950799
  9
$TDINDWG
 40
0.6701583218
  9
$TDUSRTIMER
 40
2456794.317613599
  9
$USRTIMER
 70
     1
  9
$ANGBASE
 50
0.0
  9
$ANGDIR
 70
     0
  9
$PDMODE
 70
     1
  9
$PDSIZE
 40
0.0
  9
$PLINEWID
 40
0.0
  9
$COORDS
 70
     1
  9
$SPLFRAME
 70
     0
  9
$SPLINETYPE
 70
     6
  9
$SPLINESEGS
 70
     8
  9
$ATTDIA
 70
     0
  9
$ATTREQ
 70
     1
  9
$HANDLING
 70
     1
  9
$HANDSEED
  5
990E
  9
$SURFTAB1
 70
     6
  9
$SURFTAB2
 70
     6
  9
$SURFTYPE
 70
     6
  9
$SURFU
 70
     6
  9
$SURFV
 70
     6
  9
$UCSNAME
  2

  9
$UCSORG
 10
0.0
 20
0.0
 30
0.0
  9
$UCSXDIR
 10
1.0
 20
0.0
 30
0.0
  9
$UCSYDIR
 10
0.0
 20
1.0
 30
0.0
  9
$PUCSNAME
  2

  9
$PUCSORG
 10
0.0
 20
0.0
 30
0.0
  9
$PUCSXDIR
 10
1.0
 20
0.0
 30
0.0
  9
$PUCSYDIR
 10
0.0
 20
1.0
 30
0.0
  9
$USERI1
 70
     0
  9
$USERI2
 70
     0
  9
$USERI3
 70
     0
  9
$USERI4
 70
     0
  9
$USERI5
 70
     0
  9
$USERR1
 40
0.0
  9
$USERR2
 40
0.0
  9
$USERR3
 40
0.0
  9
$USERR4
 40
0.0
  9
$USERR5
 40
0.0
  9
$WORLDVIEW
 70
     1
  9
$SHADEDGE
 70
     3
  9
$SHADEDIF
 70
    70
  9
$TILEMODE
 70
     1
  9
$MAXACTVP
 70
    16
  9
$PLIMCHECK
 70
     0
  9
$PEXTMIN
 10
29.06606628894805
 20
20.36656677722931
 30
0.0
  9
$PEXTMAX
 10
261.5945966005326
 20
183.2991009950638
 30
0.0
  9
$PLIMMIN
 10
-0.0000000000000231
 20
0.0000000000000053
  9
$PLIMMAX
 10
420.0
 20
297.0
  9
$UNITMODE
 70
     0
  9
$VISRETAIN
 70
     0
  9
$PLINEGEN
 70
     1
  9
$PSLTSCALE
 70
     0
  0
ENDSEC
  0
SECTION
  2
TABLES
  0
TABLE
  2
VPORT
 70
     1
  0
VPORT
  2
*ACTIVE
 70
     0
 10
0.0
 20
0.0
 11
1.0
 21
1.0
 12
3653.955993419138
 22
1918.220571979964
 13
0.0
 23
0.0
 14
1.0
 24
1.0
 15
0.0
 25
0.0
 16
0.0
 26
0.0
 36
1.0
 17
0.0
 27
0.0
 37
0.0
 40
4992.993806371152
 41
1.615571776155718
 42
50.0
 43
0.0
 44
0.0
 50
0.0
 51
0.0
 71
     0
 72
   100
 73
     1
 74
     1
 75
     0
 76
     0
 77
     0
 78
     0
  0
ENDTAB
  0
TABLE
  2
LTYPE
 70
     1
  0
LTYPE
  2
CONTINUOUS
 70
     0
  3
Solid line
 72
    65
 73
     0
 40
0.0
  0
ENDTAB
  0
TABLE
  2
LAYER
 70
     4
  0
LAYER
  2
0
 70
     0
 62
     7
  6
CONTINUOUS
  0
LAYER
  2
DEFPOINTS
 70
     0
 62
     7
  6
CONTINUOUS
  0
LAYER
  2
用紙枠
 70
     4
 62
     7
  6
CONTINUOUS
  0
LAYER
  2
図面枠
 70
     0
 62
     7
  6
CONTINUOUS
  0
ENDTAB
  0
TABLE
  2
STYLE
 70
     1
  0
STYLE
  2
STANDARD
 70
     0
 40
0.0
 41
1.0
 50
0.0
 71
     0
 42
0.0
  3

  4

  0
ENDTAB
  0
TABLE
  2
VIEW
 70
     0
  0
ENDTAB
  0
TABLE
  2
UCS
 70
     0
  0
ENDTAB
  0
TABLE
  2
APPID
 70
    19
  0
APPID
  2
ACAD
 70
     0
  0
APPID
  2
ACAD_EXEMPT_FROM_CAD_STAND
 70
     0
  0
APPID
  2
ACAD_DSTYLE_DIMJAG
 70
     0
  0
APPID
  2
ACAD_DSTYLE_DIMTALN
 70
     0
  0
APPID
  2
ACAD_NAV_VCDISPLAY
 70
     0
  0
APPID
  2
ACAD_PSEXT
 70
     0
  0
APPID
  2
ACADANNOTATIVE
 70
     0
  0
APPID
  2
ACAECLAYERSTANDARD
 70
     0
  0
APPID
  2
ACCMTRANSPARENCY
 70
     0
  0
APPID
  2
ACADANNOAV
 70
     0
  0
APPID
  2
ACADANNOPO
 70
     0
  0
APPID
  2
ACAD_MLEADERVER
 70
     0
  0
APPID
  2
ACADSTRINGINFO
 70
     0
  0
APPID
  2
ACAD_DSTYLE_DIMBREAK
 70
     0
  0
APPID
  2
PLOTTRANSPARENCY
 70
     0
  0
APPID
  2
ACDBDYNAMICBLOCKGUID
 70
     0
  0
APPID
  2
ACAUTHENVIRON
 70
     0
  0
APPID
  2
ACLAYERTOOLS
 70
     0
  0
APPID
  2
ACDBDYNAMICBLOCKTRUENAME
 70
     0
  0
ENDTAB
  0
TABLE
  2
DIMSTYLE
 70
     1
  0
DIMSTYLE
  2
STANDARD
 70
     0
  3

  4

  5
OPEN
  6

  7

 40
2.0
 41
35.0
 42
0.0625
 43
10.0
 44
0.18
 45
0.0
 46
0.0
 47
0.0
 48
0.0
140
35.0
141
0.09
142
0.0
143
25.4
144
1.0
145
0.0
146
1.0
147
10.0
 71
     0
 72
     0
 73
     0
 74
     0
 75
     0
 76
     0
 77
     3
 78
     0
170
     0
171
     2
172
     1
173
     0
174
     0
175
     0
176
     0
177
     0
178
     0
  0
ENDTAB
  0
ENDSEC
  0
SECTION
  2
BLOCKS
  0
BLOCK
  8
0
  2
$MODEL_SPACE
 70
     0
 10
0.0
 20
0.0
 30
0.0
  3
$MODEL_SPACE
  1

  0
ENDBLK
  5
E
  8
0
  0
BLOCK
 67
     1
  8
0
  2
$PAPER_SPACE
 70
     0
 10
0.0
 20
0.0
 30
0.0
  3
$PAPER_SPACE
  1

  0
ENDBLK
  5
10
 67
     1
  8
0
  0
BLOCK
  8
0
  2
_OPEN
 70
     0
 10
0.0
 20
0.0
 30
0.0
  3
_OPEN
  1

  0
LINE
  5
AB0
  8
0
  6
BYBLOCK
 62
     0
 10
-1.0
 20
0.1666666666666667
 30
0.0
 11
0.0
 21
0.0
 31
0.0
  0
LINE
  5
AB1
  8
0
  6
BYBLOCK
 62
     0
 10
-1.0
 20
-0.1666666666666667
 30
0.0
 11
0.0
 21
0.0
 31
0.0
  0
LINE
  5
AB2
  8
0
  6
BYBLOCK
 62
     0
 10
0.0
 20
0.0
 30
0.0
 11
-1.0
 21
0.0
 31
0.0
  0
ENDBLK
  5
AB4
  8
0
  0
BLOCK
  8
0
  2
_CLOSED
 70
     0
 10
0.0
 20
0.0
 30
0.0
  3
_CLOSED
  1

  0
LINE
  5
AB6
  8
0
  6
BYBLOCK
 62
     0
 10
-1.0
 20
0.1666666666666667
 30
0.0
 11
0.0
 21
0.0
 31
0.0
  0
LINE
  5
AB7
  8
0
  6
BYBLOCK
 62
     0
 10
0.0
 20
0.0
 30
0.0
 11
-1.0
 21
-0.1666666666666667
 31
0.0
  0
LINE
  5
AB8
  8
0
  6
BYBLOCK
 62
     0
 10
-1.0
 20
0.1666666666666667
 30
0.0
 11
-1.0
 21
-0.1666666666666667
 31
0.0
  0
LINE
  5
AB9
  8
0
  6
BYBLOCK
 62
     0
 10
0.0
 20
0.0
 30
0.0
 11
-1.0
 21
0.0
 31
0.0
  0
ENDBLK
  5
ABB
  8
0
  0
ENDSEC
  0
SECTION
  2
ENTITIES
  0
LINE
  5
FCA
  8
図面枠
 10
5740.0
 20
3786.777515104844
 30
0.0
 11
400.0
 21
3786.777515104844
 31
0.0
  0
TEXT
  5
1230
  8
図面枠
 10
500.0
 20
3836.777515104844
 30
0.0
 40
100.0
  1
太陽電池モジュール　LPV-125V-BLK-J
 11
500.0
 21
3886.777515104844
 31
0.0
 73
     2
  0
LINE
  5
9521
  8
0
 10
1159.461599072366
 20
2327.272955900273
 30
0.0
 11
1159.461599072366
 21
2451.308592337077
 31
0.0
  0
LINE
  5
9522
  8
0
 10
1159.461599072366
 20
2451.308592337077
 30
0.0
 11
1176.759461180131
 21
2468.494252807236
 31
0.0
  0
LINE
  5
9523
  8
0
 10
1176.759461180131
 20
2468.494252807236
 30
0.0
 11
1302.994241142153
 21
2468.494252807236
 31
0.0
  0
LINE
  5
9524
  8
0
 10
1302.994241142153
 20
2468.494252807236
 30
0.0
 11
1320.29210324992
 21
2451.308592337077
 31
0.0
  0
LINE
  5
9525
  8
0
 10
1320.29210324992
 20
2451.308592337077
 30
0.0
 11
1320.29210324992
 21
2327.272955900273
 31
0.0
  0
LINE
  5
9526
  8
0
 10
1320.29210324992
 20
2327.272955900273
 30
0.0
 11
1302.994241142153
 21
2310.109271978029
 31
0.0
  0
LINE
  5
9527
  8
0
 10
1302.994241142153
 20
2310.109271978029
 30
0.0
 11
1176.759461180131
 21
2310.109271978029
 31
0.0
  0
LINE
  5
9528
  8
0
 10
1176.759461180131
 20
2310.109271978029
 30
0.0
 11
1159.461599072366
 21
2327.272955900273
 31
0.0
  0
LINE
  5
9529
  8
0
 10
1320.072028668396
 20
2425.771843658911
 30
0.0
 11
1160.253867565851
 21
2425.771843658911
 31
0.0
  0
LINE
  5
952A
  8
0
 10
1320.072028668396
 20
2352.743774934691
 30
0.0
 11
1160.253867565851
 21
2352.743774934691
 31
0.0
  0
LINE
  5
952B
  8
0
 10
1320.29210324992
 20
2327.272955900273
 30
0.0
 11
1320.29210324992
 21
2451.308592337077
 31
0.0
  0
LINE
  5
952C
  8
0
 10
1320.29210324992
 20
2451.308592337077
 30
0.0
 11
1337.63398027399
 21
2468.494252807236
 31
0.0
  0
LINE
  5
952D
  8
0
 10
1337.63398027399
 20
2468.494252807236
 30
0.0
 11
1463.868760236012
 21
2468.494252807236
 31
0.0
  0
LINE
  5
952E
  8
0
 10
1463.868760236012
 20
2468.494252807236
 30
0.0
 11
1481.210637260084
 21
2451.308592337077
 31
0.0
  0
LINE
  5
952F
  8
0
 10
1481.210637260084
 20
2451.308592337077
 30
0.0
 11
1481.210637260084
 21
2327.272955900273
 31
0.0
  0
LINE
  5
9530
  8
0
 10
1481.210637260084
 20
2327.272955900273
 30
0.0
 11
1463.868760236012
 21
2310.109271978029
 31
0.0
  0
LINE
  5
9531
  8
0
 10
1463.868760236012
 20
2310.109271978029
 30
0.0
 11
1337.63398027399
 21
2310.109271978029
 31
0.0
  0
LINE
  5
9532
  8
0
 10
1337.63398027399
 20
2310.109271978029
 30
0.0
 11
1320.29210324992
 21
2327.272955900273
 31
0.0
  0
LINE
  5
9533
  8
0
 10
1481.034577594864
 20
2425.771843658911
 30
0.0
 11
1321.12838665971
 21
2425.771843658911
 31
0.0
  0
LINE
  5
9534
  8
0
 10
1481.034577594864
 20
2352.743774934691
 30
0.0
 11
1321.12838665971
 21
2352.743774934691
 31
0.0
  0
LINE
  5
9535
  8
0
 10
1481.210637260084
 20
2327.272955900273
 30
0.0
 11
1481.210637260084
 21
2451.308592337077
 31
0.0
  0
LINE
  5
9536
  8
0
 10
1481.210637260084
 20
2451.308592337077
 30
0.0
 11
1498.552514284154
 21
2468.494252807236
 31
0.0
  0
LINE
  5
9537
  8
0
 10
1498.552514284154
 20
2468.494252807236
 30
0.0
 11
1624.787294246175
 21
2468.494252807236
 31
0.0
  0
LINE
  5
9538
  8
0
 10
1624.787294246175
 20
2468.494252807236
 30
0.0
 11
1642.085156353943
 21
2451.308592337077
 31
0.0
  0
LINE
  5
9539
  8
0
 10
1642.085156353943
 20
2451.308592337077
 30
0.0
 11
1642.085156353943
 21
2327.272955900273
 31
0.0
  0
LINE
  5
953A
  8
0
 10
1642.085156353943
 20
2327.272955900273
 30
0.0
 11
1624.787294246175
 21
2310.109271978029
 31
0.0
  0
LINE
  5
953B
  8
0
 10
1624.787294246175
 20
2310.109271978029
 30
0.0
 11
1498.552514284154
 21
2310.109271978029
 31
0.0
  0
LINE
  5
953C
  8
0
 10
1498.552514284154
 20
2310.109271978029
 30
0.0
 11
1481.210637260084
 21
2327.272955900273
 31
0.0
  0
LINE
  5
953D
  8
0
 10
1641.821066856114
 20
2425.771843658911
 30
0.0
 11
1482.002905753569
 21
2425.771843658911
 31
0.0
  0
LINE
  5
953E
  8
0
 10
1641.821066856114
 20
2352.743774934691
 30
0.0
 11
1482.002905753569
 21
2352.743774934691
 31
0.0
  0
LINE
  5
953F
  8
0
 10
1642.085156353943
 20
2327.272955900273
 30
0.0
 11
1642.085156353943
 21
2451.308592337077
 31
0.0
  0
LINE
  5
9540
  8
0
 10
1642.085156353943
 20
2451.308592337077
 30
0.0
 11
1659.383018461709
 21
2468.494252807236
 31
0.0
  0
LINE
  5
9541
  8
0
 10
1659.383018461709
 20
2468.494252807236
 30
0.0
 11
1785.705828256339
 21
2468.494252807236
 31
0.0
  0
LINE
  5
9542
  8
0
 10
1785.705828256339
 20
2468.494252807236
 30
0.0
 11
1803.003690364106
 21
2451.308592337077
 31
0.0
  0
LINE
  5
9543
  8
0
 10
1803.003690364106
 20
2451.308592337077
 30
0.0
 11
1803.003690364106
 21
2327.272955900273
 31
0.0
  0
LINE
  5
9544
  8
0
 10
1803.003690364106
 20
2327.272955900273
 30
0.0
 11
1785.705828256339
 21
2310.109271978029
 31
0.0
  0
LINE
  5
9545
  8
0
 10
1785.705828256339
 20
2310.109271978029
 30
0.0
 11
1659.383018461709
 21
2310.109271978029
 31
0.0
  0
LINE
  5
9546
  8
0
 10
1659.383018461709
 20
2310.109271978029
 30
0.0
 11
1642.085156353943
 21
2327.272955900273
 31
0.0
  0
LINE
  5
9547
  8
0
 10
1802.695585949973
 20
2425.771843658911
 30
0.0
 11
1642.833409931123
 21
2425.771843658911
 31
0.0
  0
LINE
  5
9548
  8
0
 10
1802.695585949973
 20
2352.743774934691
 30
0.0
 11
1642.833409931123
 21
2352.743774934691
 31
0.0
  0
LINE
  5
9549
  8
0
 10
1803.003690364106
 20
2327.272955900273
 30
0.0
 11
1803.003690364106
 21
2451.308592337077
 31
0.0
  0
LINE
  5
954A
  8
0
 10
1803.003690364106
 20
2451.308592337077
 30
0.0
 11
1820.301552471872
 21
2468.494252807236
 31
0.0
  0
LINE
  5
954B
  8
0
 10
1820.301552471872
 20
2468.494252807236
 30
0.0
 11
1946.536332433894
 21
2468.494252807236
 31
0.0
  0
LINE
  5
954C
  8
0
 10
1946.536332433894
 20
2468.494252807236
 30
0.0
 11
1963.878209457963
 21
2451.308592337077
 31
0.0
  0
LINE
  5
954D
  8
0
 10
1963.878209457963
 20
2451.308592337077
 30
0.0
 11
1963.878209457963
 21
2327.272955900273
 31
0.0
  0
LINE
  5
954E
  8
0
 10
1963.878209457963
 20
2327.272955900273
 30
0.0
 11
1946.536332433894
 21
2310.109271978029
 31
0.0
  0
LINE
  5
954F
  8
0
 10
1946.536332433894
 20
2310.109271978029
 30
0.0
 11
1820.301552471872
 21
2310.109271978029
 31
0.0
  0
LINE
  5
9550
  8
0
 10
1820.301552471872
 20
2310.109271978029
 30
0.0
 11
1803.003690364106
 21
2327.272955900273
 31
0.0
  0
LINE
  5
9551
  8
0
 10
1963.614119960136
 20
2425.771843658911
 30
0.0
 11
1803.795958857592
 21
2425.771843658911
 31
0.0
  0
LINE
  5
9552
  8
0
 10
1963.614119960136
 20
2352.743774934691
 30
0.0
 11
1803.795958857592
 21
2352.743774934691
 31
0.0
  0
LINE
  5
9553
  8
0
 10
1159.461599072366
 20
2168.931928166898
 30
0.0
 11
1159.461599072366
 21
2292.945588055785
 31
0.0
  0
LINE
  5
9554
  8
0
 10
1159.461599072366
 20
2292.945588055785
 30
0.0
 11
1176.759461180131
 21
2310.109271978029
 31
0.0
  0
LINE
  5
9555
  8
0
 10
1176.759461180131
 20
2310.109271978029
 30
0.0
 11
1302.994241142153
 21
2310.109271978029
 31
0.0
  0
LINE
  5
9556
  8
0
 10
1302.994241142153
 20
2310.109271978029
 30
0.0
 11
1320.29210324992
 21
2292.945588055785
 31
0.0
  0
LINE
  5
9557
  8
0
 10
1320.29210324992
 20
2292.945588055785
 30
0.0
 11
1320.29210324992
 21
2168.931928166898
 31
0.0
  0
LINE
  5
9558
  8
0
 10
1320.29210324992
 20
2168.931928166898
 30
0.0
 11
1302.994241142153
 21
2151.724291148822
 31
0.0
  0
LINE
  5
9559
  8
0
 10
1302.994241142153
 20
2151.724291148822
 30
0.0
 11
1176.759461180131
 21
2151.724291148822
 31
0.0
  0
LINE
  5
955A
  8
0
 10
1176.759461180131
 20
2151.724291148822
 30
0.0
 11
1159.461599072366
 21
2168.931928166898
 31
0.0
  0
LINE
  5
955B
  8
0
 10
1320.072028668396
 20
2267.386862829704
 30
0.0
 11
1160.253867565851
 21
2267.386862829704
 31
0.0
  0
LINE
  5
955C
  8
0
 10
1320.072028668396
 20
2194.402747201316
 30
0.0
 11
1160.253867565851
 21
2194.402747201316
 31
0.0
  0
LINE
  5
955D
  8
0
 10
1320.29210324992
 20
2168.931928166898
 30
0.0
 11
1320.29210324992
 21
2292.945588055785
 31
0.0
  0
LINE
  5
955E
  8
0
 10
1320.29210324992
 20
2292.945588055785
 30
0.0
 11
1337.63398027399
 21
2310.109271978029
 31
0.0
  0
LINE
  5
955F
  8
0
 10
1337.63398027399
 20
2310.109271978029
 30
0.0
 11
1463.868760236012
 21
2310.109271978029
 31
0.0
  0
LINE
  5
9560
  8
0
 10
1463.868760236012
 20
2310.109271978029
 30
0.0
 11
1481.210637260084
 21
2292.945588055785
 31
0.0
  0
LINE
  5
9561
  8
0
 10
1481.210637260084
 20
2292.945588055785
 30
0.0
 11
1481.210637260084
 21
2168.931928166898
 31
0.0
  0
LINE
  5
9562
  8
0
 10
1481.210637260084
 20
2168.931928166898
 30
0.0
 11
1463.868760236012
 21
2151.724291148822
 31
0.0
  0
LINE
  5
9563
  8
0
 10
1463.868760236012
 20
2151.724291148822
 30
0.0
 11
1337.63398027399
 21
2151.724291148822
 31
0.0
  0
LINE
  5
9564
  8
0
 10
1337.63398027399
 20
2151.724291148822
 30
0.0
 11
1320.29210324992
 21
2168.931928166898
 31
0.0
  0
LINE
  5
9565
  8
0
 10
1481.034577594864
 20
2267.386862829704
 30
0.0
 11
1321.12838665971
 21
2267.386862829704
 31
0.0
  0
LINE
  5
9566
  8
0
 10
1481.034577594864
 20
2194.402747201316
 30
0.0
 11
1321.12838665971
 21
2194.402747201316
 31
0.0
  0
LINE
  5
9567
  8
0
 10
1481.210637260084
 20
2168.931928166898
 30
0.0
 11
1481.210637260084
 21
2292.945588055785
 31
0.0
  0
LINE
  5
9568
  8
0
 10
1481.210637260084
 20
2292.945588055785
 30
0.0
 11
1498.552514284154
 21
2310.109271978029
 31
0.0
  0
LINE
  5
9569
  8
0
 10
1498.552514284154
 20
2310.109271978029
 30
0.0
 11
1624.787294246175
 21
2310.109271978029
 31
0.0
  0
LINE
  5
956A
  8
0
 10
1624.787294246175
 20
2310.109271978029
 30
0.0
 11
1642.085156353943
 21
2292.945588055785
 31
0.0
  0
LINE
  5
956B
  8
0
 10
1642.085156353943
 20
2292.945588055785
 30
0.0
 11
1642.085156353943
 21
2168.931928166898
 31
0.0
  0
LINE
  5
956C
  8
0
 10
1642.085156353943
 20
2168.931928166898
 30
0.0
 11
1624.787294246175
 21
2151.724291148822
 31
0.0
  0
LINE
  5
956D
  8
0
 10
1624.787294246175
 20
2151.724291148822
 30
0.0
 11
1498.552514284154
 21
2151.724291148822
 31
0.0
  0
LINE
  5
956E
  8
0
 10
1498.552514284154
 20
2151.724291148822
 30
0.0
 11
1481.210637260084
 21
2168.931928166898
 31
0.0
  0
LINE
  5
956F
  8
0
 10
1641.821066856114
 20
2267.386862829704
 30
0.0
 11
1482.002905753569
 21
2267.386862829704
 31
0.0
  0
LINE
  5
9570
  8
0
 10
1641.821066856114
 20
2194.402747201316
 30
0.0
 11
1482.002905753569
 21
2194.402747201316
 31
0.0
  0
LINE
  5
9571
  8
0
 10
1642.085156353943
 20
2168.931928166898
 30
0.0
 11
1642.085156353943
 21
2292.945588055785
 31
0.0
  0
LINE
  5
9572
  8
0
 10
1642.085156353943
 20
2292.945588055785
 30
0.0
 11
1659.383018461709
 21
2310.109271978029
 31
0.0
  0
LINE
  5
9573
  8
0
 10
1659.383018461709
 20
2310.109271978029
 30
0.0
 11
1785.705828256339
 21
2310.109271978029
 31
0.0
  0
LINE
  5
9574
  8
0
 10
1785.705828256339
 20
2310.109271978029
 30
0.0
 11
1803.003690364106
 21
2292.945588055785
 31
0.0
  0
LINE
  5
9575
  8
0
 10
1803.003690364106
 20
2292.945588055785
 30
0.0
 11
1803.003690364106
 21
2168.931928166898
 31
0.0
  0
LINE
  5
9576
  8
0
 10
1803.003690364106
 20
2168.931928166898
 30
0.0
 11
1785.705828256339
 21
2151.724291148822
 31
0.0
  0
LINE
  5
9577
  8
0
 10
1785.705828256339
 20
2151.724291148822
 30
0.0
 11
1659.383018461709
 21
2151.724291148822
 31
0.0
  0
LINE
  5
9578
  8
0
 10
1659.383018461709
 20
2151.724291148822
 30
0.0
 11
1642.085156353943
 21
2168.931928166898
 31
0.0
  0
LINE
  5
9579
  8
0
 10
1802.695585949973
 20
2267.386862829704
 30
0.0
 11
1642.833409931123
 21
2267.386862829704
 31
0.0
  0
LINE
  5
957A
  8
0
 10
1802.695585949973
 20
2194.402747201316
 30
0.0
 11
1642.833409931123
 21
2194.402747201316
 31
0.0
  0
LINE
  5
957B
  8
0
 10
1803.003690364106
 20
2168.931928166898
 30
0.0
 11
1803.003690364106
 21
2292.945588055785
 31
0.0
  0
LINE
  5
957C
  8
0
 10
1803.003690364106
 20
2292.945588055785
 30
0.0
 11
1820.301552471872
 21
2310.109271978029
 31
0.0
  0
LINE
  5
957D
  8
0
 10
1820.301552471872
 20
2310.109271978029
 30
0.0
 11
1946.536332433894
 21
2310.109271978029
 31
0.0
  0
LINE
  5
957E
  8
0
 10
1946.536332433894
 20
2310.109271978029
 30
0.0
 11
1963.878209457963
 21
2292.945588055785
 31
0.0
  0
LINE
  5
957F
  8
0
 10
1963.878209457963
 20
2292.945588055785
 30
0.0
 11
1963.878209457963
 21
2168.931928166898
 31
0.0
  0
LINE
  5
9580
  8
0
 10
1963.878209457963
 20
2168.931928166898
 30
0.0
 11
1946.536332433894
 21
2151.724291148822
 31
0.0
  0
LINE
  5
9581
  8
0
 10
1946.536332433894
 20
2151.724291148822
 30
0.0
 11
1820.301552471872
 21
2151.724291148822
 31
0.0
  0
LINE
  5
9582
  8
0
 10
1820.301552471872
 20
2151.724291148822
 30
0.0
 11
1803.003690364106
 21
2168.931928166898
 31
0.0
  0
LINE
  5
9583
  8
0
 10
1963.614119960136
 20
2267.386862829704
 30
0.0
 11
1803.795958857592
 21
2267.386862829704
 31
0.0
  0
LINE
  5
9584
  8
0
 10
1963.614119960136
 20
2194.402747201316
 30
0.0
 11
1803.795958857592
 21
2194.402747201316
 31
0.0
  0
LINE
  5
9585
  8
0
 10
1159.461599072366
 20
2010.568923885606
 30
0.0
 11
1159.461599072366
 21
2134.582583774494
 31
0.0
  0
LINE
  5
9586
  8
0
 10
1159.461599072366
 20
2134.582583774494
 30
0.0
 11
1176.759461180131
 21
2151.724291148822
 31
0.0
  0
LINE
  5
9587
  8
0
 10
1176.759461180131
 20
2151.724291148822
 30
0.0
 11
1302.994241142153
 21
2151.724291148822
 31
0.0
  0
LINE
  5
9588
  8
0
 10
1302.994241142153
 20
2151.724291148822
 30
0.0
 11
1320.29210324992
 21
2134.582583774494
 31
0.0
  0
LINE
  5
9589
  8
0
 10
1320.29210324992
 20
2134.582583774494
 30
0.0
 11
1320.29210324992
 21
2010.568923885606
 31
0.0
  0
LINE
  5
958A
  8
0
 10
1320.29210324992
 20
2010.568923885606
 30
0.0
 11
1302.994241142153
 21
1993.361286867531
 31
0.0
  0
LINE
  5
958B
  8
0
 10
1302.994241142153
 20
1993.361286867531
 30
0.0
 11
1176.759461180131
 21
1993.361286867531
 31
0.0
  0
LINE
  5
958C
  8
0
 10
1176.759461180131
 20
1993.361286867531
 30
0.0
 11
1159.461599072366
 21
2010.568923885606
 31
0.0
  0
LINE
  5
958D
  8
0
 10
1320.072028668396
 20
2109.023858548413
 30
0.0
 11
1160.253867565851
 21
2109.023858548413
 31
0.0
  0
LINE
  5
958E
  8
0
 10
1320.072028668396
 20
2036.06171946794
 30
0.0
 11
1160.253867565851
 21
2036.06171946794
 31
0.0
  0
LINE
  5
958F
  8
0
 10
1320.29210324992
 20
2010.568923885606
 30
0.0
 11
1320.29210324992
 21
2134.582583774494
 31
0.0
  0
LINE
  5
9590
  8
0
 10
1320.29210324992
 20
2134.582583774494
 30
0.0
 11
1337.63398027399
 21
2151.724291148822
 31
0.0
  0
LINE
  5
9591
  8
0
 10
1337.63398027399
 20
2151.724291148822
 30
0.0
 11
1463.868760236012
 21
2151.724291148822
 31
0.0
  0
LINE
  5
9592
  8
0
 10
1463.868760236012
 20
2151.724291148822
 30
0.0
 11
1481.210637260084
 21
2134.582583774494
 31
0.0
  0
LINE
  5
9593
  8
0
 10
1481.210637260084
 20
2134.582583774494
 30
0.0
 11
1481.210637260084
 21
2010.568923885606
 31
0.0
  0
LINE
  5
9594
  8
0
 10
1481.210637260084
 20
2010.568923885606
 30
0.0
 11
1463.868760236012
 21
1993.361286867531
 31
0.0
  0
LINE
  5
9595
  8
0
 10
1463.868760236012
 20
1993.361286867531
 30
0.0
 11
1337.63398027399
 21
1993.361286867531
 31
0.0
  0
LINE
  5
9596
  8
0
 10
1337.63398027399
 20
1993.361286867531
 30
0.0
 11
1320.29210324992
 21
2010.568923885606
 31
0.0
  0
LINE
  5
9597
  8
0
 10
1481.034577594864
 20
2109.023858548413
 30
0.0
 11
1321.12838665971
 21
2109.023858548413
 31
0.0
  0
LINE
  5
9598
  8
0
 10
1481.034577594864
 20
2036.06171946794
 30
0.0
 11
1321.12838665971
 21
2036.06171946794
 31
0.0
  0
LINE
  5
9599
  8
0
 10
1481.210637260084
 20
2010.568923885606
 30
0.0
 11
1481.210637260084
 21
2134.582583774494
 31
0.0
  0
LINE
  5
959A
  8
0
 10
1481.210637260084
 20
2134.582583774494
 30
0.0
 11
1498.552514284154
 21
2151.724291148822
 31
0.0
  0
LINE
  5
959B
  8
0
 10
1498.552514284154
 20
2151.724291148822
 30
0.0
 11
1624.787294246175
 21
2151.724291148822
 31
0.0
  0
LINE
  5
959C
  8
0
 10
1624.787294246175
 20
2151.724291148822
 30
0.0
 11
1642.085156353943
 21
2134.582583774494
 31
0.0
  0
LINE
  5
959D
  8
0
 10
1642.085156353943
 20
2134.582583774494
 30
0.0
 11
1642.085156353943
 21
2010.568923885606
 31
0.0
  0
LINE
  5
959E
  8
0
 10
1642.085156353943
 20
2010.568923885606
 30
0.0
 11
1624.787294246175
 21
1993.361286867531
 31
0.0
  0
LINE
  5
959F
  8
0
 10
1624.787294246175
 20
1993.361286867531
 30
0.0
 11
1498.552514284154
 21
1993.361286867531
 31
0.0
  0
LINE
  5
95A0
  8
0
 10
1498.552514284154
 20
1993.361286867531
 30
0.0
 11
1481.210637260084
 21
2010.568923885606
 31
0.0
  0
LINE
  5
95A1
  8
0
 10
1641.821066856114
 20
2109.023858548413
 30
0.0
 11
1482.002905753569
 21
2109.023858548413
 31
0.0
  0
LINE
  5
95A2
  8
0
 10
1641.821066856114
 20
2036.06171946794
 30
0.0
 11
1482.002905753569
 21
2036.06171946794
 31
0.0
  0
LINE
  5
95A3
  8
0
 10
1642.085156353943
 20
2010.568923885606
 30
0.0
 11
1642.085156353943
 21
2134.582583774494
 31
0.0
  0
LINE
  5
95A4
  8
0
 10
1642.085156353943
 20
2134.582583774494
 30
0.0
 11
1659.383018461709
 21
2151.724291148822
 31
0.0
  0
LINE
  5
95A5
  8
0
 10
1659.383018461709
 20
2151.724291148822
 30
0.0
 11
1785.705828256339
 21
2151.724291148822
 31
0.0
  0
LINE
  5
95A6
  8
0
 10
1785.705828256339
 20
2151.724291148822
 30
0.0
 11
1803.003690364106
 21
2134.582583774494
 31
0.0
  0
LINE
  5
95A7
  8
0
 10
1803.003690364106
 20
2134.582583774494
 30
0.0
 11
1803.003690364106
 21
2010.568923885606
 31
0.0
  0
LINE
  5
95A8
  8
0
 10
1803.003690364106
 20
2010.568923885606
 30
0.0
 11
1785.705828256339
 21
1993.361286867531
 31
0.0
  0
LINE
  5
95A9
  8
0
 10
1785.705828256339
 20
1993.361286867531
 30
0.0
 11
1659.383018461709
 21
1993.361286867531
 31
0.0
  0
LINE
  5
95AA
  8
0
 10
1659.383018461709
 20
1993.361286867531
 30
0.0
 11
1642.085156353943
 21
2010.568923885606
 31
0.0
  0
LINE
  5
95AB
  8
0
 10
1802.695585949973
 20
2109.023858548413
 30
0.0
 11
1642.833409931123
 21
2109.023858548413
 31
0.0
  0
LINE
  5
95AC
  8
0
 10
1802.695585949973
 20
2036.06171946794
 30
0.0
 11
1642.833409931123
 21
2036.06171946794
 31
0.0
  0
LINE
  5
95AD
  8
0
 10
1803.003690364106
 20
2010.568923885606
 30
0.0
 11
1803.003690364106
 21
2134.582583774494
 31
0.0
  0
LINE
  5
95AE
  8
0
 10
1803.003690364106
 20
2134.582583774494
 30
0.0
 11
1820.301552471872
 21
2151.724291148822
 31
0.0
  0
LINE
  5
95AF
  8
0
 10
1820.301552471872
 20
2151.724291148822
 30
0.0
 11
1946.536332433894
 21
2151.724291148822
 31
0.0
  0
LINE
  5
95B0
  8
0
 10
1946.536332433894
 20
2151.724291148822
 30
0.0
 11
1963.878209457963
 21
2134.582583774494
 31
0.0
  0
LINE
  5
95B1
  8
0
 10
1963.878209457963
 20
2134.582583774494
 30
0.0
 11
1963.878209457963
 21
2010.568923885606
 31
0.0
  0
LINE
  5
95B2
  8
0
 10
1963.878209457963
 20
2010.568923885606
 30
0.0
 11
1946.536332433894
 21
1993.361286867531
 31
0.0
  0
LINE
  5
95B3
  8
0
 10
1946.536332433894
 20
1993.361286867531
 30
0.0
 11
1820.301552471872
 21
1993.361286867531
 31
0.0
  0
LINE
  5
95B4
  8
0
 10
1820.301552471872
 20
1993.361286867531
 30
0.0
 11
1803.003690364106
 21
2010.568923885606
 31
0.0
  0
LINE
  5
95B5
  8
0
 10
1963.614119960136
 20
2109.023858548413
 30
0.0
 11
1803.795958857592
 21
2109.023858548413
 31
0.0
  0
LINE
  5
95B6
  8
0
 10
1963.614119960136
 20
2036.06171946794
 30
0.0
 11
1803.795958857592
 21
2036.06171946794
 31
0.0
  0
LINE
  5
95B7
  8
0
 10
1159.461599072366
 20
1852.227896152231
 30
0.0
 11
1159.461599072366
 21
1976.219579493203
 31
0.0
  0
LINE
  5
95B8
  8
0
 10
1159.461599072366
 20
1976.219579493203
 30
0.0
 11
1176.759461180131
 21
1993.361286867531
 31
0.0
  0
LINE
  5
95B9
  8
0
 10
1176.759461180131
 20
1993.361286867531
 30
0.0
 11
1302.994241142153
 21
1993.361286867531
 31
0.0
  0
LINE
  5
95BA
  8
0
 10
1302.994241142153
 20
1993.361286867531
 30
0.0
 11
1320.29210324992
 21
1976.219579493203
 31
0.0
  0
LINE
  5
95BB
  8
0
 10
1320.29210324992
 20
1976.219579493203
 30
0.0
 11
1320.29210324992
 21
1852.227896152231
 31
0.0
  0
LINE
  5
95BC
  8
0
 10
1320.29210324992
 20
1852.227896152231
 30
0.0
 11
1302.994241142153
 21
1835.042235682071
 31
0.0
  0
LINE
  5
95BD
  8
0
 10
1302.994241142153
 20
1835.042235682071
 30
0.0
 11
1176.759461180131
 21
1835.042235682071
 31
0.0
  0
LINE
  5
95BE
  8
0
 10
1176.759461180131
 20
1835.042235682071
 30
0.0
 11
1159.461599072366
 21
1852.227896152231
 31
0.0
  0
LINE
  5
95BF
  8
0
 10
1320.072028668396
 20
1950.682830815037
 30
0.0
 11
1160.253867565851
 21
1950.682830815037
 31
0.0
  0
LINE
  5
95C0
  8
0
 10
1320.072028668396
 20
1877.720691734565
 30
0.0
 11
1160.253867565851
 21
1877.720691734565
 31
0.0
  0
LINE
  5
95C1
  8
0
 10
1320.29210324992
 20
1852.227896152231
 30
0.0
 11
1320.29210324992
 21
1976.219579493203
 31
0.0
  0
LINE
  5
95C2
  8
0
 10
1320.29210324992
 20
1976.219579493203
 30
0.0
 11
1337.63398027399
 21
1993.361286867531
 31
0.0
  0
LINE
  5
95C3
  8
0
 10
1337.63398027399
 20
1993.361286867531
 30
0.0
 11
1463.868760236012
 21
1993.361286867531
 31
0.0
  0
LINE
  5
95C4
  8
0
 10
1463.868760236012
 20
1993.361286867531
 30
0.0
 11
1481.210637260084
 21
1976.219579493203
 31
0.0
  0
LINE
  5
95C5
  8
0
 10
1481.210637260084
 20
1976.219579493203
 30
0.0
 11
1481.210637260084
 21
1852.227896152231
 31
0.0
  0
LINE
  5
95C6
  8
0
 10
1481.210637260084
 20
1852.227896152231
 30
0.0
 11
1463.868760236012
 21
1835.042235682071
 31
0.0
  0
LINE
  5
95C7
  8
0
 10
1463.868760236012
 20
1835.042235682071
 30
0.0
 11
1337.63398027399
 21
1835.042235682071
 31
0.0
  0
LINE
  5
95C8
  8
0
 10
1337.63398027399
 20
1835.042235682071
 30
0.0
 11
1320.29210324992
 21
1852.227896152231
 31
0.0
  0
LINE
  5
95C9
  8
0
 10
1481.034577594864
 20
1950.682830815037
 30
0.0
 11
1321.12838665971
 21
1950.682830815037
 31
0.0
  0
LINE
  5
95CA
  8
0
 10
1481.034577594864
 20
1877.720691734565
 30
0.0
 11
1321.12838665971
 21
1877.720691734565
 31
0.0
  0
LINE
  5
95CB
  8
0
 10
1481.210637260084
 20
1852.227896152231
 30
0.0
 11
1481.210637260084
 21
1976.219579493203
 31
0.0
  0
LINE
  5
95CC
  8
0
 10
1481.210637260084
 20
1976.219579493203
 30
0.0
 11
1498.552514284154
 21
1993.361286867531
 31
0.0
  0
LINE
  5
95CD
  8
0
 10
1498.552514284154
 20
1993.361286867531
 30
0.0
 11
1624.787294246175
 21
1993.361286867531
 31
0.0
  0
LINE
  5
95CE
  8
0
 10
1624.787294246175
 20
1993.361286867531
 30
0.0
 11
1642.085156353943
 21
1976.219579493203
 31
0.0
  0
LINE
  5
95CF
  8
0
 10
1642.085156353943
 20
1976.219579493203
 30
0.0
 11
1642.085156353943
 21
1852.227896152231
 31
0.0
  0
LINE
  5
95D0
  8
0
 10
1642.085156353943
 20
1852.227896152231
 30
0.0
 11
1624.787294246175
 21
1835.042235682071
 31
0.0
  0
LINE
  5
95D1
  8
0
 10
1624.787294246175
 20
1835.042235682071
 30
0.0
 11
1498.552514284154
 21
1835.042235682071
 31
0.0
  0
LINE
  5
95D2
  8
0
 10
1498.552514284154
 20
1835.042235682071
 30
0.0
 11
1481.210637260084
 21
1852.227896152231
 31
0.0
  0
LINE
  5
95D3
  8
0
 10
1641.821066856114
 20
1950.682830815037
 30
0.0
 11
1482.002905753569
 21
1950.682830815037
 31
0.0
  0
LINE
  5
95D4
  8
0
 10
1641.821066856114
 20
1877.720691734565
 30
0.0
 11
1482.002905753569
 21
1877.720691734565
 31
0.0
  0
LINE
  5
95D5
  8
0
 10
1642.085156353943
 20
1852.227896152231
 30
0.0
 11
1642.085156353943
 21
1976.219579493203
 31
0.0
  0
LINE
  5
95D6
  8
0
 10
1642.085156353943
 20
1976.219579493203
 30
0.0
 11
1659.383018461709
 21
1993.361286867531
 31
0.0
  0
LINE
  5
95D7
  8
0
 10
1659.383018461709
 20
1993.361286867531
 30
0.0
 11
1785.705828256339
 21
1993.361286867531
 31
0.0
  0
LINE
  5
95D8
  8
0
 10
1785.705828256339
 20
1993.361286867531
 30
0.0
 11
1803.003690364106
 21
1976.219579493203
 31
0.0
  0
LINE
  5
95D9
  8
0
 10
1803.003690364106
 20
1976.219579493203
 30
0.0
 11
1803.003690364106
 21
1852.227896152231
 31
0.0
  0
LINE
  5
95DA
  8
0
 10
1803.003690364106
 20
1852.227896152231
 30
0.0
 11
1785.705828256339
 21
1835.042235682071
 31
0.0
  0
LINE
  5
95DB
  8
0
 10
1785.705828256339
 20
1835.042235682071
 30
0.0
 11
1659.383018461709
 21
1835.042235682071
 31
0.0
  0
LINE
  5
95DC
  8
0
 10
1659.383018461709
 20
1835.042235682071
 30
0.0
 11
1642.085156353943
 21
1852.227896152231
 31
0.0
  0
LINE
  5
95DD
  8
0
 10
1802.695585949973
 20
1950.682830815037
 30
0.0
 11
1642.833409931123
 21
1950.682830815037
 31
0.0
  0
LINE
  5
95DE
  8
0
 10
1802.695585949973
 20
1877.720691734565
 30
0.0
 11
1642.833409931123
 21
1877.720691734565
 31
0.0
  0
LINE
  5
95DF
  8
0
 10
1803.003690364106
 20
1852.227896152231
 30
0.0
 11
1803.003690364106
 21
1976.219579493203
 31
0.0
  0
LINE
  5
95E0
  8
0
 10
1803.003690364106
 20
1976.219579493203
 30
0.0
 11
1820.301552471872
 21
1993.361286867531
 31
0.0
  0
LINE
  5
95E1
  8
0
 10
1820.301552471872
 20
1993.361286867531
 30
0.0
 11
1946.536332433894
 21
1993.361286867531
 31
0.0
  0
LINE
  5
95E2
  8
0
 10
1946.536332433894
 20
1993.361286867531
 30
0.0
 11
1963.878209457963
 21
1976.219579493203
 31
0.0
  0
LINE
  5
95E3
  8
0
 10
1963.878209457963
 20
1976.219579493203
 30
0.0
 11
1963.878209457963
 21
1852.227896152231
 31
0.0
  0
LINE
  5
95E4
  8
0
 10
1963.878209457963
 20
1852.227896152231
 30
0.0
 11
1946.536332433894
 21
1835.042235682071
 31
0.0
  0
LINE
  5
95E5
  8
0
 10
1946.536332433894
 20
1835.042235682071
 30
0.0
 11
1820.301552471872
 21
1835.042235682071
 31
0.0
  0
LINE
  5
95E6
  8
0
 10
1820.301552471872
 20
1835.042235682071
 30
0.0
 11
1803.003690364106
 21
1852.227896152231
 31
0.0
  0
LINE
  5
95E7
  8
0
 10
1963.614119960136
 20
1950.682830815037
 30
0.0
 11
1803.795958857592
 21
1950.682830815037
 31
0.0
  0
LINE
  5
95E8
  8
0
 10
1963.614119960136
 20
1877.720691734565
 30
0.0
 11
1803.795958857592
 21
1877.720691734565
 31
0.0
  0
LINE
  5
95E9
  8
0
 10
1159.461599072366
 20
1693.886868418856
 30
0.0
 11
1159.461599072366
 21
1817.856575211911
 31
0.0
  0
LINE
  5
95EA
  8
0
 10
1159.461599072366
 20
1817.856575211911
 30
0.0
 11
1176.759461180131
 21
1835.042235682071
 31
0.0
  0
LINE
  5
95EB
  8
0
 10
1176.759461180131
 20
1835.042235682071
 30
0.0
 11
1302.994241142153
 21
1835.042235682071
 31
0.0
  0
LINE
  5
95EC
  8
0
 10
1302.994241142153
 20
1835.042235682071
 30
0.0
 11
1320.29210324992
 21
1817.856575211911
 31
0.0
  0
LINE
  5
95ED
  8
0
 10
1320.29210324992
 20
1817.856575211911
 30
0.0
 11
1320.29210324992
 21
1693.886868418856
 31
0.0
  0
LINE
  5
95EE
  8
0
 10
1320.29210324992
 20
1693.886868418856
 30
0.0
 11
1302.994241142153
 21
1676.679231400781
 31
0.0
  0
LINE
  5
95EF
  8
0
 10
1302.994241142153
 20
1676.679231400781
 30
0.0
 11
1176.759461180131
 21
1676.679231400781
 31
0.0
  0
LINE
  5
95F0
  8
0
 10
1176.759461180131
 20
1676.679231400781
 30
0.0
 11
1159.461599072366
 21
1693.886868418856
 31
0.0
  0
LINE
  5
95F1
  8
0
 10
1320.072028668396
 20
1792.319826533746
 30
0.0
 11
1160.209852649546
 21
1792.319826533746
 31
0.0
  0
LINE
  5
95F2
  8
0
 10
1320.072028668396
 20
1719.335710905358
 30
0.0
 11
1160.209852649546
 21
1719.335710905358
 31
0.0
  0
LINE
  5
95F3
  8
0
 10
1320.29210324992
 20
1693.886868418856
 30
0.0
 11
1320.29210324992
 21
1817.856575211911
 31
0.0
  0
LINE
  5
95F4
  8
0
 10
1320.29210324992
 20
1817.856575211911
 30
0.0
 11
1337.63398027399
 21
1835.042235682071
 31
0.0
  0
LINE
  5
95F5
  8
0
 10
1337.63398027399
 20
1835.042235682071
 30
0.0
 11
1463.868760236012
 21
1835.042235682071
 31
0.0
  0
LINE
  5
95F6
  8
0
 10
1463.868760236012
 20
1835.042235682071
 30
0.0
 11
1481.210637260084
 21
1817.856575211911
 31
0.0
  0
LINE
  5
95F7
  8
0
 10
1481.210637260084
 20
1817.856575211911
 30
0.0
 11
1481.210637260084
 21
1693.886868418856
 31
0.0
  0
LINE
  5
95F8
  8
0
 10
1481.210637260084
 20
1693.886868418856
 30
0.0
 11
1463.868760236012
 21
1676.679231400781
 31
0.0
  0
LINE
  5
95F9
  8
0
 10
1463.868760236012
 20
1676.679231400781
 30
0.0
 11
1337.63398027399
 21
1676.679231400781
 31
0.0
  0
LINE
  5
95FA
  8
0
 10
1337.63398027399
 20
1676.679231400781
 30
0.0
 11
1320.29210324992
 21
1693.886868418856
 31
0.0
  0
LINE
  5
95FB
  8
0
 10
1480.990562678559
 20
1792.319826533746
 30
0.0
 11
1321.12838665971
 21
1792.319826533746
 31
0.0
  0
LINE
  5
95FC
  8
0
 10
1480.990562678559
 20
1719.335710905358
 30
0.0
 11
1321.12838665971
 21
1719.335710905358
 31
0.0
  0
LINE
  5
95FD
  8
0
 10
1481.210637260084
 20
1693.886868418856
 30
0.0
 11
1481.210637260084
 21
1817.856575211911
 31
0.0
  0
LINE
  5
95FE
  8
0
 10
1481.210637260084
 20
1817.856575211911
 30
0.0
 11
1498.552514284154
 21
1835.042235682071
 31
0.0
  0
LINE
  5
95FF
  8
0
 10
1498.552514284154
 20
1835.042235682071
 30
0.0
 11
1624.787294246175
 21
1835.042235682071
 31
0.0
  0
LINE
  5
9600
  8
0
 10
1624.787294246175
 20
1835.042235682071
 30
0.0
 11
1642.085156353943
 21
1817.856575211911
 31
0.0
  0
LINE
  5
9601
  8
0
 10
1642.085156353943
 20
1817.856575211911
 30
0.0
 11
1642.085156353943
 21
1693.886868418856
 31
0.0
  0
LINE
  5
9602
  8
0
 10
1642.085156353943
 20
1693.886868418856
 30
0.0
 11
1624.787294246175
 21
1676.679231400781
 31
0.0
  0
LINE
  5
9603
  8
0
 10
1624.787294246175
 20
1676.679231400781
 30
0.0
 11
1498.552514284154
 21
1676.679231400781
 31
0.0
  0
LINE
  5
9604
  8
0
 10
1498.552514284154
 20
1676.679231400781
 30
0.0
 11
1481.210637260084
 21
1693.886868418856
 31
0.0
  0
LINE
  5
9605
  8
0
 10
1641.821066856114
 20
1792.319826533746
 30
0.0
 11
1482.002905753569
 21
1792.319826533746
 31
0.0
  0
LINE
  5
9606
  8
0
 10
1641.821066856114
 20
1719.335710905358
 30
0.0
 11
1482.002905753569
 21
1719.335710905358
 31
0.0
  0
LINE
  5
9607
  8
0
 10
1642.085156353943
 20
1693.886868418856
 30
0.0
 11
1642.085156353943
 21
1817.856575211911
 31
0.0
  0
LINE
  5
9608
  8
0
 10
1642.085156353943
 20
1817.856575211911
 30
0.0
 11
1659.383018461709
 21
1835.042235682071
 31
0.0
  0
LINE
  5
9609
  8
0
 10
1659.383018461709
 20
1835.042235682071
 30
0.0
 11
1785.705828256339
 21
1835.042235682071
 31
0.0
  0
LINE
  5
960A
  8
0
 10
1785.705828256339
 20
1835.042235682071
 30
0.0
 11
1802.959675447801
 21
1817.856575211911
 31
0.0
  0
LINE
  5
960B
  8
0
 10
1802.959675447801
 20
1817.856575211911
 30
0.0
 11
1802.959675447801
 21
1693.886868418856
 31
0.0
  0
LINE
  5
960C
  8
0
 10
1802.959675447801
 20
1693.886868418856
 30
0.0
 11
1785.661813340034
 21
1676.679231400781
 31
0.0
  0
LINE
  5
960D
  8
0
 10
1785.661813340034
 20
1676.679231400781
 30
0.0
 11
1659.383018461709
 21
1676.679231400781
 31
0.0
  0
LINE
  5
960E
  8
0
 10
1659.383018461709
 20
1676.679231400781
 30
0.0
 11
1642.085156353943
 21
1693.886868418856
 31
0.0
  0
LINE
  5
960F
  8
0
 10
1802.695585949973
 20
1792.319826533746
 30
0.0
 11
1642.833409931123
 21
1792.319826533746
 31
0.0
  0
LINE
  5
9610
  8
0
 10
1802.695585949973
 20
1719.335710905358
 30
0.0
 11
1642.833409931123
 21
1719.335710905358
 31
0.0
  0
LINE
  5
9611
  8
0
 10
1802.959675447801
 20
1693.886868418856
 30
0.0
 11
1802.959675447801
 21
1817.856575211911
 31
0.0
  0
LINE
  5
9612
  8
0
 10
1802.959675447801
 20
1817.856575211911
 30
0.0
 11
1820.301552471872
 21
1835.042235682071
 31
0.0
  0
LINE
  5
9613
  8
0
 10
1820.301552471872
 20
1835.042235682071
 30
0.0
 11
1946.536332433894
 21
1835.042235682071
 31
0.0
  0
LINE
  5
9614
  8
0
 10
1946.536332433894
 20
1835.042235682071
 30
0.0
 11
1963.878209457963
 21
1817.856575211911
 31
0.0
  0
LINE
  5
9615
  8
0
 10
1963.878209457963
 20
1817.856575211911
 30
0.0
 11
1963.878209457963
 21
1693.886868418856
 31
0.0
  0
LINE
  5
9616
  8
0
 10
1963.878209457963
 20
1693.886868418856
 30
0.0
 11
1946.536332433894
 21
1676.679231400781
 31
0.0
  0
LINE
  5
9617
  8
0
 10
1946.536332433894
 20
1676.679231400781
 30
0.0
 11
1820.301552471872
 21
1676.679231400781
 31
0.0
  0
LINE
  5
9618
  8
0
 10
1820.301552471872
 20
1676.679231400781
 30
0.0
 11
1802.959675447801
 21
1693.886868418856
 31
0.0
  0
LINE
  5
9619
  8
0
 10
1963.614119960136
 20
1792.319826533746
 30
0.0
 11
1803.795958857592
 21
1792.319826533746
 31
0.0
  0
LINE
  5
961A
  8
0
 10
1963.614119960136
 20
1719.335710905358
 30
0.0
 11
1803.795958857592
 21
1719.335710905358
 31
0.0
  0
LINE
  5
961B
  8
0
 10
1159.461599072366
 20
1535.468922767775
 30
0.0
 11
1159.461599072366
 21
1659.49357093062
 31
0.0
  0
LINE
  5
961C
  8
0
 10
1159.461599072366
 20
1659.49357093062
 30
0.0
 11
1176.759461180131
 21
1676.679231400781
 31
0.0
  0
LINE
  5
961D
  8
0
 10
1176.759461180131
 20
1676.679231400781
 30
0.0
 11
1302.994241142153
 21
1676.679231400781
 31
0.0
  0
LINE
  5
961E
  8
0
 10
1302.994241142153
 20
1676.679231400781
 30
0.0
 11
1320.29210324992
 21
1659.49357093062
 31
0.0
  0
LINE
  5
961F
  8
0
 10
1320.29210324992
 20
1659.49357093062
 30
0.0
 11
1320.29210324992
 21
1535.468922767775
 31
0.0
  0
LINE
  5
9620
  8
0
 10
1320.29210324992
 20
1535.468922767775
 30
0.0
 11
1302.994241142153
 21
1518.327215393446
 31
0.0
  0
LINE
  5
9621
  8
0
 10
1302.994241142153
 20
1518.327215393446
 30
0.0
 11
1176.759461180131
 21
1518.327215393446
 31
0.0
  0
LINE
  5
9622
  8
0
 10
1176.759461180131
 20
1518.327215393446
 30
0.0
 11
1159.461599072366
 21
1535.468922767775
 31
0.0
  0
LINE
  5
9623
  8
0
 10
1320.072028668396
 20
1633.956822252455
 30
0.0
 11
1160.209852649546
 21
1633.956822252455
 31
0.0
  0
LINE
  5
9624
  8
0
 10
1320.072028668396
 20
1560.961718350109
 30
0.0
 11
1160.209852649546
 21
1560.961718350109
 31
0.0
  0
LINE
  5
9625
  8
0
 10
1320.29210324992
 20
1535.468922767775
 30
0.0
 11
1320.29210324992
 21
1659.49357093062
 31
0.0
  0
LINE
  5
9626
  8
0
 10
1320.29210324992
 20
1659.49357093062
 30
0.0
 11
1337.63398027399
 21
1676.679231400781
 31
0.0
  0
LINE
  5
9627
  8
0
 10
1337.63398027399
 20
1676.679231400781
 30
0.0
 11
1463.868760236012
 21
1676.679231400781
 31
0.0
  0
LINE
  5
9628
  8
0
 10
1463.868760236012
 20
1676.679231400781
 30
0.0
 11
1481.210637260084
 21
1659.49357093062
 31
0.0
  0
LINE
  5
9629
  8
0
 10
1481.210637260084
 20
1659.49357093062
 30
0.0
 11
1481.210637260084
 21
1535.468922767775
 31
0.0
  0
LINE
  5
962A
  8
0
 10
1481.210637260084
 20
1535.468922767775
 30
0.0
 11
1463.868760236012
 21
1518.327215393446
 31
0.0
  0
LINE
  5
962B
  8
0
 10
1463.868760236012
 20
1518.327215393446
 30
0.0
 11
1337.63398027399
 21
1518.327215393446
 31
0.0
  0
LINE
  5
962C
  8
0
 10
1337.63398027399
 20
1518.327215393446
 30
0.0
 11
1320.29210324992
 21
1535.468922767775
 31
0.0
  0
LINE
  5
962D
  8
0
 10
1480.990562678559
 20
1633.956822252455
 30
0.0
 11
1321.12838665971
 21
1633.956822252455
 31
0.0
  0
LINE
  5
962E
  8
0
 10
1480.990562678559
 20
1560.961718350109
 30
0.0
 11
1321.12838665971
 21
1560.961718350109
 31
0.0
  0
LINE
  5
962F
  8
0
 10
1481.210637260084
 20
1535.468922767775
 30
0.0
 11
1481.210637260084
 21
1659.49357093062
 31
0.0
  0
LINE
  5
9630
  8
0
 10
1481.210637260084
 20
1659.49357093062
 30
0.0
 11
1498.552514284154
 21
1676.679231400781
 31
0.0
  0
LINE
  5
9631
  8
0
 10
1498.552514284154
 20
1676.679231400781
 30
0.0
 11
1624.787294246175
 21
1676.679231400781
 31
0.0
  0
LINE
  5
9632
  8
0
 10
1624.787294246175
 20
1676.679231400781
 30
0.0
 11
1642.085156353943
 21
1659.49357093062
 31
0.0
  0
LINE
  5
9633
  8
0
 10
1642.085156353943
 20
1659.49357093062
 30
0.0
 11
1642.085156353943
 21
1535.468922767775
 31
0.0
  0
LINE
  5
9634
  8
0
 10
1642.085156353943
 20
1535.468922767775
 30
0.0
 11
1624.787294246175
 21
1518.327215393446
 31
0.0
  0
LINE
  5
9635
  8
0
 10
1624.787294246175
 20
1518.327215393446
 30
0.0
 11
1498.552514284154
 21
1518.327215393446
 31
0.0
  0
LINE
  5
9636
  8
0
 10
1498.552514284154
 20
1518.327215393446
 30
0.0
 11
1481.210637260084
 21
1535.468922767775
 31
0.0
  0
LINE
  5
9637
  8
0
 10
1641.821066856114
 20
1633.956822252455
 30
0.0
 11
1482.002905753569
 21
1633.956822252455
 31
0.0
  0
LINE
  5
9638
  8
0
 10
1641.821066856114
 20
1560.961718350109
 30
0.0
 11
1482.002905753569
 21
1560.961718350109
 31
0.0
  0
LINE
  5
9639
  8
0
 10
1642.085156353943
 20
1535.468922767775
 30
0.0
 11
1642.085156353943
 21
1659.49357093062
 31
0.0
  0
LINE
  5
963A
  8
0
 10
1642.085156353943
 20
1659.49357093062
 30
0.0
 11
1659.383018461709
 21
1676.679231400781
 31
0.0
  0
LINE
  5
963B
  8
0
 10
1659.383018461709
 20
1676.679231400781
 30
0.0
 11
1785.661813340034
 21
1676.679231400781
 31
0.0
  0
LINE
  5
963C
  8
0
 10
1785.661813340034
 20
1676.679231400781
 30
0.0
 11
1802.959675447801
 21
1659.49357093062
 31
0.0
  0
LINE
  5
963D
  8
0
 10
1802.959675447801
 20
1659.49357093062
 30
0.0
 11
1802.959675447801
 21
1535.468922767775
 31
0.0
  0
LINE
  5
963E
  8
0
 10
1802.959675447801
 20
1535.468922767775
 30
0.0
 11
1785.661813340034
 21
1518.327215393446
 31
0.0
  0
LINE
  5
963F
  8
0
 10
1785.661813340034
 20
1518.327215393446
 30
0.0
 11
1659.383018461709
 21
1518.327215393446
 31
0.0
  0
LINE
  5
9640
  8
0
 10
1659.383018461709
 20
1518.327215393446
 30
0.0
 11
1642.085156353943
 21
1535.468922767775
 31
0.0
  0
LINE
  5
9641
  8
0
 10
1802.695585949973
 20
1633.956822252455
 30
0.0
 11
1642.833409931123
 21
1633.956822252455
 31
0.0
  0
LINE
  5
9642
  8
0
 10
1802.695585949973
 20
1560.961718350109
 30
0.0
 11
1642.833409931123
 21
1560.961718350109
 31
0.0
  0
LINE
  5
9643
  8
0
 10
1802.959675447801
 20
1535.468922767775
 30
0.0
 11
1802.959675447801
 21
1659.49357093062
 31
0.0
  0
LINE
  5
9644
  8
0
 10
1802.959675447801
 20
1659.49357093062
 30
0.0
 11
1820.301552471872
 21
1676.679231400781
 31
0.0
  0
LINE
  5
9645
  8
0
 10
1820.301552471872
 20
1676.679231400781
 30
0.0
 11
1946.536332433894
 21
1676.679231400781
 31
0.0
  0
LINE
  5
9646
  8
0
 10
1946.536332433894
 20
1676.679231400781
 30
0.0
 11
1963.878209457963
 21
1659.49357093062
 31
0.0
  0
LINE
  5
9647
  8
0
 10
1963.878209457963
 20
1659.49357093062
 30
0.0
 11
1963.878209457963
 21
1535.468922767775
 31
0.0
  0
LINE
  5
9648
  8
0
 10
1963.878209457963
 20
1535.468922767775
 30
0.0
 11
1946.536332433894
 21
1518.327215393446
 31
0.0
  0
LINE
  5
9649
  8
0
 10
1946.536332433894
 20
1518.327215393446
 30
0.0
 11
1820.301552471872
 21
1518.327215393446
 31
0.0
  0
LINE
  5
964A
  8
0
 10
1820.301552471872
 20
1518.327215393446
 30
0.0
 11
1802.959675447801
 21
1535.468922767775
 31
0.0
  0
LINE
  5
964B
  8
0
 10
1963.614119960136
 20
1633.956822252455
 30
0.0
 11
1803.795958857592
 21
1633.956822252455
 31
0.0
  0
LINE
  5
964C
  8
0
 10
1963.614119960136
 20
1560.961718350109
 30
0.0
 11
1803.795958857592
 21
1560.961718350109
 31
0.0
  0
LINE
  5
964D
  8
0
 10
1143.00002037439
 20
1501.888757552422
 30
0.0
 11
1143.00002037439
 21
2484.888757552422
 31
0.0
  0
LINE
  5
964E
  8
0
 10
1143.00002037439
 20
2484.888757552422
 30
0.0
 11
1981.000011900524
 21
2484.888757552422
 31
0.0
  0
LINE
  5
964F
  8
0
 10
1981.000011900524
 20
2484.888757552422
 30
0.0
 11
1981.000011900524
 21
1501.888757552422
 31
0.0
  0
LINE
  5
9650
  8
0
 10
1981.000011900524
 20
1501.888757552422
 30
0.0
 11
1143.00002037439
 21
1501.888757552422
 31
0.0
  0
LINE
  5
9651
  8
0
 10
1151.230809723379
 20
2476.691505179837
 30
0.0
 11
1972.76922255152
 21
2476.691505179837
 31
0.0
  0
LINE
  5
9652
  8
0
 10
1972.76922255152
 20
2476.691505179837
 30
0.0
 11
1972.76922255152
 21
1510.151939568766
 31
0.0
  0
LINE
  5
9653
  8
0
 10
1972.76922255152
 20
1510.151939568766
 30
0.0
 11
1151.230809723379
 21
1510.151939568766
 31
0.0
  0
LINE
  5
9654
  8
0
 10
1151.230809723379
 20
1510.151939568766
 30
0.0
 11
1151.230809723379
 21
2476.691505179837
 31
0.0
  0
LINE
  5
96E3
  8
0
 10
2326.99997962561
 20
2484.888757552422
 30
0.0
 11
2326.99997962561
 21
1501.888757552422
 31
0.0
  0
LINE
  5
96E4
  8
0
 10
2326.99997962561
 20
1501.888757552422
 30
0.0
 11
2281.000011900524
 21
1501.888757552422
 31
0.0
  0
LINE
  5
96E5
  8
0
 10
2281.000011900524
 20
1501.888757552422
 30
0.0
 11
2281.000011900524
 21
2484.888757552422
 31
0.0
  0
LINE
  5
96E6
  8
0
 10
2281.000011900524
 20
2484.888757552422
 30
0.0
 11
2326.99997962561
 21
2484.888757552422
 31
0.0
  0
LINE
  5
96E7
  8
0
 10
2305.595512253001
 20
2484.888757552427
 30
0.0
 11
2305.595512253001
 21
1501.888757552424
 31
0.0
  0
LINE
  5
987F
  8
0
 10
2281.000011900524
 20
2485.013757552422
 30
0.0
 11
2281.000011900524
 21
2685.248757552422
 31
0.0
  0
LINE
  5
9880
  8
0
 10
2326.99997962561
 20
2485.013757552422
 30
0.0
 11
2326.99997962561
 21
2685.248757552422
 31
0.0
  0
LINE
  5
9881
  8
0
 10
2211.000011900524
 20
2684.888757552422
 30
0.0
 11
2141.000011900524
 21
2684.888757552422
 31
0.0
  0
LINE
  5
9882
  8
0
 10
2396.99997962561
 20
2684.888757552422
 30
0.0
 11
2599.670434171065
 21
2684.888757552422
 31
0.0
  0
LINE
  5
9883
  8
0
 10
2281.000011900524
 20
2684.888757552422
 30
0.0
 11
2326.99997962561
 21
2684.888757552422
 31
0.0
  0
LINE
  5
9887
  8
0
 10
1981.000011900524
 20
2485.013757552422
 30
0.0
 11
1981.000011900524
 21
2685.248757552422
 31
0.0
  0
LINE
  5
9888
  8
0
 10
1143.00002037439
 20
2485.013757552422
 30
0.0
 11
1143.00002037439
 21
2685.248757552422
 31
0.0
  0
LINE
  5
9889
  8
0
 10
1911.000011900524
 20
2684.888757552422
 30
0.0
 11
1213.00002037439
 21
2684.888757552422
 31
0.0
  0
LINE
  5
988D
  8
0
 10
1981.125011900524
 20
1501.888757552422
 30
0.0
 11
2081.360011900524
 21
1501.888757552422
 31
0.0
  0
LINE
  5
988E
  8
0
 10
1981.125011900524
 20
2484.888757552422
 30
0.0
 11
2081.360011900524
 21
2484.888757552422
 31
0.0
  0
LINE
  5
988F
  8
0
 10
2081.000011900524
 20
1571.888757552422
 30
0.0
 11
2081.000011900524
 21
2414.888757552422
 31
0.0
  0
LINE
  5
98A9
  8
0
 10
3655.0
 20
2543.388757552422
 30
0.0
 11
5155.0
 21
2543.388757552422
 31
0.0
  0
LINE
  5
98AA
  8
0
 10
3655.0
 20
2443.388757552422
 30
0.0
 11
5155.0
 21
2443.388757552422
 31
0.0
  0
LINE
  5
98AB
  8
0
 10
3655.0
 20
2343.388757552422
 30
0.0
 11
5155.0
 21
2343.388757552422
 31
0.0
  0
LINE
  5
98AC
  8
0
 10
3655.0
 20
2243.388757552422
 30
0.0
 11
5155.0
 21
2243.388757552422
 31
0.0
  0
LINE
  5
98AD
  8
0
 10
3655.0
 20
2143.388757552422
 30
0.0
 11
5155.0
 21
2143.388757552422
 31
0.0
  0
LINE
  5
98AE
  8
0
 10
3655.0
 20
2043.388757552422
 30
0.0
 11
5155.0
 21
2043.388757552422
 31
0.0
  0
LINE
  5
98AF
  8
0
 10
3655.0
 20
1943.388757552422
 30
0.0
 11
5155.0
 21
1943.388757552422
 31
0.0
  0
LINE
  5
98B0
  8
0
 10
3655.0
 20
1843.388757552422
 30
0.0
 11
5155.0
 21
1843.388757552422
 31
0.0
  0
LINE
  5
98B1
  8
0
 10
3655.0
 20
1743.388757552422
 30
0.0
 11
5155.0
 21
1743.388757552422
 31
0.0
  0
LINE
  5
98B2
  8
0
 10
3655.0
 20
1643.388757552422
 30
0.0
 11
5155.0
 21
1643.388757552422
 31
0.0
  0
LINE
  5
98B3
  8
0
 10
3655.0
 20
1543.388757552422
 30
0.0
 11
5155.0
 21
1543.388757552422
 31
0.0
  0
LINE
  5
98B4
  8
0
 10
3655.0
 20
1443.388757552422
 30
0.0
 11
5155.0
 21
1443.388757552422
 31
0.0
  0
LINE
  5
98B5
  8
0
 10
3655.0
 20
2543.388757552422
 30
0.0
 11
3655.0
 21
1443.388757552422
 31
0.0
  0
LINE
  5
98B6
  8
0
 10
4355.0
 20
2543.388757552422
 30
0.0
 11
4355.0
 21
1443.388757552422
 31
0.0
  0
LINE
  5
98B7
  8
0
 10
5155.0
 20
2543.388757552422
 30
0.0
 11
5155.0
 21
1443.388757552422
 31
0.0
  0
LINE
  5
98B8
  8
0
 62
     8
 10
-36550.0
 20
-25433.88757552422
 30
0.0
 11
-36550.0
 21
-25433.88757552422
 31
0.0
  0
LINE
  5
98B9
  8
図面枠
 10
5740.0
 20
200.0
 30
0.0
 11
5740.0
 21
4000.0
 31
0.0
  0
LINE
  5
98BA
  8
図面枠
 10
5740.0
 20
4000.0
 30
0.0
 11
400.0
 21
4000.0
 31
0.0
  0
LINE
  5
98BB
  8
図面枠
 10
400.0
 20
4000.0
 30
0.0
 11
400.0
 21
200.0
 31
0.0
  0
LINE
  5
98BC
  8
図面枠
 10
400.0
 20
200.0
 30
0.0
 11
5740.0
 21
200.0
 31
0.0
  0
LINE
  5
98BD
  8
用紙枠
 10
0.0
 20
0.0
 30
0.0
 11
5940.0
 21
0.0
 31
0.0
  0
LINE
  5
98BE
  8
用紙枠
 10
5940.0
 20
0.0
 30
0.0
 11
5940.0
 21
4200.0
 31
0.0
  0
LINE
  5
98BF
  8
用紙枠
 10
5940.0
 20
4200.0
 30
0.0
 11
0.0
 21
4200.0
 31
0.0
  0
LINE
  5
98C0
  8
用紙枠
 10
0.0
 20
4200.0
 30
0.0
 11
0.0
 21
0.0
 31
0.0
  0
TEXT
  5
98C1
  8
0
 10
4674.65909090909
 20
1473.729666643331
 30
0.0
 40
40.0
  1
10.3㎏
  0
TEXT
  5
98C2
  8
0
 10
3658.0
 20
1473.047848461513
 30
0.0
 40
40.0
  1
  質量
  0
TEXT
  5
98C3
  8
0
 10
4558.181818181818
 20
1573.388757552422
 30
0.0
 40
40.0
  1
838x983x46ｍｍ
  0
TEXT
  5
98C4
  8
0
 10
3658.0
 20
1573.047848461513
 30
0.0
 40
40.0
  1
  外形寸法（WxHxD）
  0
TEXT
  5
98C5
  8
0
 10
4691.818181818182
 20
1673.388757552422
 30
0.0
 40
40.0
  1
600V
  0
TEXT
  5
98C6
  8
0
 10
3658.0
 20
1672.934212097877
 30
0.0
 40
40.0
  1
  最大システム電圧
  0
TEXT
  5
98C7
  8
0
 10
4686.022727272727
 20
1773.388757552422
 30
0.0
 40
40.0
  1
8.82A
  0
TEXT
  5
98C8
  8
0
 10
3658.0
 20
1772.252393916059
 30
0.0
 40
40.0
  1
  公称短絡電流
  0
TEXT
  5
98C9
  8
0
 10
4684.431818181818
 20
1873.388757552422
 30
0.0
 40
40.0
  1
19.2V
  0
TEXT
  5
98CA
  8
0
 10
3658.0
 20
1872.479666643331
 30
0.0
 40
40.0
  1
  公称開放電圧
  0
TEXT
  5
98CB
  8
0
 10
4686.022727272727
 20
1973.388757552422
 30
0.0
 40
40.0
  1
8.27A
  0
TEXT
  5
98CC
  8
0
 10
3658.0
 20
1972.593303006968
 30
0.0
 40
40.0
  1
  公称最大出力動作電流
  0
TEXT
  5
98CD
  8
0
 10
4684.431818181818
 20
2073.388757552422
 30
0.0
 40
40.0
  1
15.1V
  0
TEXT
  5
98CE
  8
0
 10
3658.0
 20
2072.593303006968
 30
0.0
 40
40.0
  1
  公称最大出力動作電圧
  0
TEXT
  5
98CF
  8
0
 10
4686.931818181818
 20
2173.388757552422
 30
0.0
 40
40.0
  1
125W
  0
TEXT
  5
98D0
  8
0
 10
3658.0
 20
2172.479666643331
 30
0.0
 40
40.0
  1
  公称最大出力
  0
TEXT
  5
98D1
  8
0
 10
4688.75
 20
2273.388757552422
 30
0.0
 40
40.0
  1
15.1%%%
  0
TEXT
  5
98D2
  8
0
 10
3658.0
 20
2272.252393916059
 30
0.0
 40
40.0
  1
  最大モジュール変換効率
  0
TEXT
  5
98D3
  8
0
 10
4543.068181818182
 20
2372.252393916058
 30
0.0
 40
40.0
  1
シリコン単結晶系
  0
TEXT
  5
98D4
  8
0
 10
3658.0
 20
2372.934212097877
 30
0.0
 40
40.0
  1
  セル種類
  0
TEXT
  5
98D5
  8
0
 10
4529.65909090909
 20
2473.388757552422
 30
0.0
 40
40.0
  1
LPV-125V-BLK-J
  0
TEXT
  5
98D6
  8
0
 10
3658.0
 20
2471.911484825149
 30
0.0
 40
40.0
  1
  型式
  0
TEXT
  5
98D7
  8
0
 10
2061.000011900524
 20
1916.826257552422
 30
0.0
 40
70.0
  1
983
 50
90.0
  0
LINE
  5
98D8
  8
0
 10
2069.333345233857
 20
2414.888757552422
 30
0.0
 11
2081.000011900524
 21
2484.888757552422
 31
0.0
  0
LINE
  5
98D9
  8
0
 10
2092.666678567191
 20
2414.888757552422
 30
0.0
 11
2081.000011900524
 21
2484.888757552422
 31
0.0
  0
LINE
  5
98DA
  8
0
 10
2081.000011900524
 20
2484.888757552422
 30
0.0
 11
2081.000011900524
 21
2414.888757552422
 31
0.0
  0
LINE
  5
98DB
  8
0
 10
2092.666678567191
 20
1571.888757552422
 30
0.0
 11
2081.000011900524
 21
1501.888757552422
 31
0.0
  0
LINE
  5
98DC
  8
0
 10
2069.333345233857
 20
1571.888757552422
 30
0.0
 11
2081.000011900524
 21
1501.888757552422
 31
0.0
  0
LINE
  5
98DD
  8
0
 10
2081.000011900524
 20
1501.888757552422
 30
0.0
 11
2081.000011900524
 21
1571.888757552422
 31
0.0
  0
TEXT
  5
98DE
  8
0
 10
1485.636379773821
 20
2704.888757552422
 30
0.0
 40
70.0
  1
838
  0
LINE
  5
98DF
  8
0
 10
1213.00002037439
 20
2673.222090885756
 30
0.0
 11
1143.00002037439
 21
2684.888757552422
 31
0.0
  0
LINE
  5
98E0
  8
0
 10
1213.00002037439
 20
2696.555424219089
 30
0.0
 11
1143.00002037439
 21
2684.888757552422
 31
0.0
  0
LINE
  5
98E1
  8
0
 10
1143.00002037439
 20
2684.888757552422
 30
0.0
 11
1213.00002037439
 21
2684.888757552422
 31
0.0
  0
LINE
  5
98E2
  8
0
 10
1911.000011900524
 20
2696.555424219089
 30
0.0
 11
1981.000011900524
 21
2684.888757552422
 31
0.0
  0
LINE
  5
98E3
  8
0
 10
1911.000011900524
 20
2673.222090885756
 30
0.0
 11
1981.000011900524
 21
2684.888757552422
 31
0.0
  0
LINE
  5
98E4
  8
0
 10
1981.000011900524
 20
2684.888757552422
 30
0.0
 11
1911.000011900524
 21
2684.888757552422
 31
0.0
  0
TEXT
  5
98E5
  8
0
 10
2483.420434171065
 20
2704.888757552422
 30
0.0
 40
70.0
  1
46
  0
LINE
  5
98E6
  8
0
 10
2396.99997962561
 20
2673.222090885756
 30
0.0
 11
2326.99997962561
 21
2684.888757552422
 31
0.0
  0
LINE
  5
98E7
  8
0
 10
2396.99997962561
 20
2696.555424219089
 30
0.0
 11
2326.99997962561
 21
2684.888757552422
 31
0.0
  0
LINE
  5
98E8
  8
0
 10
2326.99997962561
 20
2684.888757552422
 30
0.0
 11
2396.99997962561
 21
2684.888757552422
 31
0.0
  0
LINE
  5
98E9
  8
0
 10
2211.000011900524
 20
2696.555424219089
 30
0.0
 11
2281.000011900524
 21
2684.888757552422
 31
0.0
  0
LINE
  5
98EA
  8
0
 10
2211.000011900524
 20
2673.222090885756
 30
0.0
 11
2281.000011900524
 21
2684.888757552422
 31
0.0
  0
LINE
  5
98EB
  8
0
 10
2281.000011900524
 20
2684.888757552422
 30
0.0
 11
2211.000011900524
 21
2684.888757552422
 31
0.0
  0
VIEWPORT
  5
2C13
 67
     1
  8
0
  6
CONTINUOUS
 10
145.330337524414
 20
141.1905255588052
 30
0.0
 40
366.1848134449208
 41
300.9119599272723
 68
     1
 69
     1
1001
ACAD
1000
MVIEW
1002
{
1070
    16
1010
0.0
1020
0.0
1030
0.0
1020
0.0
1030
0.0
1010
0.0
1020
0.0
1030
1.0
1020
0.0
1030
1.0
1040
0.0
1040
300.9119599272723
1040
145.330337524414
1040
141.1905255588052
1040
50.0
1040
0.0
1040
0.0
1070
     0
1070
   100
1070
     0
1070
     1
1070
     0
1070
     0
1070
     0
1070
     0
1040
0.0
1040
0.0
1040
0.0
1040
10.0
1040
10.0
1040
10.0
1040
10.0
1070
     0
1002
{
1002
}
1002
}
  0
VIEWPORT
  5
2C17
 67
     1
  8
0
  6
CONTINUOUS
 10
145.3303314447403
 20
101.8328338861465
 30
0.0
 40
232.5285303115845
 41
162.9325342178345
 68
     2
 69
     2
1001
ACAD
1000
MVIEW
1002
{
1070
    16
1010
0.0
1020
0.0
1030
0.0
1020
0.0
1030
0.0
1010
0.0
1020
0.0
1030
1.0
1020
0.0
1030
1.0
1040
0.0
1040
8205.767713711226
1040
5809.965151642898
1040
1137.040193552135
1040
50.0
1040
0.0
1040
0.0
1070
     0
1070
   100
1070
     0
1070
     1
1070
     0
1070
     0
1070
     0
1070
     0
1040
0.0
1040
0.0
1040
0.0
1040
10.0
1040
10.0
1040
10.0
1040
10.0
1070
     0
1002
{
1002
}
1002
}
  0
ENDSEC
  0
EOF
