  0
SECTION
  2
HEADER
  9
$ACADVER
  1
AC1009
  9
$DWGCODEPAGE
  3
ansi_932
  9
$INSBASE
 10
0.0
 20
0.0
 30
0.0
  9
$EXTMIN
 10
0.0
 20
0.0
 30
0.0
  9
$EXTMAX
 10
2970.0
 20
2100.0
 30
0.0
  9
$LIMMIN
 10
109.6511881510417
 20
82.19722222222221
  9
$LIMMAX
 10
147.8903700086805
 20
96.5028089735243
  9
$ORTHOMODE
 70
     0
  9
$REGENMODE
 70
     1
  9
$FILLMODE
 70
     1
  9
$QTEXTMODE
 70
     0
  9
$MIRRTEXT
 70
     1
  9
$DRAGMODE
 70
     2
  9
$LTSCALE
 40
1.0
  9
$OSMODE
 70
   511
  9
$ATTMODE
 70
     1
  9
$TEXTSIZE
 40
0.2
  9
$TRACEWID
 40
0.05
  9
$TEXTSTYLE
  7
STANDARD
  9
$CLAYER
  8
0
  9
$CELTYPE
  6
BYLAYER
  9
$CECOLOR
 62
   256
  9
$DIMSCALE
 40
1.0
  9
$DIMASZ
 40
35.0
  9
$DIMEXO
 40
0.0625
  9
$DIMDLI
 40
10.0
  9
$DIMRND
 40
0.0
  9
$DIMDLE
 40
0.0
  9
$DIMEXE
 40
0.18
  9
$DIMTP
 40
0.0
  9
$DIMTM
 40
0.0
  9
$DIMTXT
 40
35.0
  9
$DIMCEN
 40
0.09
  9
$DIMTSZ
 40
0.0
  9
$DIMTOL
 70
     0
  9
$DIMLIM
 70
     0
  9
$DIMTIH
 70
     0
  9
$DIMTOH
 70
     0
  9
$DIMSE1
 70
     0
  9
$DIMSE2
 70
     0
  9
$DIMTAD
 70
     3
  9
$DIMZIN
 70
     0
  9
$DIMBLK
  1
OPEN
  9
$DIMASO
 70
     1
  9
$DIMSHO
 70
     1
  9
$DIMPOST
  1

  9
$DIMAPOST
  1

  9
$DIMALT
 70
     0
  9
$DIMALTD
 70
     2
  9
$DIMALTF
 40
25.4
  9
$DIMLFAC
 40
1.0
  9
$DIMTOFL
 70
     1
  9
$DIMTVP
 40
0.0
  9
$DIMTIX
 70
     0
  9
$DIMSOXD
 70
     0
  9
$DIMSAH
 70
     0
  9
$DIMBLK1
  1

  9
$DIMBLK2
  1

  9
$DIMSTYLE
  2
STANDARD
  9
$DIMCLRD
 70
     0
  9
$DIMCLRE
 70
     0
  9
$DIMCLRT
 70
     0
  9
$DIMTFAC
 40
1.0
  9
$DIMGAP
 40
10.0
  9
$LUNITS
 70
     2
  9
$LUPREC
 70
     4
  9
$SKETCHINC
 40
0.1
  9
$FILLETRAD
 40
100.0
  9
$AUNITS
 70
     0
  9
$AUPREC
 70
     0
  9
$MENU
  1
acad
  9
$ELEVATION
 40
0.0
  9
$PELEVATION
 40
0.0
  9
$THICKNESS
 40
0.0
  9
$LIMCHECK
 70
     0
  9
$CHAMFERA
 40
0.0
  9
$CHAMFERB
 40
0.0
  9
$SKPOLY
 70
     0
  9
$TDCREATE
 40
2456743.597399803
  9
$TDUPDATE
 40
2456794.694165104
  9
$TDINDWG
 40
0.6995815625
  9
$TDUSRTIMER
 40
2456794.319019827
  9
$USRTIMER
 70
     1
  9
$ANGBASE
 50
0.0
  9
$ANGDIR
 70
     0
  9
$PDMODE
 70
     1
  9
$PDSIZE
 40
0.0
  9
$PLINEWID
 40
0.0
  9
$COORDS
 70
     1
  9
$SPLFRAME
 70
     0
  9
$SPLINETYPE
 70
     6
  9
$SPLINESEGS
 70
     8
  9
$ATTDIA
 70
     0
  9
$ATTREQ
 70
     1
  9
$HANDLING
 70
     1
  9
$HANDSEED
  5
9300
  9
$SURFTAB1
 70
     6
  9
$SURFTAB2
 70
     6
  9
$SURFTYPE
 70
     6
  9
$SURFU
 70
     6
  9
$SURFV
 70
     6
  9
$UCSNAME
  2

  9
$UCSORG
 10
0.0
 20
0.0
 30
0.0
  9
$UCSXDIR
 10
1.0
 20
0.0
 30
0.0
  9
$UCSYDIR
 10
0.0
 20
1.0
 30
0.0
  9
$PUCSNAME
  2

  9
$PUCSORG
 10
0.0
 20
0.0
 30
0.0
  9
$PUCSXDIR
 10
1.0
 20
0.0
 30
0.0
  9
$PUCSYDIR
 10
0.0
 20
1.0
 30
0.0
  9
$USERI1
 70
     0
  9
$USERI2
 70
     0
  9
$USERI3
 70
     0
  9
$USERI4
 70
     0
  9
$USERI5
 70
     0
  9
$USERR1
 40
0.0
  9
$USERR2
 40
0.0
  9
$USERR3
 40
0.0
  9
$USERR4
 40
0.0
  9
$USERR5
 40
0.0
  9
$WORLDVIEW
 70
     1
  9
$SHADEDGE
 70
     3
  9
$SHADEDIF
 70
    70
  9
$TILEMODE
 70
     1
  9
$MAXACTVP
 70
    16
  9
$PLIMCHECK
 70
     0
  9
$PEXTMIN
 10
29.06606628894805
 20
20.36656677722931
 30
0.0
  9
$PEXTMAX
 10
261.5945966005326
 20
183.2991009950638
 30
0.0
  9
$PLIMMIN
 10
-0.0000000000000231
 20
0.0000000000000053
  9
$PLIMMAX
 10
420.0
 20
297.0
  9
$UNITMODE
 70
     0
  9
$VISRETAIN
 70
     0
  9
$PLINEGEN
 70
     1
  9
$PSLTSCALE
 70
     0
  0
ENDSEC
  0
SECTION
  2
TABLES
  0
TABLE
  2
VPORT
 70
     1
  0
VPORT
  2
*ACTIVE
 70
     0
 10
0.0
 20
0.0
 11
1.0
 21
1.0
 12
1785.448932779365
 22
1078.822504487357
 13
0.0
 23
0.0
 14
1.0
 24
1.0
 15
0.0
 25
0.0
 16
0.0
 26
0.0
 36
1.0
 17
0.0
 27
0.0
 37
0.0
 40
3633.401625230477
 41
1.615571776155718
 42
50.0
 43
0.0
 44
0.0
 50
0.0
 51
0.0
 71
     0
 72
   100
 73
     1
 74
     1
 75
     0
 76
     0
 77
     0
 78
     0
  0
ENDTAB
  0
TABLE
  2
LTYPE
 70
     1
  0
LTYPE
  2
CONTINUOUS
 70
     0
  3
Solid line
 72
    65
 73
     0
 40
0.0
  0
ENDTAB
  0
TABLE
  2
LAYER
 70
     4
  0
LAYER
  2
0
 70
     0
 62
     7
  6
CONTINUOUS
  0
LAYER
  2
DEFPOINTS
 70
     0
 62
     7
  6
CONTINUOUS
  0
LAYER
  2
用紙枠
 70
     4
 62
     7
  6
CONTINUOUS
  0
LAYER
  2
図面枠
 70
     0
 62
     7
  6
CONTINUOUS
  0
ENDTAB
  0
TABLE
  2
STYLE
 70
     1
  0
STYLE
  2
STANDARD
 70
     0
 40
0.0
 41
1.0
 50
0.0
 71
     0
 42
0.2
  3

  4

  0
ENDTAB
  0
TABLE
  2
VIEW
 70
     0
  0
ENDTAB
  0
TABLE
  2
UCS
 70
     0
  0
ENDTAB
  0
TABLE
  2
APPID
 70
    19
  0
APPID
  2
ACAD
 70
     0
  0
APPID
  2
ACAD_EXEMPT_FROM_CAD_STAND
 70
     0
  0
APPID
  2
ACAD_DSTYLE_DIMJAG
 70
     0
  0
APPID
  2
ACAD_DSTYLE_DIMTALN
 70
     0
  0
APPID
  2
ACAD_NAV_VCDISPLAY
 70
     0
  0
APPID
  2
ACAD_PSEXT
 70
     0
  0
APPID
  2
ACADANNOTATIVE
 70
     0
  0
APPID
  2
ACAECLAYERSTANDARD
 70
     0
  0
APPID
  2
ACCMTRANSPARENCY
 70
     0
  0
APPID
  2
ACADANNOAV
 70
     0
  0
APPID
  2
ACADANNOPO
 70
     0
  0
APPID
  2
ACAD_MLEADERVER
 70
     0
  0
APPID
  2
ACADSTRINGINFO
 70
     0
  0
APPID
  2
ACAD_DSTYLE_DIMBREAK
 70
     0
  0
APPID
  2
PLOTTRANSPARENCY
 70
     0
  0
APPID
  2
ACDBDYNAMICBLOCKGUID
 70
     0
  0
APPID
  2
ACAUTHENVIRON
 70
     0
  0
APPID
  2
ACLAYERTOOLS
 70
     0
  0
APPID
  2
ACDBDYNAMICBLOCKTRUENAME
 70
     0
  0
ENDTAB
  0
TABLE
  2
DIMSTYLE
 70
     1
  0
DIMSTYLE
  2
STANDARD
 70
     0
  3

  4

  5
OPEN
  6

  7

 40
1.0
 41
35.0
 42
0.0625
 43
10.0
 44
0.18
 45
0.0
 46
0.0
 47
0.0
 48
0.0
140
35.0
141
0.09
142
0.0
143
25.4
144
1.0
145
0.0
146
1.0
147
10.0
 71
     0
 72
     0
 73
     0
 74
     0
 75
     0
 76
     0
 77
     3
 78
     0
170
     0
171
     2
172
     1
173
     0
174
     0
175
     0
176
     0
177
     0
178
     0
  0
ENDTAB
  0
ENDSEC
  0
SECTION
  2
BLOCKS
  0
BLOCK
  8
0
  2
$MODEL_SPACE
 70
     0
 10
0.0
 20
0.0
 30
0.0
  3
$MODEL_SPACE
  1

  0
ENDBLK
  5
E
  8
0
  0
BLOCK
 67
     1
  8
0
  2
$PAPER_SPACE
 70
     0
 10
0.0
 20
0.0
 30
0.0
  3
$PAPER_SPACE
  1

  0
ENDBLK
  5
10
 67
     1
  8
0
  0
BLOCK
  8
0
  2
_OPEN
 70
     0
 10
0.0
 20
0.0
 30
0.0
  3
_OPEN
  1

  0
LINE
  5
AB0
  8
0
  6
BYBLOCK
 62
     0
 10
-1.0
 20
0.1666666666666667
 30
0.0
 11
0.0
 21
0.0
 31
0.0
  0
LINE
  5
AB1
  8
0
  6
BYBLOCK
 62
     0
 10
-1.0
 20
-0.1666666666666667
 30
0.0
 11
0.0
 21
0.0
 31
0.0
  0
LINE
  5
AB2
  8
0
  6
BYBLOCK
 62
     0
 10
0.0
 20
0.0
 30
0.0
 11
-1.0
 21
0.0
 31
0.0
  0
ENDBLK
  5
AB4
  8
0
  0
BLOCK
  8
0
  2
_CLOSED
 70
     0
 10
0.0
 20
0.0
 30
0.0
  3
_CLOSED
  1

  0
LINE
  5
AB6
  8
0
  6
BYBLOCK
 62
     0
 10
-1.0
 20
0.1666666666666667
 30
0.0
 11
0.0
 21
0.0
 31
0.0
  0
LINE
  5
AB7
  8
0
  6
BYBLOCK
 62
     0
 10
0.0
 20
0.0
 30
0.0
 11
-1.0
 21
-0.1666666666666667
 31
0.0
  0
LINE
  5
AB8
  8
0
  6
BYBLOCK
 62
     0
 10
-1.0
 20
0.1666666666666667
 30
0.0
 11
-1.0
 21
-0.1666666666666667
 31
0.0
  0
LINE
  5
AB9
  8
0
  6
BYBLOCK
 62
     0
 10
0.0
 20
0.0
 30
0.0
 11
-1.0
 21
0.0
 31
0.0
  0
ENDBLK
  5
ABB
  8
0
  0
BLOCK
  8
0
  2
1
 70
     0
 10
0.0
 20
0.0
 30
0.0
  3
1
  1

  0
POLYLINE
  5
8C4B
  8
0
 66
     1
 10
0.0
 20
0.0
 30
0.0
 70
     1
  0
VERTEX
  5
90F2
  8
0
 10
14.73890208828379
 20
18.73242465924704
 30
0.0
  0
VERTEX
  5
90F3
  8
0
 10
14.37431383774168
 20
18.74472494785353
 30
0.0
  0
VERTEX
  5
90F4
  8
0
 10
14.01613912508883
 20
18.78109738200416
 30
0.0
  0
VERTEX
  5
90F5
  8
0
 10
13.66518704279742
 20
18.84074931419571
 30
0.0
  0
VERTEX
  5
90F6
  8
0
 10
13.32226668333963
 20
18.92288809692495
 30
0.0
  0
VERTEX
  5
90F7
  8
0
 10
12.98818713918763
 20
19.02672108268866
 30
0.0
  0
VERTEX
  5
90F8
  8
0
 10
12.66375750281358
 20
19.15145562398359
 30
0.0
  0
VERTEX
  5
90F9
  8
0
 10
12.34978686668967
 20
19.29629907330654
 30
0.0
  0
VERTEX
  5
90FA
  8
0
 10
12.04708432328806
 20
19.46045878315427
 30
0.0
  0
VERTEX
  5
90FB
  8
0
 10
11.75645896508093
 20
19.64314210602354
 30
0.0
  0
VERTEX
  5
90FC
  8
0
 10
11.47871988454045
 20
19.84355639441114
 30
0.0
  0
VERTEX
  5
90FD
  8
0
 10
11.21467617413879
 20
20.06090900081384
 30
0.0
  0
VERTEX
  5
90FE
  8
0
 10
10.96513692634812
 20
20.2944072777284
 30
0.0
  0
VERTEX
  5
90FF
  8
0
 10
10.73091123364063
 20
20.5432585776516
 30
0.0
  0
VERTEX
  5
9100
  8
0
 10
10.51280818848847
 20
20.8066702530802
 30
0.0
  0
VERTEX
  5
9101
  8
0
 10
10.31163688336383
 20
21.083849656511
 30
0.0
  0
VERTEX
  5
9102
  8
0
 10
10.12820641073887
 20
21.37400414044074
 30
0.0
  0
VERTEX
  5
9103
  8
0
 10
9.963325863085773
 20
21.67634105736622
 30
0.0
  0
VERTEX
  5
9104
  8
0
 10
9.817804332876705
 20
21.99006775978418
 30
0.0
  0
VERTEX
  5
9105
  8
0
 10
9.69245091258384
 20
22.31439160019142
 30
0.0
  0
VERTEX
  5
9106
  8
0
 10
9.588074694679353
 20
22.6485199310847
 30
0.0
  0
VERTEX
  5
9107
  8
0
 10
9.505484771635412
 20
22.99166010496079
 30
0.0
  0
VERTEX
  5
9108
  8
0
 10
9.445490235924195
 20
23.34301947431647
 30
0.0
  0
VERTEX
  5
9109
  8
0
 10
9.40890018001787
 20
23.70180539164851
 30
0.0
  0
VERTEX
  5
910A
  8
0
 10
9.396523696388613
 20
24.06722520945368
 30
0.0
  0
VERTEX
  5
910B
  8
0
 10
9.408900180017868
 20
24.43260665566442
 30
0.0
  0
VERTEX
  5
910C
  8
0
 10
9.445490235924193
 20
24.79128184353869
 30
0.0
  0
VERTEX
  5
910D
  8
0
 10
9.505484771635412
 20
25.14246470356084
 30
0.0
  0
VERTEX
  5
910E
  8
0
 10
9.58807469467935
 20
25.4853691662152
 30
0.0
  0
VERTEX
  5
910F
  8
0
 10
9.69245091258384
 20
25.81920916198615
 30
0.0
  0
VERTEX
  5
9110
  8
0
 10
9.817804332876705
 20
26.14319862135801
 30
0.0
  0
VERTEX
  5
9111
  8
0
 10
9.963325863085773
 20
26.45655147481516
 30
0.0
  0
VERTEX
  5
9112
  8
0
 10
10.12820641073887
 20
26.75848165284192
 30
0.0
  0
VERTEX
  5
9113
  8
0
 10
10.31163688336383
 20
27.04820308592265
 30
0.0
  0
VERTEX
  5
9114
  8
0
 10
10.51280818848847
 20
27.32492970454171
 30
0.0
  0
VERTEX
  5
9115
  8
0
 10
10.73091123364063
 20
27.58787543918345
 30
0.0
  0
VERTEX
  5
9116
  8
0
 10
10.96513692634812
 20
27.8362542203322
 30
0.0
  0
VERTEX
  5
9117
  8
0
 10
11.21467617413879
 20
28.06927997847232
 30
0.0
  0
VERTEX
  5
9118
  8
0
 10
11.47871988454045
 20
28.28616664408816
 30
0.0
  0
VERTEX
  5
9119
  8
0
 10
11.75645896508093
 20
28.48612814766408
 30
0.0
  0
VERTEX
  5
911A
  8
0
 10
12.04708432328806
 20
28.66837841968442
 30
0.0
  0
VERTEX
  5
911B
  8
0
 10
12.34978686668967
 20
28.83213139063351
 30
0.0
  0
VERTEX
  5
911C
  8
0
 10
12.66375750281359
 20
28.97660099099573
 30
0.0
  0
VERTEX
  5
911D
  8
0
 10
12.98818713918763
 20
29.10100115125543
 30
0.0
  0
VERTEX
  5
911E
  8
0
 10
13.32226668333964
 20
29.20454580189693
 30
0.0
  0
VERTEX
  5
911F
  8
0
 10
13.66518704279743
 20
29.28644887340461
 30
0.0
  0
VERTEX
  5
9120
  8
0
 10
14.01613912508884
 20
29.3459242962628
 30
0.0
  0
VERTEX
  5
9121
  8
0
 10
14.37431383774169
 20
29.38218600095587
 30
0.0
  0
VERTEX
  5
9122
  8
0
 10
14.73890208828381
 20
29.39444791796814
 30
0.0
  0
VERTEX
  5
9123
  8
0
 10
15.1051534733518
 20
29.38218600095586
 30
0.0
  0
VERTEX
  5
9124
  8
0
 10
15.46455059536283
 20
29.3459242962628
 30
0.0
  0
VERTEX
  5
9125
  8
0
 10
15.8163172517826
 20
29.28644887340461
 30
0.0
  0
VERTEX
  5
9126
  8
0
 10
16.15967724007683
 20
29.20454580189694
 30
0.0
  0
VERTEX
  5
9127
  8
0
 10
16.49385435771124
 20
29.10100115125542
 30
0.0
  0
VERTEX
  5
9128
  8
0
 10
16.81807240215153
 20
28.97660099099573
 30
0.0
  0
VERTEX
  5
9129
  8
0
 10
17.13155517086343
 20
28.83213139063351
 30
0.0
  0
VERTEX
  5
912A
  8
0
 10
17.43352646131266
 20
28.66837841968441
 30
0.0
  0
VERTEX
  5
912B
  8
0
 10
17.72321007096492
 20
28.48612814766408
 30
0.0
  0
VERTEX
  5
912C
  8
0
 10
17.99982979728594
 20
28.28616664408816
 30
0.0
  0
VERTEX
  5
912D
  8
0
 10
18.26260943774143
 20
28.06927997847232
 30
0.0
  0
VERTEX
  5
912E
  8
0
 10
18.5107727897971
 20
27.8362542203322
 30
0.0
  0
VERTEX
  5
912F
  8
0
 10
18.74354365091867
 20
27.58787543918345
 30
0.0
  0
VERTEX
  5
9130
  8
0
 10
18.96014581857186
 20
27.32492970454171
 30
0.0
  0
VERTEX
  5
9131
  8
0
 10
19.15980309022238
 20
27.04820308592266
 30
0.0
  0
VERTEX
  5
9132
  8
0
 10
19.34173926333595
 20
26.75848165284192
 30
0.0
  0
VERTEX
  5
9133
  8
0
 10
19.50517813537827
 20
26.45655147481516
 30
0.0
  0
VERTEX
  5
9134
  8
0
 10
19.64934350381509
 20
26.14319862135802
 30
0.0
  0
VERTEX
  5
9135
  8
0
 10
19.77345916611209
 20
25.81920916198615
 30
0.0
  0
VERTEX
  5
9136
  8
0
 10
19.876748919735
 20
25.48536916621521
 30
0.0
  0
VERTEX
  5
9137
  8
0
 10
19.95843656214954
 20
25.14246470356085
 30
0.0
  0
VERTEX
  5
9138
  8
0
 10
20.01774589082142
 20
24.79128184353871
 30
0.0
  0
VERTEX
  5
9139
  8
0
 10
20.05390070321636
 20
24.43260665566444
 30
0.0
  0
VERTEX
  5
913A
  8
0
 10
20.06612479680007
 20
24.0672252094537
 30
0.0
  0
VERTEX
  5
913B
  8
0
 10
20.05390070321636
 20
23.70180539164853
 30
0.0
  0
VERTEX
  5
913C
  8
0
 10
20.01774589082143
 20
23.3430194743165
 30
0.0
  0
VERTEX
  5
913D
  8
0
 10
19.95843656214955
 20
22.99166010496081
 30
0.0
  0
VERTEX
  5
913E
  8
0
 10
19.87674891973501
 20
22.64851993108472
 30
0.0
  0
VERTEX
  5
913F
  8
0
 10
19.7734591661121
 20
22.31439160019145
 30
0.0
  0
VERTEX
  5
9140
  8
0
 10
19.6493435038151
 20
21.99006775978421
 30
0.0
  0
VERTEX
  5
9141
  8
0
 10
19.50517813537829
 20
21.67634105736624
 30
0.0
  0
VERTEX
  5
9142
  8
0
 10
19.34173926333596
 20
21.37400414044077
 30
0.0
  0
VERTEX
  5
9143
  8
0
 10
19.1598030902224
 20
21.08384965651102
 30
0.0
  0
VERTEX
  5
9144
  8
0
 10
18.96014581857188
 20
20.80667025308023
 30
0.0
  0
VERTEX
  5
9145
  8
0
 10
18.74354365091869
 20
20.54325857765162
 30
0.0
  0
VERTEX
  5
9146
  8
0
 10
18.51077278979713
 20
20.29440727772842
 30
0.0
  0
VERTEX
  5
9147
  8
0
 10
18.26260943774145
 20
20.06090900081386
 30
0.0
  0
VERTEX
  5
9148
  8
0
 10
17.99982979728597
 20
19.84355639441116
 30
0.0
  0
VERTEX
  5
9149
  8
0
 10
17.72321007096495
 20
19.64314210602356
 30
0.0
  0
VERTEX
  5
914A
  8
0
 10
17.4335264613127
 20
19.46045878315429
 30
0.0
  0
VERTEX
  5
914B
  8
0
 10
17.13155517086347
 20
19.29629907330656
 30
0.0
  0
VERTEX
  5
914C
  8
0
 10
16.81807240215157
 20
19.15145562398361
 30
0.0
  0
VERTEX
  5
914D
  8
0
 10
16.49385435771127
 20
19.02672108268867
 30
0.0
  0
VERTEX
  5
914E
  8
0
 10
16.15967724007687
 20
18.92288809692496
 30
0.0
  0
VERTEX
  5
914F
  8
0
 10
15.81631725178264
 20
18.84074931419572
 30
0.0
  0
VERTEX
  5
9150
  8
0
 10
15.46455059536287
 20
18.78109738200416
 30
0.0
  0
VERTEX
  5
9151
  8
0
 10
15.10515347335184
 20
18.74472494785353
 30
0.0
  0
SEQEND
  5
92FC
  8
0
  0
POLYLINE
  5
8C4C
  8
0
 66
     1
 10
0.0
 20
0.0
 30
0.0
 70
     1
  0
VERTEX
  5
9152
  8
0
 10
14.73132424659161
 20
21.14975615856019
 30
0.0
  0
VERTEX
  5
9153
  8
0
 10
14.53125420622072
 20
21.15647228387801
 30
0.0
  0
VERTEX
  5
9154
  8
0
 10
14.33485139392493
 20
21.17633122837799
 30
0.0
  0
VERTEX
  5
9155
  8
0
 10
14.14254666789062
 20
21.20889884487994
 30
0.0
  0
VERTEX
  5
9156
  8
0
 10
13.95477088630422
 20
21.25374098620369
 30
0.0
  0
VERTEX
  5
9157
  8
0
 10
13.77195490735213
 20
21.31042350516903
 30
0.0
  0
VERTEX
  5
9158
  8
0
 10
13.59452958922074
 20
21.37851225459579
 30
0.0
  0
VERTEX
  5
9159
  8
0
 10
13.42292579009647
 20
21.45757308730377
 30
0.0
  0
VERTEX
  5
915A
  8
0
 10
13.25757436816572
 20
21.54717185611278
 30
0.0
  0
VERTEX
  5
915B
  8
0
 10
13.09890618161488
 20
21.64687441384264
 30
0.0
  0
VERTEX
  5
915C
  8
0
 10
12.94735208863038
 20
21.75624661331315
 30
0.0
  0
VERTEX
  5
915D
  8
0
 10
12.8033429473986
 20
21.87485430734413
 30
0.0
  0
VERTEX
  5
915E
  8
0
 10
12.66730961610597
 20
22.00226334875538
 30
0.0
  0
VERTEX
  5
915F
  8
0
 10
12.53968295293887
 20
22.13803959036672
 30
0.0
  0
VERTEX
  5
9160
  8
0
 10
12.42089381608372
 20
22.28174888499796
 30
0.0
  0
VERTEX
  5
9161
  8
0
 10
12.31137306372691
 20
22.43295708546892
 30
0.0
  0
VERTEX
  5
9162
  8
0
 10
12.21155155405487
 20
22.59123004459939
 30
0.0
  0
VERTEX
  5
9163
  8
0
 10
12.12186014525397
 20
22.7561336152092
 30
0.0
  0
VERTEX
  5
9164
  8
0
 10
12.04272969551064
 20
22.92723365011815
 30
0.0
  0
VERTEX
  5
9165
  8
0
 10
11.97459106301128
 20
23.10409600214606
 30
0.0
  0
VERTEX
  5
9166
  8
0
 10
11.91787510594229
 20
23.28628652411273
 30
0.0
  0
VERTEX
  5
9167
  8
0
 10
11.87301268249007
 20
23.47337106883799
 30
0.0
  0
VERTEX
  5
9168
  8
0
 10
11.84043465084104
 20
23.66491548914163
 30
0.0
  0
VERTEX
  5
9169
  8
0
 10
11.82057186918159
 20
23.86048563784347
 30
0.0
  0
VERTEX
  5
916A
  8
0
 10
11.81385519569812
 20
24.05964736776331
 30
0.0
  0
VERTEX
  5
916B
  8
0
 10
11.82057186918159
 20
24.25884746927696
 30
0.0
  0
VERTEX
  5
916C
  8
0
 10
11.84043465084104
 20
24.45452834743602
 30
0.0
  0
VERTEX
  5
916D
  8
0
 10
11.87301268249007
 20
24.64624927707274
 30
0.0
  0
VERTEX
  5
916E
  8
0
 10
11.91787510594229
 20
24.83356953301932
 30
0.0
  0
VERTEX
  5
916F
  8
0
 10
11.97459106301128
 20
25.01604839010803
 30
0.0
  0
VERTEX
  5
9170
  8
0
 10
12.04272969551064
 20
25.19324512317107
 30
0.0
  0
VERTEX
  5
9171
  8
0
 10
12.12186014525398
 20
25.36471900704067
 30
0.0
  0
VERTEX
  5
9172
  8
0
 10
12.21155155405487
 20
25.53002931654905
 30
0.0
  0
VERTEX
  5
9173
  8
0
 10
12.31137306372692
 20
25.68873532652846
 30
0.0
  0
VERTEX
  5
9174
  8
0
 10
12.42089381608372
 20
25.84039631181112
 30
0.0
  0
VERTEX
  5
9175
  8
0
 10
12.53968295293887
 20
25.98457154722925
 30
0.0
  0
VERTEX
  5
9176
  8
0
 10
12.66730961610597
 20
26.12082030761508
 30
0.0
  0
VERTEX
  5
9177
  8
0
 10
12.80334294739861
 20
26.24870186780084
 30
0.0
  0
VERTEX
  5
9178
  8
0
 10
12.94735208863038
 20
26.36777550261876
 30
0.0
  0
VERTEX
  5
9179
  8
0
 10
13.09890618161488
 20
26.47760048690107
 30
0.0
  0
VERTEX
  5
917A
  8
0
 10
13.25757436816572
 20
26.57773609547998
 30
0.0
  0
VERTEX
  5
917B
  8
0
 10
13.42292579009647
 20
26.66774160318775
 30
0.0
  0
VERTEX
  5
917C
  8
0
 10
13.59452958922074
 20
26.74717628485658
 30
0.0
  0
VERTEX
  5
917D
  8
0
 10
13.77195490735213
 20
26.81559941531871
 30
0.0
  0
VERTEX
  5
917E
  8
0
 10
13.95477088630423
 20
26.87257026940637
 30
0.0
  0
VERTEX
  5
917F
  8
0
 10
14.14254666789063
 20
26.91764812195177
 30
0.0
  0
VERTEX
  5
9180
  8
0
 10
14.33485139392493
 20
26.95039224778717
 30
0.0
  0
VERTEX
  5
9181
  8
0
 10
14.53125420622073
 20
26.97036192174477
 30
0.0
  0
VERTEX
  5
9182
  8
0
 10
14.73132424659162
 20
26.97711641865681
 30
0.0
  0
VERTEX
  5
9183
  8
0
 10
14.93052434810568
 20
26.97036192174476
 30
0.0
  0
VERTEX
  5
9184
  8
0
 10
15.12620522626512
 20
26.95039224778717
 30
0.0
  0
VERTEX
  5
9185
  8
0
 10
15.31792615590216
 20
26.91764812195177
 30
0.0
  0
VERTEX
  5
9186
  8
0
 10
15.50524641184903
 20
26.87257026940637
 30
0.0
  0
VERTEX
  5
9187
  8
0
 10
15.68772526893796
 20
26.81559941531871
 30
0.0
  0
VERTEX
  5
9188
  8
0
 10
15.86492200200118
 20
26.74717628485658
 30
0.0
  0
VERTEX
  5
9189
  8
0
 10
16.03639588587093
 20
26.66774160318775
 30
0.0
  0
VERTEX
  5
918A
  8
0
 10
16.20170619537944
 20
26.57773609547998
 30
0.0
  0
VERTEX
  5
918B
  8
0
 10
16.36041220535893
 20
26.47760048690106
 30
0.0
  0
VERTEX
  5
918C
  8
0
 10
16.51207319064164
 20
26.36777550261876
 30
0.0
  0
VERTEX
  5
918D
  8
0
 10
16.6562484260598
 20
26.24870186780084
 30
0.0
  0
VERTEX
  5
918E
  8
0
 10
16.79249718644564
 20
26.12082030761508
 30
0.0
  0
VERTEX
  5
918F
  8
0
 10
16.9203787466314
 20
25.98457154722925
 30
0.0
  0
VERTEX
  5
9190
  8
0
 10
17.03945238144929
 20
25.84039631181112
 30
0.0
  0
VERTEX
  5
9191
  8
0
 10
17.14927736573156
 20
25.68873532652847
 30
0.0
  0
VERTEX
  5
9192
  8
0
 10
17.24941297431043
 20
25.53002931654906
 30
0.0
  0
VERTEX
  5
9193
  8
0
 10
17.33941848201814
 20
25.36471900704067
 30
0.0
  0
VERTEX
  5
9194
  8
0
 10
17.41885316368692
 20
25.19324512317107
 30
0.0
  0
VERTEX
  5
9195
  8
0
 10
17.48727629414899
 20
25.01604839010804
 30
0.0
  0
VERTEX
  5
9196
  8
0
 10
17.54424714823659
 20
24.83356953301934
 30
0.0
  0
VERTEX
  5
9197
  8
0
 10
17.58932500078195
 20
24.64624927707274
 30
0.0
  0
VERTEX
  5
9198
  8
0
 10
17.62206912661731
 20
24.45452834743603
 30
0.0
  0
VERTEX
  5
9199
  8
0
 10
17.64203880057489
 20
24.25884746927697
 30
0.0
  0
VERTEX
  5
919A
  8
0
 10
17.64879329748692
 20
24.05964736776333
 30
0.0
  0
VERTEX
  5
919B
  8
0
 10
17.64203880057489
 20
23.86048563784348
 30
0.0
  0
VERTEX
  5
919C
  8
0
 10
17.62206912661731
 20
23.66491548914164
 30
0.0
  0
VERTEX
  5
919D
  8
0
 10
17.58932500078196
 20
23.473371068838
 30
0.0
  0
VERTEX
  5
919E
  8
0
 10
17.5442471482366
 20
23.28628652411275
 30
0.0
  0
VERTEX
  5
919F
  8
0
 10
17.487276294149
 20
23.10409600214608
 30
0.0
  0
VERTEX
  5
91A0
  8
0
 10
17.41885316368693
 20
22.92723365011817
 30
0.0
  0
VERTEX
  5
91A1
  8
0
 10
17.33941848201815
 20
22.75613361520922
 30
0.0
  0
VERTEX
  5
91A2
  8
0
 10
17.24941297431045
 20
22.59123004459941
 30
0.0
  0
VERTEX
  5
91A3
  8
0
 10
17.14927736573157
 20
22.43295708546893
 30
0.0
  0
VERTEX
  5
91A4
  8
0
 10
17.0394523814493
 20
22.28174888499798
 30
0.0
  0
VERTEX
  5
91A5
  8
0
 10
16.92037874663141
 20
22.13803959036673
 30
0.0
  0
VERTEX
  5
91A6
  8
0
 10
16.79249718644566
 20
22.00226334875539
 30
0.0
  0
VERTEX
  5
91A7
  8
0
 10
16.65624842605981
 20
21.87485430734413
 30
0.0
  0
VERTEX
  5
91A8
  8
0
 10
16.51207319064166
 20
21.75624661331316
 30
0.0
  0
VERTEX
  5
91A9
  8
0
 10
16.36041220535895
 20
21.64687441384265
 30
0.0
  0
VERTEX
  5
91AA
  8
0
 10
16.20170619537945
 20
21.54717185611279
 30
0.0
  0
VERTEX
  5
91AB
  8
0
 10
16.03639588587095
 20
21.45757308730378
 30
0.0
  0
VERTEX
  5
91AC
  8
0
 10
15.8649220020012
 20
21.3785122545958
 30
0.0
  0
VERTEX
  5
91AD
  8
0
 10
15.68772526893798
 20
21.31042350516904
 30
0.0
  0
VERTEX
  5
91AE
  8
0
 10
15.50524641184904
 20
21.25374098620369
 30
0.0
  0
VERTEX
  5
91AF
  8
0
 10
15.31792615590218
 20
21.20889884487995
 30
0.0
  0
VERTEX
  5
91B0
  8
0
 10
15.12620522626514
 20
21.17633122837799
 30
0.0
  0
VERTEX
  5
91B1
  8
0
 10
14.93052434810571
 20
21.15647228387801
 30
0.0
  0
SEQEND
  5
92FD
  8
0
  0
INSERT
  5
8C4D
  8
0
  2
*U11
 10
0.0
 20
0.0
 30
0.0
  0
POLYLINE
  5
8C4E
  8
0
 66
     1
 10
0.0
 20
0.0
 30
0.0
 70
     1
  0
VERTEX
  5
91F1
  8
0
 10
335.1262598474441
 20
18.73242465924704
 30
0.0
  0
VERTEX
  5
91F2
  8
0
 10
334.7599700907819
 20
18.74472494785353
 30
0.0
  0
VERTEX
  5
91F3
  8
0
 10
334.4004622393132
 20
18.78109738200416
 30
0.0
  0
VERTEX
  5
91F4
  8
0
 10
334.0485190735601
 20
18.84074931419571
 30
0.0
  0
VERTEX
  5
91F5
  8
0
 10
333.7049233740443
 20
18.92288809692495
 30
0.0
  0
VERTEX
  5
91F6
  8
0
 10
333.3704579212877
 20
19.02672108268866
 30
0.0
  0
VERTEX
  5
91F7
  8
0
 10
333.045905495812
 20
19.15145562398359
 30
0.0
  0
VERTEX
  5
91F8
  8
0
 10
332.7320488781392
 20
19.29629907330654
 30
0.0
  0
VERTEX
  5
91F9
  8
0
 10
332.4296708487913
 20
19.46045878315427
 30
0.0
  0
VERTEX
  5
91FA
  8
0
 10
332.13955418829
 20
19.64314210602354
 30
0.0
  0
VERTEX
  5
91FB
  8
0
 10
331.8624816771573
 20
19.84355639441114
 30
0.0
  0
VERTEX
  5
91FC
  8
0
 10
331.5992360959148
 20
20.06090900081384
 30
0.0
  0
VERTEX
  5
91FD
  8
0
 10
331.3506002250847
 20
20.2944072777284
 30
0.0
  0
VERTEX
  5
91FE
  8
0
 10
331.1173568451886
 20
20.5432585776516
 30
0.0
  0
VERTEX
  5
91FF
  8
0
 10
330.9002887367485
 20
20.8066702530802
 30
0.0
  0
VERTEX
  5
9200
  8
0
 10
330.7001786802863
 20
21.083849656511
 30
0.0
  0
VERTEX
  5
9201
  8
0
 10
330.5178094563237
 20
21.37400414044074
 30
0.0
  0
VERTEX
  5
9202
  8
0
 10
330.3539638453826
 20
21.67634105736622
 30
0.0
  0
VERTEX
  5
9203
  8
0
 10
330.209424627985
 20
21.99006775978418
 30
0.0
  0
VERTEX
  5
9204
  8
0
 10
330.0849745846527
 20
22.31439160019142
 30
0.0
  0
VERTEX
  5
9205
  8
0
 10
329.9813964959075
 20
22.6485199310847
 30
0.0
  0
VERTEX
  5
9206
  8
0
 10
329.8994731422713
 20
22.99166010496079
 30
0.0
  0
VERTEX
  5
9207
  8
0
 10
329.8399873042661
 20
23.34301947431647
 30
0.0
  0
VERTEX
  5
9208
  8
0
 10
329.8037217624135
 20
23.70180539164851
 30
0.0
  0
VERTEX
  5
9209
  8
0
 10
329.7914592972356
 20
24.06722520945368
 30
0.0
  0
VERTEX
  5
920A
  8
0
 10
329.8037217624135
 20
24.43260665566442
 30
0.0
  0
VERTEX
  5
920B
  8
0
 10
329.8399873042661
 20
24.79128184353869
 30
0.0
  0
VERTEX
  5
920C
  8
0
 10
329.8994731422715
 20
25.14246470356084
 30
0.0
  0
VERTEX
  5
920D
  8
0
 10
329.9813964959075
 20
25.4853691662152
 30
0.0
  0
VERTEX
  5
920E
  8
0
 10
330.0849745846527
 20
25.81920916198615
 30
0.0
  0
VERTEX
  5
920F
  8
0
 10
330.209424627985
 20
26.14319862135801
 30
0.0
  0
VERTEX
  5
9210
  8
0
 10
330.3539638453826
 20
26.45655147481516
 30
0.0
  0
VERTEX
  5
9211
  8
0
 10
330.5178094563236
 20
26.75848165284192
 30
0.0
  0
VERTEX
  5
9212
  8
0
 10
330.7001786802862
 20
27.04820308592265
 30
0.0
  0
VERTEX
  5
9213
  8
0
 10
330.9002887367486
 20
27.32492970454171
 30
0.0
  0
VERTEX
  5
9214
  8
0
 10
331.1173568451887
 20
27.58787543918345
 30
0.0
  0
VERTEX
  5
9215
  8
0
 10
331.3506002250847
 20
27.8362542203322
 30
0.0
  0
VERTEX
  5
9216
  8
0
 10
331.5992360959149
 20
28.06927997847232
 30
0.0
  0
VERTEX
  5
9217
  8
0
 10
331.8624816771572
 20
28.28616664408816
 30
0.0
  0
VERTEX
  5
9218
  8
0
 10
332.13955418829
 20
28.48612814766408
 30
0.0
  0
VERTEX
  5
9219
  8
0
 10
332.4296708487914
 20
28.66837841968442
 30
0.0
  0
VERTEX
  5
921A
  8
0
 10
332.7320488781393
 20
28.83213139063351
 30
0.0
  0
VERTEX
  5
921B
  8
0
 10
333.045905495812
 20
28.97660099099573
 30
0.0
  0
VERTEX
  5
921C
  8
0
 10
333.3704579212875
 20
29.10100115125543
 30
0.0
  0
VERTEX
  5
921D
  8
0
 10
333.7049233740443
 20
29.20454580189693
 30
0.0
  0
VERTEX
  5
921E
  8
0
 10
334.0485190735601
 20
29.28644887340461
 30
0.0
  0
VERTEX
  5
921F
  8
0
 10
334.4004622393132
 20
29.3459242962628
 30
0.0
  0
VERTEX
  5
9220
  8
0
 10
334.7599700907819
 20
29.38218600095587
 30
0.0
  0
VERTEX
  5
9221
  8
0
 10
335.1262598474441
 20
29.39444791796814
 30
0.0
  0
VERTEX
  5
9222
  8
0
 10
335.4925496041063
 20
29.38218600095586
 30
0.0
  0
VERTEX
  5
9223
  8
0
 10
335.8520574555748
 20
29.3459242962628
 30
0.0
  0
VERTEX
  5
9224
  8
0
 10
336.204000621328
 20
29.28644887340461
 30
0.0
  0
VERTEX
  5
9225
  8
0
 10
336.5475963208436
 20
29.20454580189694
 30
0.0
  0
VERTEX
  5
9226
  8
0
 10
336.8820617736002
 20
29.10100115125542
 30
0.0
  0
VERTEX
  5
9227
  8
0
 10
337.2066141990757
 20
28.97660099099573
 30
0.0
  0
VERTEX
  5
9228
  8
0
 10
337.5204708167482
 20
28.83213139063351
 30
0.0
  0
VERTEX
  5
9229
  8
0
 10
337.8228488460959
 20
28.66837841968441
 30
0.0
  0
VERTEX
  5
922A
  8
0
 10
338.112965506597
 20
28.48612814766408
 30
0.0
  0
VERTEX
  5
922B
  8
0
 10
338.3900380177295
 20
28.28616664408816
 30
0.0
  0
VERTEX
  5
922C
  8
0
 10
338.6532835989718
 20
28.06927997847232
 30
0.0
  0
VERTEX
  5
922D
  8
0
 10
338.9019194698017
 20
27.8362542203322
 30
0.0
  0
VERTEX
  5
922E
  8
0
 10
339.1351628496976
 20
27.58787543918345
 30
0.0
  0
VERTEX
  5
922F
  8
0
 10
339.3522309581374
 20
27.32492970454171
 30
0.0
  0
VERTEX
  5
9230
  8
0
 10
339.5523410145994
 20
27.04820308592266
 30
0.0
  0
VERTEX
  5
9231
  8
0
 10
339.7347102385618
 20
26.75848165284192
 30
0.0
  0
VERTEX
  5
9232
  8
0
 10
339.8985558495026
 20
26.45655147481516
 30
0.0
  0
VERTEX
  5
9233
  8
0
 10
340.0430950669001
 20
26.14319862135802
 30
0.0
  0
VERTEX
  5
9234
  8
0
 10
340.1675451102323
 20
25.81920916198615
 30
0.0
  0
VERTEX
  5
9235
  8
0
 10
340.2711231989773
 20
25.48536916621521
 30
0.0
  0
VERTEX
  5
9236
  8
0
 10
340.3530465526133
 20
25.14246470356085
 30
0.0
  0
VERTEX
  5
9237
  8
0
 10
340.4125323906185
 20
24.79128184353871
 30
0.0
  0
VERTEX
  5
9238
  8
0
 10
340.448797932471
 20
24.43260665566444
 30
0.0
  0
VERTEX
  5
9239
  8
0
 10
340.4610603976489
 20
24.0672252094537
 30
0.0
  0
VERTEX
  5
923A
  8
0
 10
340.4487979324711
 20
23.70180539164853
 30
0.0
  0
VERTEX
  5
923B
  8
0
 10
340.4125323906185
 20
23.3430194743165
 30
0.0
  0
VERTEX
  5
923C
  8
0
 10
340.3530465526134
 20
22.99166010496081
 30
0.0
  0
VERTEX
  5
923D
  8
0
 10
340.2711231989773
 20
22.64851993108472
 30
0.0
  0
VERTEX
  5
923E
  8
0
 10
340.1675451102323
 20
22.31439160019145
 30
0.0
  0
VERTEX
  5
923F
  8
0
 10
340.0430950669001
 20
21.99006775978421
 30
0.0
  0
VERTEX
  5
9240
  8
0
 10
339.8985558495027
 20
21.67634105736624
 30
0.0
  0
VERTEX
  5
9241
  8
0
 10
339.7347102385619
 20
21.37400414044077
 30
0.0
  0
VERTEX
  5
9242
  8
0
 10
339.5523410145994
 20
21.08384965651102
 30
0.0
  0
VERTEX
  5
9243
  8
0
 10
339.3522309581375
 20
20.80667025308023
 30
0.0
  0
VERTEX
  5
9244
  8
0
 10
339.1351628496975
 20
20.54325857765162
 30
0.0
  0
VERTEX
  5
9245
  8
0
 10
338.9019194698017
 20
20.29440727772842
 30
0.0
  0
VERTEX
  5
9246
  8
0
 10
338.6532835989717
 20
20.06090900081386
 30
0.0
  0
VERTEX
  5
9247
  8
0
 10
338.3900380177295
 20
19.84355639441116
 30
0.0
  0
VERTEX
  5
9248
  8
0
 10
338.112965506597
 20
19.64314210602356
 30
0.0
  0
VERTEX
  5
9249
  8
0
 10
337.822848846096
 20
19.46045878315429
 30
0.0
  0
VERTEX
  5
924A
  8
0
 10
337.5204708167482
 20
19.29629907330656
 30
0.0
  0
VERTEX
  5
924B
  8
0
 10
337.2066141990757
 20
19.15145562398361
 30
0.0
  0
VERTEX
  5
924C
  8
0
 10
336.8820617736002
 20
19.02672108268867
 30
0.0
  0
VERTEX
  5
924D
  8
0
 10
336.5475963208437
 20
18.92288809692496
 30
0.0
  0
VERTEX
  5
924E
  8
0
 10
336.204000621328
 20
18.84074931419572
 30
0.0
  0
VERTEX
  5
924F
  8
0
 10
335.8520574555749
 20
18.78109738200416
 30
0.0
  0
VERTEX
  5
9250
  8
0
 10
335.4925496041063
 20
18.74472494785353
 30
0.0
  0
SEQEND
  5
92FE
  8
0
  0
POLYLINE
  5
8C4F
  8
0
 66
     1
 10
0.0
 20
0.0
 30
0.0
 70
     1
  0
VERTEX
  5
9251
  8
0
 10
335.1262598474441
 20
21.14975615856019
 30
0.0
  0
VERTEX
  5
9252
  8
0
 10
334.92535823981
 20
21.15647228387801
 30
0.0
  0
VERTEX
  5
9253
  8
0
 10
334.7283442228348
 20
21.17633122837799
 30
0.0
  0
VERTEX
  5
9254
  8
0
 10
334.5356322097361
 20
21.20889884487994
 30
0.0
  0
VERTEX
  5
9255
  8
0
 10
334.3476366137313
 20
21.25374098620369
 30
0.0
  0
VERTEX
  5
9256
  8
0
 10
334.1647718480377
 20
21.31042350516903
 30
0.0
  0
VERTEX
  5
9257
  8
0
 10
333.9874523258732
 20
21.37851225459579
 30
0.0
  0
VERTEX
  5
9258
  8
0
 10
333.8160924604548
 20
21.45757308730377
 30
0.0
  0
VERTEX
  5
9259
  8
0
 10
333.6511066650002
 20
21.54717185611278
 30
0.0
  0
VERTEX
  5
925A
  8
0
 10
333.4929093527267
 20
21.64687441384264
 30
0.0
  0
VERTEX
  5
925B
  8
0
 10
333.341914936852
 20
21.75624661331315
 30
0.0
  0
VERTEX
  5
925C
  8
0
 10
333.1985378305934
 20
21.87485430734413
 30
0.0
  0
VERTEX
  5
925D
  8
0
 10
333.0631924471681
 20
22.00226334875538
 30
0.0
  0
VERTEX
  5
925E
  8
0
 10
332.936293199794
 20
22.13803959036672
 30
0.0
  0
VERTEX
  5
925F
  8
0
 10
332.8182545016884
 20
22.28174888499796
 30
0.0
  0
VERTEX
  5
9260
  8
0
 10
332.7094907660687
 20
22.43295708546892
 30
0.0
  0
VERTEX
  5
9261
  8
0
 10
332.6104164061525
 20
22.59123004459939
 30
0.0
  0
VERTEX
  5
9262
  8
0
 10
332.521445835157
 20
22.7561336152092
 30
0.0
  0
VERTEX
  5
9263
  8
0
 10
332.4429934662999
 20
22.92723365011815
 30
0.0
  0
VERTEX
  5
9264
  8
0
 10
332.3754737127985
 20
23.10409600214606
 30
0.0
  0
VERTEX
  5
9265
  8
0
 10
332.3193009878703
 20
23.28628652411273
 30
0.0
  0
VERTEX
  5
9266
  8
0
 10
332.2748897047329
 20
23.47337106883799
 30
0.0
  0
VERTEX
  5
9267
  8
0
 10
332.2426542766036
 20
23.66491548914163
 30
0.0
  0
VERTEX
  5
9268
  8
0
 10
332.2230091166998
 20
23.86048563784347
 30
0.0
  0
VERTEX
  5
9269
  8
0
 10
332.2163686382391
 20
24.05964736776331
 30
0.0
  0
VERTEX
  5
926A
  8
0
 10
332.2230091166998
 20
24.25884746927696
 30
0.0
  0
VERTEX
  5
926B
  8
0
 10
332.2426542766036
 20
24.45452834743602
 30
0.0
  0
VERTEX
  5
926C
  8
0
 10
332.274889704733
 20
24.64624927707274
 30
0.0
  0
VERTEX
  5
926D
  8
0
 10
332.3193009878703
 20
24.83356953301932
 30
0.0
  0
VERTEX
  5
926E
  8
0
 10
332.3754737127985
 20
25.01604839010803
 30
0.0
  0
VERTEX
  5
926F
  8
0
 10
332.4429934662999
 20
25.19324512317107
 30
0.0
  0
VERTEX
  5
9270
  8
0
 10
332.5214458351571
 20
25.36471900704067
 30
0.0
  0
VERTEX
  5
9271
  8
0
 10
332.6104164061525
 20
25.53002931654905
 30
0.0
  0
VERTEX
  5
9272
  8
0
 10
332.7094907660687
 20
25.68873532652846
 30
0.0
  0
VERTEX
  5
9273
  8
0
 10
332.8182545016885
 20
25.84039631181112
 30
0.0
  0
VERTEX
  5
9274
  8
0
 10
332.9362931997941
 20
25.98457154722925
 30
0.0
  0
VERTEX
  5
9275
  8
0
 10
333.0631924471681
 20
26.12082030761508
 30
0.0
  0
VERTEX
  5
9276
  8
0
 10
333.1985378305933
 20
26.24870186780084
 30
0.0
  0
VERTEX
  5
9277
  8
0
 10
333.3419149368519
 20
26.36777550261876
 30
0.0
  0
VERTEX
  5
9278
  8
0
 10
333.4929093527268
 20
26.47760048690107
 30
0.0
  0
VERTEX
  5
9279
  8
0
 10
333.6511066650002
 20
26.57773609547998
 30
0.0
  0
VERTEX
  5
927A
  8
0
 10
333.8160924604548
 20
26.66774160318775
 30
0.0
  0
VERTEX
  5
927B
  8
0
 10
333.9874523258732
 20
26.74717628485658
 30
0.0
  0
VERTEX
  5
927C
  8
0
 10
334.1647718480378
 20
26.81559941531871
 30
0.0
  0
VERTEX
  5
927D
  8
0
 10
334.3476366137312
 20
26.87257026940637
 30
0.0
  0
VERTEX
  5
927E
  8
0
 10
334.535632209736
 20
26.91764812195177
 30
0.0
  0
VERTEX
  5
927F
  8
0
 10
334.7283442228347
 20
26.95039224778717
 30
0.0
  0
VERTEX
  5
9280
  8
0
 10
334.92535823981
 20
26.97036192174477
 30
0.0
  0
VERTEX
  5
9281
  8
0
 10
335.1262598474441
 20
26.97711641865681
 30
0.0
  0
VERTEX
  5
9282
  8
0
 10
335.3254215773633
 20
26.97036192174476
 30
0.0
  0
VERTEX
  5
9283
  8
0
 10
335.5209917260646
 20
26.95039224778717
 30
0.0
  0
VERTEX
  5
9284
  8
0
 10
335.7125361463678
 20
26.91764812195177
 30
0.0
  0
VERTEX
  5
9285
  8
0
 10
335.8996206910927
 20
26.87257026940637
 30
0.0
  0
VERTEX
  5
9286
  8
0
 10
336.081811213059
 20
26.81559941531871
 30
0.0
  0
VERTEX
  5
9287
  8
0
 10
336.2586735650867
 20
26.74717628485658
 30
0.0
  0
VERTEX
  5
9288
  8
0
 10
336.4297735999954
 20
26.66774160318775
 30
0.0
  0
VERTEX
  5
9289
  8
0
 10
336.5946771706052
 20
26.57773609547998
 30
0.0
  0
VERTEX
  5
928A
  8
0
 10
336.7529501297355
 20
26.47760048690106
 30
0.0
  0
VERTEX
  5
928B
  8
0
 10
336.9041583302065
 20
26.36777550261876
 30
0.0
  0
VERTEX
  5
928C
  8
0
 10
337.0478676248377
 20
26.24870186780084
 30
0.0
  0
VERTEX
  5
928D
  8
0
 10
337.1836438664491
 20
26.12082030761508
 30
0.0
  0
VERTEX
  5
928E
  8
0
 10
337.3110529078604
 20
25.98457154722925
 30
0.0
  0
VERTEX
  5
928F
  8
0
 10
337.4296606018914
 20
25.84039631181112
 30
0.0
  0
VERTEX
  5
9290
  8
0
 10
337.5390328013621
 20
25.68873532652847
 30
0.0
  0
VERTEX
  5
9291
  8
0
 10
337.6387353590921
 20
25.53002931654906
 30
0.0
  0
VERTEX
  5
9292
  8
0
 10
337.7283341279012
 20
25.36471900704067
 30
0.0
  0
VERTEX
  5
9293
  8
0
 10
337.8073949606094
 20
25.19324512317107
 30
0.0
  0
VERTEX
  5
9294
  8
0
 10
337.8754837100362
 20
25.01604839010804
 30
0.0
  0
VERTEX
  5
9295
  8
0
 10
337.9321662290017
 20
24.83356953301934
 30
0.0
  0
VERTEX
  5
9296
  8
0
 10
337.9770083703255
 20
24.64624927707274
 30
0.0
  0
VERTEX
  5
9297
  8
0
 10
338.0095759868275
 20
24.45452834743603
 30
0.0
  0
VERTEX
  5
9298
  8
0
 10
338.0294349313276
 20
24.25884746927697
 30
0.0
  0
VERTEX
  5
9299
  8
0
 10
338.0361510566454
 20
24.05964736776333
 30
0.0
  0
VERTEX
  5
929A
  8
0
 10
338.0294349313276
 20
23.86048563784348
 30
0.0
  0
VERTEX
  5
929B
  8
0
 10
338.0095759868275
 20
23.66491548914164
 30
0.0
  0
VERTEX
  5
929C
  8
0
 10
337.9770083703254
 20
23.473371068838
 30
0.0
  0
VERTEX
  5
929D
  8
0
 10
337.9321662290016
 20
23.28628652411275
 30
0.0
  0
VERTEX
  5
929E
  8
0
 10
337.8754837100362
 20
23.10409600214608
 30
0.0
  0
VERTEX
  5
929F
  8
0
 10
337.8073949606093
 20
22.92723365011817
 30
0.0
  0
VERTEX
  5
92A0
  8
0
 10
337.7283341279012
 20
22.75613361520922
 30
0.0
  0
VERTEX
  5
92A1
  8
0
 10
337.6387353590921
 20
22.59123004459941
 30
0.0
  0
VERTEX
  5
92A2
  8
0
 10
337.5390328013621
 20
22.43295708546893
 30
0.0
  0
VERTEX
  5
92A3
  8
0
 10
337.4296606018915
 20
22.28174888499798
 30
0.0
  0
VERTEX
  5
92A4
  8
0
 10
337.3110529078604
 20
22.13803959036673
 30
0.0
  0
VERTEX
  5
92A5
  8
0
 10
337.1836438664491
 20
22.00226334875539
 30
0.0
  0
VERTEX
  5
92A6
  8
0
 10
337.0478676248376
 20
21.87485430734413
 30
0.0
  0
VERTEX
  5
92A7
  8
0
 10
336.9041583302064
 20
21.75624661331316
 30
0.0
  0
VERTEX
  5
92A8
  8
0
 10
336.7529501297356
 20
21.64687441384265
 30
0.0
  0
VERTEX
  5
92A9
  8
0
 10
336.5946771706052
 20
21.54717185611279
 30
0.0
  0
VERTEX
  5
92AA
  8
0
 10
336.4297735999955
 20
21.45757308730378
 30
0.0
  0
VERTEX
  5
92AB
  8
0
 10
336.2586735650867
 20
21.3785122545958
 30
0.0
  0
VERTEX
  5
92AC
  8
0
 10
336.081811213059
 20
21.31042350516904
 30
0.0
  0
VERTEX
  5
92AD
  8
0
 10
335.8996206910927
 20
21.25374098620369
 30
0.0
  0
VERTEX
  5
92AE
  8
0
 10
335.7125361463678
 20
21.20889884487995
 30
0.0
  0
VERTEX
  5
92AF
  8
0
 10
335.5209917260646
 20
21.17633122837799
 30
0.0
  0
VERTEX
  5
92B0
  8
0
 10
335.3254215773633
 20
21.15647228387801
 30
0.0
  0
SEQEND
  5
92FF
  8
0
  0
INSERT
  5
8C50
  8
0
  2
*U12
 10
0.0
 20
0.0
 30
0.0
  0
LINE
  5
8C51
  8
0
 10
0.0
 20
0.0
 30
0.0
 11
0.0
 21
303.0
 31
0.0
  0
LINE
  5
8C52
  8
0
 10
0.0
 20
303.0
 30
0.0
 11
348.7512192072045
 21
303.0
 31
0.0
  0
LINE
  5
8C53
  8
0
 10
348.7512192072045
 20
303.0
 30
0.0
 11
348.7512192072045
 21
0.0
 31
0.0
  0
LINE
  5
8C54
  8
0
 10
348.7512192072045
 20
0.0
 30
0.0
 11
0.0
 21
0.0
 31
0.0
  0
ENDBLK
  5
8C4A
  8
0
  0
BLOCK
  8
0
  2
2
 70
     0
 10
0.0
 20
0.0
 30
0.0
  3
2
  1

  0
LINE
  5
8D04
  8
0
 10
0.0
 20
0.0
 30
0.0
 11
0.0
 21
303.0
 31
0.0
  0
LINE
  5
8D05
  8
0
 10
0.0
 20
303.0
 30
0.0
 11
24.17331499312422
 21
303.0
 31
0.0
  0
LINE
  5
8D06
  8
0
 10
24.17331499312422
 20
303.0
 30
0.0
 11
24.17331499312422
 21
0.0
 31
0.0
  0
LINE
  5
8D07
  8
0
 10
24.17331499312422
 20
0.0
 30
0.0
 11
0.0
 21
0.0
 31
0.0
  0
LINE
  5
8D08
  8
0
 10
24.17331499312422
 20
4.599749906214129
 30
0.0
 11
24.17331499312422
 21
291.3755908465664
 31
0.0
  0
LINE
  5
8D09
  8
0
 10
24.17331499312422
 20
291.3755908465664
 30
0.0
 11
110.0605727147704
 21
291.3755908465664
 31
0.0
  0
LINE
  5
8D0A
  8
0
 10
110.0605727147704
 20
291.3755908465664
 30
0.0
 11
110.0605727147704
 21
4.599749906214129
 31
0.0
  0
LINE
  5
8D0B
  8
0
 10
110.0605727147704
 20
4.599749906214129
 30
0.0
 11
24.17331499312422
 21
4.599749906214129
 31
0.0
  0
LINE
  5
8D0C
  8
0
 10
-3.243316243591835
 20
18.72484681755668
 30
0.0
 11
-3.243316243591835
 21
29.39444791796814
 31
0.0
  0
LINE
  5
8D0D
  8
0
 10
-3.243316243591835
 20
29.39444791796814
 30
0.0
 11
0.0
 21
29.39444791796814
 31
0.0
  0
LINE
  5
8D0E
  8
0
 10
0.0
 20
29.39444791796814
 30
0.0
 11
0.0
 21
18.72484681755668
 31
0.0
  0
LINE
  5
8D0F
  8
0
 10
0.0
 20
18.72484681755668
 30
0.0
 11
-3.243316243591835
 21
18.72484681755668
 31
0.0
  0
ENDBLK
  5
8D03
  8
0
  0
BLOCK
  8
0
  2
*U9
 70
     1
 10
0.0
 20
0.0
 30
0.0
  3
*U9
  1

  0
SOLID
  5
8FB5
  8
0
 10
574.3060798319833
 20
868.956603257853
 30
0.0
 11
574.2910373788811
 21
869.2540261439744
 31
0.0
 12
574.3060798319833
 22
869.5515341328099
 32
0.0
 13
574.3060798319833
 23
869.5515341328099
 33
0.0
  0
SOLID
  5
8FB6
  8
0
 10
574.3060798319832
 20
868.956603257853
 30
0.0
 11
574.3060798319832
 21
869.5515341328099
 31
0.0
 12
574.3502370687758
 22
868.6677498450497
 32
0.0
 13
574.3502370687758
 23
868.6677498450497
 33
0.0
  0
SOLID
  5
8FB7
  8
0
 10
574.3502370687758
 20
868.6677498450497
 30
0.0
 11
574.3060798319832
 21
869.5515341328099
 31
0.0
 12
574.3502370687758
 22
869.8406280532831
 32
0.0
 13
574.3502370687758
 23
869.8406280532831
 33
0.0
  0
SOLID
  5
8FB8
  8
0
 10
574.3502370687759
 20
868.6677498450492
 30
0.0
 11
574.3502370687759
 21
869.8406280532839
 31
0.0
 12
574.4220539054878
 22
868.3889311522976
 32
0.0
 13
574.4220539054878
 23
868.3889311522976
 33
0.0
  0
SOLID
  5
8FB9
  8
0
 10
574.4220539054878
 20
868.3889311522976
 30
0.0
 11
574.3502370687759
 21
869.8406280532839
 31
0.0
 12
574.4220539054878
 22
870.1198204579551
 32
0.0
 13
574.4220539054878
 23
870.1198204579551
 33
0.0
  0
SOLID
  5
8FBA
  8
0
 10
574.4220539054878
 20
868.3889311522976
 30
0.0
 11
574.4220539054878
 21
870.1198204579551
 31
0.0
 12
574.5200751583485
 22
868.12161242633
 32
0.0
 13
574.5200751583485
 23
868.12161242633
 33
0.0
  0
SOLID
  5
8FBB
  8
0
 10
574.5200751583485
 20
868.12161242633
 30
0.0
 11
574.4220539054878
 21
870.1198204579551
 31
0.0
 12
574.5200751583485
 22
870.3876238993822
 32
0.0
 13
574.5200751583485
 23
870.3876238993822
 33
0.0
  0
SOLID
  5
8FBC
  8
0
 10
574.5200751583485
 20
868.12161242633
 30
0.0
 11
574.5200751583485
 21
870.3876238993822
 31
0.0
 12
574.642845643587
 22
867.86725891388
 32
0.0
 13
574.642845643587
 23
867.86725891388
 33
0.0
  0
SOLID
  5
8FBD
  8
0
 10
574.642845643587
 20
867.86725891388
 30
0.0
 11
574.5200751583485
 21
870.3876238993822
 31
0.0
 12
574.642845643587
 22
870.6425509301241
 32
0.0
 13
574.642845643587
 23
870.6425509301241
 33
0.0
  0
SOLID
  5
8FBE
  8
0
 10
574.6428456435868
 20
867.86725891388
 30
0.0
 11
574.6428456435868
 21
870.6425509301241
 31
0.0
 12
574.7889101774322
 22
867.6273358616809
 32
0.0
 13
574.7889101774322
 23
867.6273358616809
 33
0.0
  0
SOLID
  5
8FBF
  8
0
 10
574.7889101774322
 20
867.6273358616809
 30
0.0
 11
574.6428456435868
 21
870.6425509301241
 31
0.0
 12
574.7889101774322
 22
870.8831141027396
 32
0.0
 13
574.7889101774322
 23
870.8831141027396
 33
0.0
  0
SOLID
  5
8FC0
  8
0
 10
574.7889101774321
 20
867.6273358616809
 30
0.0
 11
574.7889101774321
 21
870.8831141027396
 31
0.0
 12
574.9568135761135
 22
867.4033085164655
 32
0.0
 13
574.9568135761135
 23
867.4033085164655
 33
0.0
  0
SOLID
  5
8FC1
  8
0
 10
574.9568135761135
 20
867.4033085164655
 30
0.0
 11
574.7889101774321
 21
870.8831141027396
 31
0.0
 12
574.9568135761135
 22
871.1078259697874
 32
0.0
 13
574.9568135761135
 23
871.1078259697874
 33
0.0
  0
SOLID
  5
8FC2
  8
0
 10
574.9568135761135
 20
867.4033085164655
 30
0.0
 11
574.9568135761135
 21
871.1078259697874
 31
0.0
 12
575.14510065586
 22
867.1966421249672
 32
0.0
 13
575.14510065586
 23
867.1966421249672
 33
0.0
  0
SOLID
  5
8FC3
  8
0
 10
575.14510065586
 20
867.1966421249672
 30
0.0
 11
574.9568135761135
 21
871.1078259697874
 31
0.0
 12
575.14510065586
 22
871.3151990838262
 32
0.0
 13
575.14510065586
 23
871.3151990838262
 33
0.0
  0
SOLID
  5
8FC4
  8
0
 10
575.14510065586
 20
867.1966421249672
 30
0.0
 11
575.14510065586
 21
871.3151990838262
 31
0.0
 12
575.3523162329009
 22
867.008801933919
 32
0.0
 13
575.3523162329009
 23
867.008801933919
 33
0.0
  0
SOLID
  5
8FC5
  8
0
 10
575.3523162329009
 20
867.008801933919
 30
0.0
 11
575.14510065586
 21
871.3151990838262
 31
0.0
 12
575.3523162329009
 22
871.5037459974149
 32
0.0
 13
575.3523162329009
 23
871.5037459974149
 33
0.0
  0
SOLID
  5
8FC6
  8
0
 10
575.3523162329008
 20
867.008801933919
 30
0.0
 11
575.3523162329008
 21
871.5037459974149
 31
0.0
 12
575.577005123465
 22
866.8412531900542
 32
0.0
 13
575.577005123465
 23
866.8412531900542
 33
0.0
  0
SOLID
  5
8FC7
  8
0
 10
575.577005123465
 20
866.8412531900542
 30
0.0
 11
575.3523162329008
 21
871.5037459974149
 31
0.0
 12
575.577005123465
 22
871.6719792631122
 32
0.0
 13
575.577005123465
 23
871.6719792631122
 33
0.0
  0
SOLID
  5
8FC8
  8
0
 10
575.577005123465
 20
866.8412531900542
 30
0.0
 11
575.577005123465
 21
871.6719792631122
 31
0.0
 12
575.8177121437818
 22
866.695461140106
 32
0.0
 13
575.8177121437818
 23
866.695461140106
 33
0.0
  0
SOLID
  5
8FC9
  8
0
 10
575.8177121437818
 20
866.695461140106
 30
0.0
 11
575.577005123465
 21
871.6719792631122
 31
0.0
 12
575.8177121437818
 22
871.818411433477
 32
0.0
 13
575.8177121437818
 23
871.818411433477
 33
0.0
  0
SOLID
  5
8FCA
  8
0
 10
575.8177121437818
 20
866.695461140106
 30
0.0
 11
575.8177121437818
 21
871.818411433477
 31
0.0
 12
576.0729821100803
 22
866.5728910308071
 32
0.0
 13
576.0729821100803
 23
866.5728910308071
 33
0.0
  0
SOLID
  5
8FCB
  8
0
 10
576.0729821100803
 20
866.5728910308071
 30
0.0
 11
575.8177121437818
 21
871.818411433477
 31
0.0
 12
576.0729821100803
 22
871.9415550610677
 32
0.0
 13
576.0729821100803
 23
871.9415550610677
 33
0.0
  0
SOLID
  5
8FCC
  8
0
 10
576.0729821100803
 20
866.5728910308071
 30
0.0
 11
576.0729821100803
 21
871.9415550610677
 31
0.0
 12
576.3413598385895
 22
866.4750081088912
 32
0.0
 13
576.3413598385895
 23
866.4750081088912
 33
0.0
  0
SOLID
  5
8FCD
  8
0
 10
576.3413598385895
 20
866.4750081088912
 30
0.0
 11
576.0729821100803
 21
871.9415550610677
 31
0.0
 12
576.3413598385895
 22
872.0399226984434
 32
0.0
 13
576.3413598385895
 23
872.0399226984434
 33
0.0
  0
SOLID
  5
8FCE
  8
0
 10
576.3413598385896
 20
866.4750081088912
 30
0.0
 11
576.3413598385896
 21
872.0399226984434
 31
0.0
 12
576.6213901455387
 22
866.4032776210911
 32
0.0
 13
576.6213901455387
 23
866.4032776210911
 33
0.0
  0
SOLID
  5
8FCF
  8
0
 10
576.6213901455387
 20
866.4032776210911
 30
0.0
 11
576.3413598385896
 21
872.0399226984434
 31
0.0
 12
576.6213901455387
 22
872.1120268981629
 32
0.0
 13
576.6213901455387
 23
872.1120268981629
 33
0.0
  0
SOLID
  5
8FD0
  8
0
 10
576.6213901455387
 20
866.4032776210911
 30
0.0
 11
576.6213901455387
 21
872.1120268981629
 31
0.0
 12
576.911617847157
 22
866.3591648141401
 32
0.0
 13
576.911617847157
 23
866.3591648141401
 33
0.0
  0
SOLID
  5
8FD1
  8
0
 10
576.911617847157
 20
866.3591648141401
 30
0.0
 11
576.6213901455387
 21
872.1120268981629
 31
0.0
 12
576.911617847157
 22
872.1563802127848
 32
0.0
 13
576.911617847157
 23
872.1563802127848
 33
0.0
  0
SOLID
  5
8FD2
  8
0
 10
576.911617847157
 20
866.3591648141401
 30
0.0
 11
576.911617847157
 21
872.1563802127848
 31
0.0
 12
577.2105877596736
 22
866.3441349347713
 32
0.0
 13
577.2105877596736
 23
866.3441349347713
 33
0.0
  0
SOLID
  5
8FD3
  8
0
 10
577.2105877596736
 20
866.3441349347713
 30
0.0
 11
576.911617847157
 21
872.1563802127848
 31
0.0
 12
577.2105877596736
 22
872.1714951948679
 32
0.0
 13
577.2105877596736
 23
872.1714951948679
 33
0.0
  0
SOLID
  5
8FD4
  8
0
 10
577.2105877596736
 20
866.3441349347713
 30
0.0
 11
577.2105877596736
 21
872.1714951948679
 31
0.0
 12
577.5083079914714
 22
866.3591648141401
 32
0.0
 13
577.5083079914714
 23
866.3591648141401
 33
0.0
  0
SOLID
  5
8FD5
  8
0
 10
577.5083079914714
 20
866.3591648141401
 30
0.0
 11
577.2105877596736
 21
872.1714951948679
 31
0.0
 12
577.5083079914714
 22
872.1563802127847
 32
0.0
 13
577.5083079914714
 23
872.1563802127847
 33
0.0
  0
SOLID
  5
8FD6
  8
0
 10
577.5083079914715
 20
866.3591648141401
 30
0.0
 11
577.5083079914715
 21
872.1563802127847
 31
0.0
 12
577.7976081522897
 22
866.4032776210911
 32
0.0
 13
577.7976081522897
 23
866.4032776210911
 33
0.0
  0
SOLID
  5
8FD7
  8
0
 10
577.7976081522897
 20
866.4032776210911
 30
0.0
 11
577.5083079914715
 21
872.1563802127847
 31
0.0
 12
577.7976081522897
 22
872.112026898163
 32
0.0
 13
577.7976081522897
 23
872.112026898163
 33
0.0
  0
SOLID
  5
8FD8
  8
0
 10
577.7976081522897
 20
866.4032776210911
 30
0.0
 11
577.7976081522897
 21
872.112026898163
 31
0.0
 12
578.0769997335385
 22
866.4750081088912
 32
0.0
 13
578.0769997335385
 23
866.4750081088912
 33
0.0
  0
SOLID
  5
8FD9
  8
0
 10
578.0769997335385
 20
866.4750081088912
 30
0.0
 11
577.7976081522897
 21
872.112026898163
 31
0.0
 12
578.0769997335385
 22
872.0399226984433
 32
0.0
 13
578.0769997335385
 23
872.0399226984433
 33
0.0
  0
SOLID
  5
8FDA
  8
0
 10
578.0769997335384
 20
866.4750081088912
 30
0.0
 11
578.0769997335384
 21
872.0399226984433
 31
0.0
 12
578.3449942266275
 22
866.5728910308071
 32
0.0
 13
578.3449942266275
 23
866.5728910308071
 33
0.0
  0
SOLID
  5
8FDB
  8
0
 10
578.3449942266275
 20
866.5728910308071
 30
0.0
 11
578.0769997335384
 21
872.0399226984433
 31
0.0
 12
578.3449942266275
 22
871.9415550610677
 32
0.0
 13
578.3449942266275
 23
871.9415550610677
 33
0.0
  0
SOLID
  5
8FDC
  8
0
 10
578.3449942266275
 20
866.5728910308071
 30
0.0
 11
578.3449942266275
 21
871.9415550610677
 31
0.0
 12
578.6001031229667
 22
866.6954611401059
 32
0.0
 13
578.6001031229667
 23
866.6954611401059
 33
0.0
  0
SOLID
  5
8FDD
  8
0
 10
578.6001031229667
 20
866.6954611401059
 30
0.0
 11
578.3449942266275
 21
871.9415550610677
 31
0.0
 12
578.6001031229667
 22
871.818411433477
 32
0.0
 13
578.6001031229667
 23
871.818411433477
 33
0.0
  0
SOLID
  5
8FDE
  8
0
 10
578.6001031229667
 20
866.6954611401059
 30
0.0
 11
578.6001031229667
 21
871.818411433477
 31
0.0
 12
578.8408379139663
 22
866.8412531900543
 32
0.0
 13
578.8408379139663
 23
866.8412531900543
 33
0.0
  0
SOLID
  5
8FDF
  8
0
 10
578.8408379139663
 20
866.8412531900543
 30
0.0
 11
578.6001031229667
 21
871.818411433477
 31
0.0
 12
578.8408379139663
 22
871.6719792631122
 32
0.0
 13
578.8408379139663
 23
871.6719792631122
 33
0.0
  0
SOLID
  5
8FE0
  8
0
 10
578.8408379139663
 20
866.8412531900543
 30
0.0
 11
578.8408379139663
 21
871.6719792631122
 31
0.0
 12
579.0657100910361
 22
867.0088019339191
 32
0.0
 13
579.0657100910361
 23
867.0088019339191
 33
0.0
  0
SOLID
  5
8FE1
  8
0
 10
579.0657100910361
 20
867.0088019339191
 30
0.0
 11
578.8408379139663
 21
871.6719792631122
 31
0.0
 12
579.0657100910361
 22
871.503745997415
 32
0.0
 13
579.0657100910361
 23
871.503745997415
 33
0.0
  0
SOLID
  5
8FE2
  8
0
 10
579.0657100910361
 20
867.0088019339191
 30
0.0
 11
579.0657100910361
 21
871.503745997415
 31
0.0
 12
579.273231145586
 22
867.1966421249672
 32
0.0
 13
579.273231145586
 23
867.1966421249672
 33
0.0
  0
SOLID
  5
8FE3
  8
0
 10
579.273231145586
 20
867.1966421249672
 30
0.0
 11
579.0657100910361
 21
871.503745997415
 31
0.0
 12
579.273231145586
 22
871.3151990838263
 32
0.0
 13
579.273231145586
 23
871.3151990838263
 33
0.0
  0
SOLID
  5
8FE4
  8
0
 10
579.2732311455861
 20
867.1966421249673
 30
0.0
 11
579.2732311455861
 21
871.3151990838262
 31
0.0
 12
579.4619125690261
 22
867.4033085164656
 32
0.0
 13
579.4619125690261
 23
867.4033085164656
 33
0.0
  0
SOLID
  5
8FE5
  8
0
 10
579.4619125690261
 20
867.4033085164656
 30
0.0
 11
579.2732311455861
 21
871.3151990838262
 31
0.0
 12
579.4619125690261
 22
871.1078259697874
 32
0.0
 13
579.4619125690261
 23
871.1078259697874
 33
0.0
  0
SOLID
  5
8FE6
  8
0
 10
579.4619125690263
 20
867.4033085164657
 30
0.0
 11
579.4619125690263
 21
871.1078259697873
 31
0.0
 12
579.6302658527663
 22
867.6273358616808
 32
0.0
 13
579.6302658527663
 23
867.6273358616808
 33
0.0
  0
SOLID
  5
8FE7
  8
0
 10
579.6302658527663
 20
867.6273358616808
 30
0.0
 11
579.4619125690263
 21
871.1078259697873
 31
0.0
 12
579.6302658527663
 22
870.8831141027397
 32
0.0
 13
579.6302658527663
 23
870.8831141027397
 33
0.0
  0
SOLID
  5
8FE8
  8
0
 10
579.6302658527663
 20
867.6273358616808
 30
0.0
 11
579.6302658527663
 21
870.8831141027397
 31
0.0
 12
579.7768024882166
 22
867.8672589138802
 32
0.0
 13
579.7768024882166
 23
867.8672589138802
 33
0.0
  0
SOLID
  5
8FE9
  8
0
 10
579.7768024882166
 20
867.8672589138802
 30
0.0
 11
579.6302658527663
 21
870.8831141027397
 31
0.0
 12
579.7768024882166
 22
870.6425509301243
 32
0.0
 13
579.7768024882166
 23
870.6425509301243
 33
0.0
  0
SOLID
  5
8FEA
  8
0
 10
579.7768024882167
 20
867.8672589138804
 30
0.0
 11
579.7768024882167
 21
870.6425509301241
 31
0.0
 12
579.900033966787
 22
868.12161242633
 32
0.0
 13
579.900033966787
 23
868.12161242633
 33
0.0
  0
SOLID
  5
8FEB
  8
0
 10
579.900033966787
 20
868.12161242633
 30
0.0
 11
579.7768024882167
 21
870.6425509301241
 31
0.0
 12
579.900033966787
 22
870.3876238993822
 32
0.0
 13
579.900033966787
 23
870.3876238993822
 33
0.0
  0
SOLID
  5
8FEC
  8
0
 10
579.900033966787
 20
868.12161242633
 30
0.0
 11
579.900033966787
 21
870.3876238993822
 31
0.0
 12
579.9984717798873
 22
868.3889311522976
 32
0.0
 13
579.9984717798873
 23
868.3889311522976
 33
0.0
  0
SOLID
  5
8FED
  8
0
 10
579.9984717798873
 20
868.3889311522976
 30
0.0
 11
579.900033966787
 21
870.3876238993822
 31
0.0
 12
579.9984717798873
 22
870.119820457955
 32
0.0
 13
579.9984717798873
 23
870.119820457955
 33
0.0
  0
SOLID
  5
8FEE
  8
0
 10
579.9984717798873
 20
868.3889311522976
 30
0.0
 11
579.9984717798873
 21
870.119820457955
 31
0.0
 12
580.0706274189275
 22
868.6677498450496
 32
0.0
 13
580.0706274189275
 23
868.6677498450496
 33
0.0
  0
SOLID
  5
8FEF
  8
0
 10
580.0706274189275
 20
868.6677498450496
 30
0.0
 11
579.9984717798873
 21
870.119820457955
 31
0.0
 12
580.0706274189275
 22
869.8406280532838
 32
0.0
 13
580.0706274189275
 23
869.8406280532838
 33
0.0
  0
SOLID
  5
8FF0
  8
0
 10
580.0706274189275
 20
868.6677498450496
 30
0.0
 11
580.0706274189275
 21
869.8406280532838
 31
0.0
 12
580.1150123753177
 22
868.956603257853
 32
0.0
 13
580.1150123753177
 23
868.956603257853
 33
0.0
  0
SOLID
  5
8FF1
  8
0
 10
580.1150123753177
 20
868.956603257853
 30
0.0
 11
580.0706274189275
 21
869.8406280532838
 31
0.0
 12
580.1150123753177
 22
869.5515341328099
 32
0.0
 13
580.1150123753177
 23
869.5515341328099
 33
0.0
  0
SOLID
  5
8FF2
  8
0
 10
580.1150123753177
 20
868.956603257853
 30
0.0
 11
580.1150123753177
 21
869.5515341328099
 31
0.0
 12
580.1301381404678
 22
869.2540261439744
 32
0.0
 13
580.1301381404678
 23
869.2540261439744
 33
0.0
  0
ENDBLK
  5
92F1
  8
0
  0
BLOCK
  8
0
  2
*U10
 70
     1
 10
0.0
 20
0.0
 30
0.0
  3
*U10
  1

  0
SOLID
  5
90B4
  8
0
 10
894.9370007733961
 20
868.956603257853
 30
0.0
 11
894.9221267957687
 21
869.2540261439744
 31
0.0
 12
894.9370007733961
 22
869.5515341328099
 32
0.0
 13
894.9370007733961
 23
869.5515341328099
 33
0.0
  0
SOLID
  5
90B5
  8
0
 10
894.9370007733961
 20
868.956603257853
 30
0.0
 11
894.9370007733961
 21
869.5515341328099
 31
0.0
 12
894.9806896113413
 22
868.6677498450497
 32
0.0
 13
894.9806896113413
 23
868.6677498450497
 33
0.0
  0
SOLID
  5
90B6
  8
0
 10
894.9806896113413
 20
868.6677498450497
 30
0.0
 11
894.9370007733961
 21
869.5515341328099
 31
0.0
 12
894.9806896113413
 22
869.8406280532839
 32
0.0
 13
894.9806896113413
 23
869.8406280532839
 33
0.0
  0
SOLID
  5
90B7
  8
0
 10
894.9806896113413
 20
868.6677498450497
 30
0.0
 11
894.9806896113413
 21
869.8406280532839
 31
0.0
 12
895.0517936671986
 22
868.3889311522976
 32
0.0
 13
895.0517936671986
 23
868.3889311522976
 33
0.0
  0
SOLID
  5
90B8
  8
0
 10
895.0517936671986
 20
868.3889311522976
 30
0.0
 11
894.9806896113413
 21
869.8406280532839
 31
0.0
 12
895.0517936671986
 22
870.1198204579551
 32
0.0
 13
895.0517936671986
 23
870.1198204579551
 33
0.0
  0
SOLID
  5
90B9
  8
0
 10
895.0517936671986
 20
868.3889311522976
 30
0.0
 11
895.0517936671986
 21
870.1198204579551
 31
0.0
 12
895.1489132985628
 22
868.12161242633
 32
0.0
 13
895.1489132985628
 23
868.12161242633
 33
0.0
  0
SOLID
  5
90BA
  8
0
 10
895.1489132985628
 20
868.12161242633
 30
0.0
 11
895.0517936671986
 21
870.1198204579551
 31
0.0
 12
895.1489132985628
 22
870.3876238993822
 32
0.0
 13
895.1489132985628
 23
870.3876238993822
 33
0.0
  0
SOLID
  5
90BB
  8
0
 10
895.1489132985625
 20
868.12161242633
 30
0.0
 11
895.1489132985625
 21
870.3876238993822
 31
0.0
 12
895.2706488630278
 22
867.86725891388
 32
0.0
 13
895.2706488630278
 23
867.86725891388
 33
0.0
  0
SOLID
  5
90BC
  8
0
 10
895.2706488630278
 20
867.86725891388
 30
0.0
 11
895.1489132985625
 21
870.3876238993822
 31
0.0
 12
895.2706488630278
 22
870.6425509301241
 32
0.0
 13
895.2706488630278
 23
870.6425509301241
 33
0.0
  0
SOLID
  5
90BD
  8
0
 10
895.2706488630276
 20
867.86725891388
 30
0.0
 11
895.2706488630276
 21
870.6425509301241
 31
0.0
 12
895.4156007181882
 22
867.6273358616809
 32
0.0
 13
895.4156007181882
 23
867.6273358616809
 33
0.0
  0
SOLID
  5
90BE
  8
0
 10
895.4156007181882
 20
867.6273358616809
 30
0.0
 11
895.2706488630276
 21
870.6425509301241
 31
0.0
 12
895.4156007181882
 22
870.8831141027396
 32
0.0
 13
895.4156007181882
 23
870.8831141027396
 33
0.0
  0
SOLID
  5
90BF
  8
0
 10
895.4156007181881
 20
867.6273358616809
 30
0.0
 11
895.4156007181881
 21
870.8831141027396
 31
0.0
 12
895.5823692216387
 22
867.4033085164655
 32
0.0
 13
895.5823692216387
 23
867.4033085164655
 33
0.0
  0
SOLID
  5
90C0
  8
0
 10
895.5823692216387
 20
867.4033085164655
 30
0.0
 11
895.4156007181881
 21
870.8831141027396
 31
0.0
 12
895.5823692216387
 22
871.1078259697874
 32
0.0
 13
895.5823692216387
 23
871.1078259697874
 33
0.0
  0
SOLID
  5
90C1
  8
0
 10
895.5823692216386
 20
867.4033085164655
 30
0.0
 11
895.5823692216386
 21
871.1078259697874
 31
0.0
 12
895.7695547309736
 22
867.1966421249672
 32
0.0
 13
895.7695547309736
 23
867.1966421249672
 33
0.0
  0
SOLID
  5
90C2
  8
0
 10
895.7695547309736
 20
867.1966421249672
 30
0.0
 11
895.5823692216386
 21
871.1078259697874
 31
0.0
 12
895.7695547309736
 22
871.3151990838262
 32
0.0
 13
895.7695547309736
 23
871.3151990838262
 33
0.0
  0
SOLID
  5
90C3
  8
0
 10
895.7695547309736
 20
867.1966421249672
 30
0.0
 11
895.7695547309736
 21
871.3151990838262
 31
0.0
 12
895.9757576037871
 22
867.008801933919
 32
0.0
 13
895.9757576037871
 23
867.008801933919
 33
0.0
  0
SOLID
  5
90C4
  8
0
 10
895.9757576037871
 20
867.008801933919
 30
0.0
 11
895.7695547309736
 21
871.3151990838262
 31
0.0
 12
895.9757576037871
 22
871.5037459974149
 32
0.0
 13
895.9757576037871
 23
871.5037459974149
 33
0.0
  0
SOLID
  5
90C5
  8
0
 10
895.9757576037871
 20
867.008801933919
 30
0.0
 11
895.9757576037871
 21
871.5037459974149
 31
0.0
 12
896.1995781976741
 22
866.8412531900542
 32
0.0
 13
896.1995781976741
 23
866.8412531900542
 33
0.0
  0
SOLID
  5
90C6
  8
0
 10
896.1995781976741
 20
866.8412531900542
 30
0.0
 11
895.9757576037871
 21
871.5037459974149
 31
0.0
 12
896.1995781976741
 22
871.6719792631122
 32
0.0
 13
896.1995781976741
 23
871.6719792631122
 33
0.0
  0
SOLID
  5
90C7
  8
0
 10
896.199578197674
 20
866.8412531900542
 30
0.0
 11
896.199578197674
 21
871.6719792631122
 31
0.0
 12
896.4396168702285
 22
866.695461140106
 32
0.0
 13
896.4396168702285
 23
866.695461140106
 33
0.0
  0
SOLID
  5
90C8
  8
0
 10
896.4396168702285
 20
866.695461140106
 30
0.0
 11
896.199578197674
 21
871.6719792631122
 31
0.0
 12
896.4396168702285
 22
871.818411433477
 32
0.0
 13
896.4396168702285
 23
871.818411433477
 33
0.0
  0
SOLID
  5
90C9
  8
0
 10
896.4396168702285
 20
866.695461140106
 30
0.0
 11
896.4396168702285
 21
871.818411433477
 31
0.0
 12
896.694473979045
 22
866.5728910308071
 32
0.0
 13
896.694473979045
 23
866.5728910308071
 33
0.0
  0
SOLID
  5
90CA
  8
0
 10
896.694473979045
 20
866.5728910308071
 30
0.0
 11
896.4396168702285
 21
871.818411433477
 31
0.0
 12
896.694473979045
 22
871.9415550610677
 32
0.0
 13
896.694473979045
 23
871.9415550610677
 33
0.0
  0
SOLID
  5
90CB
  8
0
 10
896.6944739790451
 20
866.5728910308071
 30
0.0
 11
896.6944739790451
 21
871.9415550610677
 31
0.0
 12
896.9627498817183
 22
866.4750081088912
 32
0.0
 13
896.9627498817183
 23
866.4750081088912
 33
0.0
  0
SOLID
  5
90CC
  8
0
 10
896.9627498817183
 20
866.4750081088912
 30
0.0
 11
896.6944739790451
 21
871.9415550610677
 31
0.0
 12
896.9627498817183
 22
872.0399226984434
 32
0.0
 13
896.9627498817183
 23
872.0399226984434
 33
0.0
  0
SOLID
  5
90CD
  8
0
 10
896.9627498817183
 20
866.4750081088912
 30
0.0
 11
896.9627498817183
 21
872.0399226984434
 31
0.0
 12
897.2430449358422
 22
866.4032776210911
 32
0.0
 13
897.2430449358422
 23
866.4032776210911
 33
0.0
  0
SOLID
  5
90CE
  8
0
 10
897.2430449358422
 20
866.4032776210911
 30
0.0
 11
896.9627498817183
 21
872.0399226984434
 31
0.0
 12
897.2430449358422
 22
872.1120268981629
 32
0.0
 13
897.2430449358422
 23
872.1120268981629
 33
0.0
  0
SOLID
  5
90CF
  8
0
 10
897.2430449358422
 20
866.4032776210911
 30
0.0
 11
897.2430449358422
 21
872.1120268981629
 31
0.0
 12
897.5339594990116
 22
866.3591648141401
 32
0.0
 13
897.5339594990116
 23
866.3591648141401
 33
0.0
  0
SOLID
  5
90D0
  8
0
 10
897.5339594990116
 20
866.3591648141401
 30
0.0
 11
897.2430449358422
 21
872.1120268981629
 31
0.0
 12
897.5339594990116
 22
872.1563802127848
 32
0.0
 13
897.5339594990116
 23
872.1563802127848
 33
0.0
  0
SOLID
  5
90D1
  8
0
 10
897.5339594990116
 20
866.3591648141401
 30
0.0
 11
897.5339594990116
 21
872.1563802127848
 31
0.0
 12
897.834093928821
 22
866.3441349347713
 32
0.0
 13
897.834093928821
 23
866.3441349347713
 33
0.0
  0
SOLID
  5
90D2
  8
0
 10
897.834093928821
 20
866.3441349347713
 30
0.0
 11
897.5339594990116
 21
872.1563802127848
 31
0.0
 12
897.834093928821
 22
872.1714951948679
 32
0.0
 13
897.834093928821
 23
872.1714951948679
 33
0.0
  0
SOLID
  5
90D3
  8
0
 10
897.834093928821
 20
866.3441349347713
 30
0.0
 11
897.834093928821
 21
872.1714951948679
 31
0.0
 12
898.1317289971912
 22
866.3591648141401
 32
0.0
 13
898.1317289971912
 23
866.3591648141401
 33
0.0
  0
SOLID
  5
90D4
  8
0
 10
898.1317289971912
 20
866.3591648141401
 30
0.0
 11
897.834093928821
 21
872.1714951948679
 31
0.0
 12
898.1317289971912
 22
872.1563802127847
 32
0.0
 13
898.1317289971912
 23
872.1563802127847
 33
0.0
  0
SOLID
  5
90D5
  8
0
 10
898.1317289971912
 20
866.3591648141401
 30
0.0
 11
898.1317289971912
 21
872.1563802127847
 31
0.0
 12
898.420788478759
 22
866.4032776210911
 32
0.0
 13
898.420788478759
 23
866.4032776210911
 33
0.0
  0
SOLID
  5
90D6
  8
0
 10
898.420788478759
 20
866.4032776210911
 30
0.0
 11
898.1317289971912
 21
872.1563802127847
 31
0.0
 12
898.420788478759
 22
872.112026898163
 32
0.0
 13
898.420788478759
 23
872.112026898163
 33
0.0
  0
SOLID
  5
90D7
  8
0
 10
898.420788478759
 20
866.4032776210911
 30
0.0
 11
898.420788478759
 21
872.112026898163
 31
0.0
 12
898.6998060814808
 22
866.4750081088912
 32
0.0
 13
898.6998060814808
 23
866.4750081088912
 33
0.0
  0
SOLID
  5
90D8
  8
0
 10
898.6998060814808
 20
866.4750081088912
 30
0.0
 11
898.420788478759
 21
872.112026898163
 31
0.0
 12
898.6998060814808
 22
872.0399226984433
 32
0.0
 13
898.6998060814808
 23
872.0399226984433
 33
0.0
  0
SOLID
  5
90D9
  8
0
 10
898.6998060814808
 20
866.4750081088912
 30
0.0
 11
898.6998060814808
 21
872.0399226984433
 31
0.0
 12
898.9673155133123
 22
866.5728910308071
 32
0.0
 13
898.9673155133123
 23
866.5728910308071
 33
0.0
  0
SOLID
  5
90DA
  8
0
 10
898.9673155133123
 20
866.5728910308071
 30
0.0
 11
898.6998060814808
 21
872.0399226984433
 31
0.0
 12
898.9673155133123
 22
871.9415550610677
 32
0.0
 13
898.9673155133123
 23
871.9415550610677
 33
0.0
  0
SOLID
  5
90DB
  8
0
 10
898.9673155133123
 20
866.5728910308071
 30
0.0
 11
898.9673155133123
 21
871.9415550610677
 31
0.0
 12
899.2218504822098
 22
866.6954611401059
 32
0.0
 13
899.2218504822098
 23
866.6954611401059
 33
0.0
  0
SOLID
  5
90DC
  8
0
 10
899.2218504822098
 20
866.6954611401059
 30
0.0
 11
898.9673155133123
 21
871.9415550610677
 31
0.0
 12
899.2218504822098
 22
871.818411433477
 32
0.0
 13
899.2218504822098
 23
871.818411433477
 33
0.0
  0
SOLID
  5
90DD
  8
0
 10
899.2218504822099
 20
866.695461140106
 30
0.0
 11
899.2218504822099
 21
871.818411433477
 31
0.0
 12
899.4619446961293
 22
866.8412531900543
 32
0.0
 13
899.4619446961293
 23
866.8412531900543
 33
0.0
  0
SOLID
  5
90DE
  8
0
 10
899.4619446961293
 20
866.8412531900543
 30
0.0
 11
899.2218504822099
 21
871.818411433477
 31
0.0
 12
899.4619446961293
 22
871.6719792631122
 32
0.0
 13
899.4619446961293
 23
871.6719792631122
 33
0.0
  0
SOLID
  5
90DF
  8
0
 10
899.4619446961293
 20
866.8412531900543
 30
0.0
 11
899.4619446961293
 21
871.6719792631122
 31
0.0
 12
899.686131863027
 22
867.0088019339191
 32
0.0
 13
899.686131863027
 23
867.0088019339191
 33
0.0
  0
SOLID
  5
90E0
  8
0
 10
899.686131863027
 20
867.0088019339191
 30
0.0
 11
899.4619446961293
 21
871.6719792631122
 31
0.0
 12
899.686131863027
 22
871.503745997415
 32
0.0
 13
899.686131863027
 23
871.503745997415
 33
0.0
  0
SOLID
  5
90E1
  8
0
 10
899.686131863027
 20
867.0088019339191
 30
0.0
 11
899.686131863027
 21
871.503745997415
 31
0.0
 12
899.8929456908586
 22
867.1966421249672
 32
0.0
 13
899.8929456908586
 23
867.1966421249672
 33
0.0
  0
SOLID
  5
90E2
  8
0
 10
899.8929456908586
 20
867.1966421249672
 30
0.0
 11
899.686131863027
 21
871.503745997415
 31
0.0
 12
899.8929456908586
 22
871.3151990838262
 32
0.0
 13
899.8929456908586
 23
871.3151990838262
 33
0.0
  0
SOLID
  5
90E3
  8
0
 10
899.8929456908586
 20
867.1966421249672
 30
0.0
 11
899.8929456908586
 21
871.3151990838262
 31
0.0
 12
900.0809198875804
 22
867.4033085164656
 32
0.0
 13
900.0809198875804
 23
867.4033085164656
 33
0.0
  0
SOLID
  5
90E4
  8
0
 10
900.0809198875804
 20
867.4033085164656
 30
0.0
 11
899.8929456908586
 21
871.3151990838262
 31
0.0
 12
900.0809198875804
 22
871.1078259697873
 32
0.0
 13
900.0809198875804
 23
871.1078259697873
 33
0.0
  0
SOLID
  5
90E5
  8
0
 10
900.0809198875804
 20
867.4033085164656
 30
0.0
 11
900.0809198875804
 21
871.1078259697873
 31
0.0
 12
900.2485881611486
 22
867.6273358616808
 32
0.0
 13
900.2485881611486
 23
867.6273358616808
 33
0.0
  0
SOLID
  5
90E6
  8
0
 10
900.2485881611486
 20
867.6273358616808
 30
0.0
 11
900.0809198875804
 21
871.1078259697873
 31
0.0
 12
900.2485881611486
 22
870.8831141027398
 32
0.0
 13
900.2485881611486
 23
870.8831141027398
 33
0.0
  0
SOLID
  5
90E7
  8
0
 10
900.2485881611487
 20
867.627335861681
 30
0.0
 11
900.2485881611487
 21
870.8831141027397
 31
0.0
 12
900.3944842195192
 22
867.8672589138802
 32
0.0
 13
900.3944842195192
 23
867.8672589138802
 33
0.0
  0
SOLID
  5
90E8
  8
0
 10
900.3944842195192
 20
867.8672589138802
 30
0.0
 11
900.2485881611487
 21
870.8831141027397
 31
0.0
 12
900.3944842195192
 22
870.6425509301241
 32
0.0
 13
900.3944842195192
 23
870.6425509301241
 33
0.0
  0
SOLID
  5
90E9
  8
0
 10
900.3944842195192
 20
867.8672589138802
 30
0.0
 11
900.3944842195192
 21
870.6425509301241
 31
0.0
 12
900.5171417706481
 22
868.12161242633
 32
0.0
 13
900.5171417706481
 23
868.12161242633
 33
0.0
  0
SOLID
  5
90EA
  8
0
 10
900.5171417706481
 20
868.12161242633
 30
0.0
 11
900.3944842195192
 21
870.6425509301241
 31
0.0
 12
900.5171417706481
 22
870.3876238993824
 32
0.0
 13
900.5171417706481
 23
870.3876238993824
 33
0.0
  0
SOLID
  5
90EB
  8
0
 10
900.5171417706482
 20
868.1216124263303
 30
0.0
 11
900.5171417706482
 21
870.3876238993822
 31
0.0
 12
900.6150945224917
 22
868.3889311522976
 32
0.0
 13
900.6150945224917
 23
868.3889311522976
 33
0.0
  0
SOLID
  5
90EC
  8
0
 10
900.6150945224917
 20
868.3889311522976
 30
0.0
 11
900.5171417706482
 21
870.3876238993822
 31
0.0
 12
900.6150945224917
 22
870.119820457955
 32
0.0
 13
900.6150945224917
 23
870.119820457955
 33
0.0
  0
SOLID
  5
90ED
  8
0
 10
900.6150945224917
 20
868.3889311522976
 30
0.0
 11
900.6150945224917
 21
870.119820457955
 31
0.0
 12
900.6868761830057
 22
868.6677498450496
 32
0.0
 13
900.6868761830057
 23
868.6677498450496
 33
0.0
  0
SOLID
  5
90EE
  8
0
 10
900.6868761830057
 20
868.6677498450496
 30
0.0
 11
900.6150945224917
 21
870.119820457955
 31
0.0
 12
900.6868761830057
 22
869.8406280532838
 32
0.0
 13
900.6868761830057
 23
869.8406280532838
 33
0.0
  0
SOLID
  5
90EF
  8
0
 10
900.6868761830056
 20
868.6677498450496
 30
0.0
 11
900.6868761830056
 21
869.8406280532838
 31
0.0
 12
900.7310204601463
 22
868.956603257853
 32
0.0
 13
900.7310204601463
 23
868.956603257853
 33
0.0
  0
SOLID
  5
90F0
  8
0
 10
900.7310204601463
 20
868.956603257853
 30
0.0
 11
900.6868761830056
 21
869.8406280532838
 31
0.0
 12
900.7310204601463
 22
869.5515341328099
 32
0.0
 13
900.7310204601463
 23
869.5515341328099
 33
0.0
  0
SOLID
  5
90F1
  8
0
 10
900.7310204601463
 20
868.956603257853
 30
0.0
 11
900.7310204601463
 21
869.5515341328099
 31
0.0
 12
900.7460610618696
 22
869.2540261439744
 32
0.0
 13
900.7460610618696
 23
869.2540261439744
 33
0.0
  0
ENDBLK
  5
92F3
  8
0
  0
BLOCK
  8
0
  2
*U11
 70
     1
 10
0.0
 20
0.0
 30
0.0
  3
*U11
  1

  0
SOLID
  5
91B3
  8
0
 10
11.82888692512597
 20
23.76222448164178
 30
0.0
 11
11.81385519569812
 21
24.05964736776326
 31
0.0
 12
11.82888692512597
 22
24.35715535659874
 32
0.0
 13
11.82888692512597
 23
24.35715535659874
 33
0.0
  0
SOLID
  5
91B4
  8
0
 10
11.82888692512597
 20
23.76222448164178
 30
0.0
 11
11.82888692512597
 21
24.35715535659874
 31
0.0
 12
11.87301268249007
 22
23.47337106883845
 32
0.0
 13
11.87301268249007
 23
23.47337106883845
 33
0.0
  0
SOLID
  5
91B5
  8
0
 10
11.87301268249007
 20
23.47337106883845
 30
0.0
 11
11.82888692512597
 21
24.35715535659874
 31
0.0
 12
11.87301268249007
 22
24.64624927707268
 32
0.0
 13
11.87301268249007
 23
24.64624927707268
 33
0.0
  0
SOLID
  5
91B6
  8
0
 10
11.87301268249007
 20
23.47337106883845
 30
0.0
 11
11.87301268249007
 21
24.64624927707268
 31
0.0
 12
11.94477832141134
 22
23.19455237608643
 32
0.0
 13
11.94477832141134
 23
23.19455237608643
 33
0.0
  0
SOLID
  5
91B7
  8
0
 10
11.94477832141134
 20
23.19455237608643
 30
0.0
 11
11.87301268249007
 21
24.64624927707268
 31
0.0
 12
11.94477832141134
 22
24.92544168174384
 32
0.0
 13
11.94477832141134
 23
24.92544168174384
 33
0.0
  0
SOLID
  5
91B8
  8
0
 10
11.94477832141134
 20
23.19455237608643
 30
0.0
 11
11.94477832141134
 21
24.92544168174385
 31
0.0
 12
12.04272969551064
 22
22.92723365011886
 32
0.0
 13
12.04272969551064
 23
22.92723365011886
 33
0.0
  0
SOLID
  5
91B9
  8
0
 10
12.04272969551064
 20
22.92723365011886
 30
0.0
 11
11.94477832141134
 21
24.92544168174385
 31
0.0
 12
12.04272969551064
 22
25.19324512317101
 32
0.0
 13
12.04272969551064
 23
25.19324512317101
 33
0.0
  0
SOLID
  5
91BA
  8
0
 10
12.04272969551064
 20
22.92723365011886
 30
0.0
 11
12.04272969551064
 21
25.19324512317101
 31
0.0
 12
12.16541265840888
 22
22.67288013766889
 32
0.0
 13
12.16541265840888
 23
22.67288013766889
 33
0.0
  0
SOLID
  5
91BB
  8
0
 10
12.16541265840888
 20
22.67288013766889
 30
0.0
 11
12.04272969551064
 21
25.19324512317101
 31
0.0
 12
12.16541265840888
 22
25.44817215391294
 32
0.0
 13
12.16541265840888
 23
25.44817215391294
 33
0.0
  0
SOLID
  5
91BC
  8
0
 10
12.16541265840887
 20
22.67288013766889
 30
0.0
 11
12.16541265840887
 21
25.44817215391294
 31
0.0
 12
12.31137306372691
 22
22.43295708546966
 32
0.0
 13
12.31137306372691
 23
22.43295708546966
 33
0.0
  0
SOLID
  5
91BD
  8
0
 10
12.31137306372691
 20
22.43295708546966
 30
0.0
 11
12.16541265840887
 21
25.44817215391294
 31
0.0
 12
12.31137306372691
 22
25.68873532652841
 32
0.0
 13
12.31137306372691
 23
25.68873532652841
 33
0.0
  0
SOLID
  5
91BE
  8
0
 10
12.31137306372691
 20
22.43295708546966
 30
0.0
 11
12.31137306372691
 21
25.68873532652841
 31
0.0
 12
12.47915676508565
 22
22.20892974025431
 32
0.0
 13
12.47915676508565
 23
22.20892974025431
 33
0.0
  0
SOLID
  5
91BF
  8
0
 10
12.47915676508565
 20
22.20892974025431
 30
0.0
 11
12.31137306372691
 21
25.68873532652841
 31
0.0
 12
12.47915676508565
 22
25.91344719357618
 32
0.0
 13
12.47915676508565
 23
25.91344719357618
 33
0.0
  0
SOLID
  5
91C0
  8
0
 10
12.47915676508565
 20
22.20892974025431
 30
0.0
 11
12.47915676508565
 21
25.91344719357618
 31
0.0
 12
12.66730961610597
 22
22.002263348756
 32
0.0
 13
12.66730961610597
 23
22.002263348756
 33
0.0
  0
SOLID
  5
91C1
  8
0
 10
12.66730961610597
 20
22.002263348756
 30
0.0
 11
12.47915676508565
 21
25.91344719357618
 31
0.0
 12
12.66730961610597
 22
26.12082030761502
 32
0.0
 13
12.66730961610597
 23
26.12082030761502
 33
0.0
  0
SOLID
  5
91C2
  8
0
 10
12.66730961610597
 20
22.002263348756
 30
0.0
 11
12.66730961610597
 21
26.12082030761502
 31
0.0
 12
12.87437747040875
 22
21.81442315770787
 32
0.0
 13
12.87437747040875
 23
21.81442315770787
 33
0.0
  0
SOLID
  5
91C3
  8
0
 10
12.87437747040875
 20
21.81442315770787
 30
0.0
 11
12.66730961610597
 21
26.12082030761502
 31
0.0
 12
12.87437747040875
 22
26.30936722120371
 32
0.0
 13
12.87437747040875
 23
26.30936722120371
 33
0.0
  0
SOLID
  5
91C4
  8
0
 10
12.87437747040875
 20
21.81442315770787
 30
0.0
 11
12.87437747040875
 21
26.30936722120371
 31
0.0
 12
13.09890618161488
 22
21.64687441384306
 32
0.0
 13
13.09890618161488
 23
21.64687441384306
 33
0.0
  0
SOLID
  5
91C5
  8
0
 10
13.09890618161488
 20
21.64687441384306
 30
0.0
 11
12.87437747040875
 21
26.30936722120371
 31
0.0
 12
13.09890618161488
 22
26.47760048690101
 32
0.0
 13
13.09890618161488
 23
26.47760048690101
 33
0.0
  0
SOLID
  5
91C6
  8
0
 10
13.09890618161488
 20
21.64687441384306
 30
0.0
 11
13.09890618161488
 21
26.47760048690101
 31
0.0
 12
13.33944160334525
 22
21.50108236389471
 32
0.0
 13
13.33944160334525
 23
21.50108236389471
 33
0.0
  0
SOLID
  5
91C7
  8
0
 10
13.33944160334525
 20
21.50108236389471
 30
0.0
 11
13.09890618161488
 21
26.47760048690101
 31
0.0
 12
13.33944160334525
 22
26.62403265726569
 32
0.0
 13
13.33944160334525
 23
26.62403265726569
 33
0.0
  0
SOLID
  5
91C8
  8
0
 10
13.33944160334525
 20
21.50108236389471
 30
0.0
 11
13.33944160334525
 21
26.62403265726569
 31
0.0
 12
13.59452958922074
 22
21.37851225459599
 32
0.0
 13
13.59452958922074
 23
21.37851225459599
 33
0.0
  0
SOLID
  5
91C9
  8
0
 10
13.59452958922074
 20
21.37851225459599
 30
0.0
 11
13.33944160334525
 21
26.62403265726569
 31
0.0
 12
13.59452958922074
 22
26.74717628485652
 32
0.0
 13
13.59452958922074
 23
26.74717628485652
 33
0.0
  0
SOLID
  5
91CA
  8
0
 10
13.59452958922074
 20
21.37851225459599
 30
0.0
 11
13.59452958922074
 21
26.74717628485652
 31
0.0
 12
13.86271599286224
 22
21.28062933268002
 32
0.0
 13
13.86271599286224
 23
21.28062933268002
 33
0.0
  0
SOLID
  5
91CB
  8
0
 10
13.86271599286224
 20
21.28062933268002
 30
0.0
 11
13.59452958922074
 21
26.74717628485652
 31
0.0
 12
13.86271599286224
 22
26.84554392223227
 32
0.0
 13
13.86271599286224
 23
26.84554392223227
 33
0.0
  0
SOLID
  5
91CC
  8
0
 10
13.86271599286224
 20
21.28062933268002
 30
0.0
 11
13.86271599286224
 21
26.84554392223227
 31
0.0
 12
14.14254666789062
 22
21.20889884487996
 32
0.0
 13
14.14254666789062
 23
21.20889884487996
 33
0.0
  0
SOLID
  5
91CD
  8
0
 10
14.14254666789062
 20
21.20889884487996
 30
0.0
 11
13.86271599286224
 21
26.84554392223227
 31
0.0
 12
14.14254666789062
 22
26.91764812195172
 32
0.0
 13
14.14254666789062
 23
26.91764812195172
 33
0.0
  0
SOLID
  5
91CE
  8
0
 10
14.14254666789062
 20
21.20889884487996
 30
0.0
 11
14.14254666789062
 21
26.91764812195172
 31
0.0
 12
14.43256746792679
 22
21.16478603792895
 32
0.0
 13
14.43256746792679
 23
21.16478603792895
 33
0.0
  0
SOLID
  5
91CF
  8
0
 10
14.43256746792679
 20
21.16478603792895
 30
0.0
 11
14.14254666789062
 21
26.91764812195172
 31
0.0
 12
14.43256746792679
 22
26.96200143657362
 32
0.0
 13
14.43256746792679
 23
26.96200143657362
 33
0.0
  0
SOLID
  5
91D0
  8
0
 10
14.43256746792679
 20
21.16478603792895
 30
0.0
 11
14.43256746792679
 21
26.96200143657362
 31
0.0
 12
14.73132424659161
 22
21.14975615856014
 32
0.0
 13
14.73132424659161
 23
21.14975615856014
 33
0.0
  0
SOLID
  5
91D1
  8
0
 10
14.73132424659161
 20
21.14975615856014
 30
0.0
 11
14.43256746792679
 21
26.96200143657362
 31
0.0
 12
14.73132424659161
 22
26.97711641865675
 32
0.0
 13
14.73132424659161
 23
26.97711641865675
 33
0.0
  0
SOLID
  5
91D2
  8
0
 10
14.73132424659161
 20
21.14975615856014
 30
0.0
 11
14.73132424659161
 21
26.97711641865675
 31
0.0
 12
15.02883223542771
 22
21.16478603792895
 32
0.0
 13
15.02883223542771
 23
21.16478603792895
 33
0.0
  0
SOLID
  5
91D3
  8
0
 10
15.02883223542771
 20
21.16478603792895
 30
0.0
 11
14.73132424659161
 21
26.97711641865675
 31
0.0
 12
15.02883223542771
 22
26.96200143657362
 32
0.0
 13
15.02883223542771
 23
26.96200143657362
 33
0.0
  0
SOLID
  5
91D4
  8
0
 10
15.02883223542771
 20
21.16478603792895
 30
0.0
 11
15.02883223542771
 21
26.96200143657362
 31
0.0
 12
15.31792615590215
 22
21.20889884487996
 32
0.0
 13
15.31792615590215
 23
21.20889884487996
 33
0.0
  0
SOLID
  5
91D5
  8
0
 10
15.31792615590215
 20
21.20889884487996
 30
0.0
 11
15.02883223542771
 21
26.96200143657362
 31
0.0
 12
15.31792615590215
 22
26.91764812195171
 32
0.0
 13
15.31792615590215
 23
26.91764812195171
 33
0.0
  0
SOLID
  5
91D6
  8
0
 10
15.31792615590215
 20
21.20889884487996
 30
0.0
 11
15.31792615590215
 21
26.91764812195171
 31
0.0
 12
15.59711856057372
 22
21.28062933268002
 32
0.0
 13
15.59711856057372
 23
21.28062933268002
 33
0.0
  0
SOLID
  5
91D7
  8
0
 10
15.59711856057372
 20
21.28062933268002
 30
0.0
 11
15.31792615590215
 21
26.91764812195171
 31
0.0
 12
15.59711856057372
 22
26.84554392223227
 32
0.0
 13
15.59711856057372
 23
26.84554392223227
 33
0.0
  0
SOLID
  5
91D8
  8
0
 10
15.59711856057372
 20
21.28062933268002
 30
0.0
 11
15.59711856057372
 21
26.84554392223227
 31
0.0
 12
15.86492200200118
 22
21.37851225459599
 32
0.0
 13
15.86492200200118
 23
21.37851225459599
 33
0.0
  0
SOLID
  5
91D9
  8
0
 10
15.86492200200118
 20
21.37851225459599
 30
0.0
 11
15.59711856057372
 21
26.84554392223227
 31
0.0
 12
15.86492200200118
 22
26.74717628485652
 32
0.0
 13
15.86492200200118
 23
26.74717628485652
 33
0.0
  0
SOLID
  5
91DA
  8
0
 10
15.86492200200118
 20
21.37851225459599
 30
0.0
 11
15.86492200200118
 21
26.74717628485652
 31
0.0
 12
16.11984903274332
 22
21.50108236389472
 32
0.0
 13
16.11984903274332
 23
21.50108236389472
 33
0.0
  0
SOLID
  5
91DB
  8
0
 10
16.11984903274332
 20
21.50108236389472
 30
0.0
 11
15.86492200200118
 21
26.74717628485652
 31
0.0
 12
16.11984903274332
 22
26.62403265726569
 32
0.0
 13
16.11984903274332
 23
26.62403265726569
 33
0.0
  0
SOLID
  5
91DC
  8
0
 10
16.11984903274332
 20
21.50108236389472
 30
0.0
 11
16.11984903274332
 21
26.62403265726569
 31
0.0
 12
16.36041220535893
 22
21.64687441384306
 32
0.0
 13
16.36041220535893
 23
21.64687441384306
 33
0.0
  0
SOLID
  5
91DD
  8
0
 10
16.36041220535893
 20
21.64687441384306
 30
0.0
 11
16.11984903274332
 21
26.62403265726569
 31
0.0
 12
16.36041220535893
 22
26.47760048690101
 32
0.0
 13
16.36041220535893
 23
26.47760048690101
 33
0.0
  0
SOLID
  5
91DE
  8
0
 10
16.36041220535893
 20
21.64687441384306
 30
0.0
 11
16.36041220535893
 21
26.47760048690101
 31
0.0
 12
16.58512407240678
 22
21.81442315770787
 32
0.0
 13
16.58512407240678
 23
21.81442315770787
 33
0.0
  0
SOLID
  5
91DF
  8
0
 10
16.58512407240678
 20
21.81442315770787
 30
0.0
 11
16.36041220535893
 21
26.47760048690101
 31
0.0
 12
16.58512407240678
 22
26.30936722120371
 32
0.0
 13
16.58512407240678
 23
26.30936722120371
 33
0.0
  0
SOLID
  5
91E0
  8
0
 10
16.58512407240678
 20
21.81442315770787
 30
0.0
 11
16.58512407240678
 21
26.30936722120371
 31
0.0
 12
16.79249718644564
 22
22.002263348756
 32
0.0
 13
16.79249718644564
 23
22.002263348756
 33
0.0
  0
SOLID
  5
91E1
  8
0
 10
16.79249718644564
 20
22.002263348756
 30
0.0
 11
16.58512407240678
 21
26.30936722120371
 31
0.0
 12
16.79249718644564
 22
26.12082030761502
 32
0.0
 13
16.79249718644564
 23
26.12082030761502
 33
0.0
  0
SOLID
  5
91E2
  8
0
 10
16.79249718644564
 20
22.002263348756
 30
0.0
 11
16.79249718644564
 21
26.12082030761502
 31
0.0
 12
16.98104410003431
 22
22.20892974025431
 32
0.0
 13
16.98104410003431
 23
22.20892974025431
 33
0.0
  0
SOLID
  5
91E3
  8
0
 10
16.98104410003431
 20
22.20892974025431
 30
0.0
 11
16.79249718644564
 21
26.12082030761502
 31
0.0
 12
16.98104410003431
 22
25.91344719357618
 32
0.0
 13
16.98104410003431
 23
25.91344719357618
 33
0.0
  0
SOLID
  5
91E4
  8
0
 10
16.98104410003431
 20
22.20892974025431
 30
0.0
 11
16.98104410003431
 21
25.91344719357618
 31
0.0
 12
17.14927736573156
 22
22.43295708546966
 32
0.0
 13
17.14927736573156
 23
22.43295708546966
 33
0.0
  0
SOLID
  5
91E5
  8
0
 10
17.14927736573156
 20
22.43295708546966
 30
0.0
 11
16.98104410003431
 21
25.91344719357618
 31
0.0
 12
17.14927736573156
 22
25.68873532652841
 32
0.0
 13
17.14927736573156
 23
25.68873532652841
 33
0.0
  0
SOLID
  5
91E6
  8
0
 10
17.14927736573156
 20
22.43295708546966
 30
0.0
 11
17.14927736573156
 21
25.68873532652841
 31
0.0
 12
17.29570953609617
 22
22.67288013766889
 32
0.0
 13
17.29570953609617
 23
22.67288013766889
 33
0.0
  0
SOLID
  5
91E7
  8
0
 10
17.29570953609617
 20
22.67288013766889
 30
0.0
 11
17.14927736573156
 21
25.68873532652841
 31
0.0
 12
17.29570953609617
 22
25.44817215391294
 32
0.0
 13
17.29570953609617
 23
25.44817215391294
 33
0.0
  0
SOLID
  5
91E8
  8
0
 10
17.29570953609617
 20
22.67288013766889
 30
0.0
 11
17.29570953609617
 21
25.44817215391294
 31
0.0
 12
17.41885316368692
 22
22.92723365011886
 32
0.0
 13
17.41885316368692
 23
22.92723365011886
 33
0.0
  0
SOLID
  5
91E9
  8
0
 10
17.41885316368692
 20
22.92723365011886
 30
0.0
 11
17.29570953609617
 21
25.44817215391294
 31
0.0
 12
17.41885316368692
 22
25.19324512317101
 32
0.0
 13
17.41885316368692
 23
25.19324512317101
 33
0.0
  0
SOLID
  5
91EA
  8
0
 10
17.41885316368692
 20
22.92723365011886
 30
0.0
 11
17.41885316368692
 21
25.19324512317101
 31
0.0
 12
17.51722080106259
 22
23.19455237608643
 32
0.0
 13
17.51722080106259
 23
23.19455237608643
 33
0.0
  0
SOLID
  5
91EB
  8
0
 10
17.51722080106259
 20
23.19455237608643
 30
0.0
 11
17.41885316368692
 21
25.19324512317101
 31
0.0
 12
17.51722080106259
 22
24.92544168174385
 32
0.0
 13
17.51722080106259
 23
24.92544168174385
 33
0.0
  0
SOLID
  5
91EC
  8
0
 10
17.51722080106259
 20
23.19455237608643
 30
0.0
 11
17.51722080106259
 21
24.92544168174385
 31
0.0
 12
17.58932500078196
 22
23.47337106883845
 32
0.0
 13
17.58932500078196
 23
23.47337106883845
 33
0.0
  0
SOLID
  5
91ED
  8
0
 10
17.58932500078196
 20
23.47337106883845
 30
0.0
 11
17.51722080106259
 21
24.92544168174385
 31
0.0
 12
17.58932500078196
 22
24.64624927707268
 32
0.0
 13
17.58932500078196
 23
24.64624927707268
 33
0.0
  0
SOLID
  5
91EE
  8
0
 10
17.58932500078196
 20
23.47337106883845
 30
0.0
 11
17.58932500078196
 21
24.64624927707268
 31
0.0
 12
17.63367831540381
 22
23.76222448164178
 32
0.0
 13
17.63367831540381
 23
23.76222448164178
 33
0.0
  0
SOLID
  5
91EF
  8
0
 10
17.63367831540381
 20
23.76222448164178
 30
0.0
 11
17.58932500078196
 21
24.64624927707268
 31
0.0
 12
17.63367831540381
 22
24.35715535659876
 32
0.0
 13
17.63367831540381
 23
24.35715535659876
 33
0.0
  0
SOLID
  5
91F0
  8
0
 10
17.63367831540381
 20
23.76222448164185
 30
0.0
 11
17.63367831540381
 21
24.35715535659874
 31
0.0
 12
17.64879329748692
 22
24.05964736776326
 32
0.0
 13
17.64879329748692
 23
24.05964736776326
 33
0.0
  0
ENDBLK
  5
92F5
  8
0
  0
BLOCK
  8
0
  2
*U12
 70
     1
 10
0.0
 20
0.0
 30
0.0
  3
*U12
  1

  0
SOLID
  5
92B2
  8
0
 10
332.2312320122974
 20
23.76222448164178
 30
0.0
 11
332.2163686382391
 21
24.05964736776326
 31
0.0
 12
332.2312320122974
 22
24.35715535659874
 32
0.0
 13
332.2312320122974
 23
24.35715535659874
 33
0.0
  0
SOLID
  5
92B3
  8
0
 10
332.2312320122974
 20
23.76222448164178
 30
0.0
 11
332.2312320122974
 21
24.35715535659874
 31
0.0
 12
332.2748897047329
 22
23.47337106883845
 32
0.0
 13
332.2748897047329
 23
23.47337106883845
 33
0.0
  0
SOLID
  5
92B4
  8
0
 10
332.2748897047329
 20
23.47337106883845
 30
0.0
 11
332.2312320122974
 21
24.35715535659874
 31
0.0
 12
332.2748897047329
 22
24.64624927707268
 32
0.0
 13
332.2748897047329
 23
24.64624927707268
 33
0.0
  0
SOLID
  5
92B5
  8
0
 10
332.2748897047329
 20
23.47337106883845
 30
0.0
 11
332.2748897047329
 21
24.64624927707268
 31
0.0
 12
332.3459430709366
 22
23.19455237608643
 32
0.0
 13
332.3459430709366
 23
23.19455237608643
 33
0.0
  0
SOLID
  5
92B6
  8
0
 10
332.3459430709366
 20
23.19455237608643
 30
0.0
 11
332.2748897047329
 21
24.64624927707268
 31
0.0
 12
332.3459430709366
 22
24.92544168174362
 32
0.0
 13
332.3459430709366
 23
24.92544168174362
 33
0.0
  0
SOLID
  5
92B7
  8
0
 10
332.3459430709367
 20
23.19455237608628
 30
0.0
 11
332.3459430709367
 21
24.92544168174385
 31
0.0
 12
332.4429934662999
 22
22.92723365011886
 32
0.0
 13
332.4429934662999
 23
22.92723365011886
 33
0.0
  0
SOLID
  5
92B8
  8
0
 10
332.4429934662999
 20
22.92723365011886
 30
0.0
 11
332.3459430709367
 21
24.92544168174385
 31
0.0
 12
332.4429934662999
 22
25.19324512317101
 32
0.0
 13
332.4429934662999
 23
25.19324512317101
 33
0.0
  0
SOLID
  5
92B9
  8
0
 10
332.4429934662999
 20
22.92723365011886
 30
0.0
 11
332.4429934662999
 21
25.19324512317101
 31
0.0
 12
332.5646422462135
 22
22.67288013766889
 32
0.0
 13
332.5646422462135
 23
22.67288013766889
 33
0.0
  0
SOLID
  5
92BA
  8
0
 10
332.5646422462135
 20
22.67288013766889
 30
0.0
 11
332.4429934662999
 21
25.19324512317101
 31
0.0
 12
332.5646422462135
 22
25.44817215391294
 32
0.0
 13
332.5646422462135
 23
25.44817215391294
 33
0.0
  0
SOLID
  5
92BB
  8
0
 10
332.5646422462135
 20
22.67288013766889
 30
0.0
 11
332.5646422462135
 21
25.44817215391294
 31
0.0
 12
332.7094907660688
 22
22.43295708546966
 32
0.0
 13
332.7094907660688
 23
22.43295708546966
 33
0.0
  0
SOLID
  5
92BC
  8
0
 10
332.7094907660688
 20
22.43295708546966
 30
0.0
 11
332.5646422462135
 21
25.44817215391294
 31
0.0
 12
332.7094907660688
 22
25.68873532652841
 32
0.0
 13
332.7094907660688
 23
25.68873532652841
 33
0.0
  0
SOLID
  5
92BD
  8
0
 10
332.7094907660687
 20
22.43295708546966
 30
0.0
 11
332.7094907660687
 21
25.68873532652841
 31
0.0
 12
332.8761403812566
 22
22.20892974025431
 32
0.0
 13
332.8761403812566
 23
22.20892974025431
 33
0.0
  0
SOLID
  5
92BE
  8
0
 10
332.8761403812566
 20
22.20892974025431
 30
0.0
 11
332.7094907660687
 21
25.68873532652841
 31
0.0
 12
332.8761403812566
 22
25.9134471935761
 32
0.0
 13
332.8761403812566
 23
25.9134471935761
 33
0.0
  0
SOLID
  5
92BF
  8
0
 10
332.8761403812566
 20
22.20892974025425
 30
0.0
 11
332.8761403812566
 21
25.91344719357618
 31
0.0
 12
333.0631924471681
 22
22.002263348756
 32
0.0
 13
333.0631924471681
 23
22.002263348756
 33
0.0
  0
SOLID
  5
92C0
  8
0
 10
333.0631924471681
 20
22.002263348756
 30
0.0
 11
332.8761403812566
 21
25.91344719357618
 31
0.0
 12
333.0631924471681
 22
26.12082030761502
 32
0.0
 13
333.0631924471681
 23
26.12082030761502
 33
0.0
  0
SOLID
  5
92C1
  8
0
 10
333.0631924471681
 20
22.002263348756
 30
0.0
 11
333.0631924471681
 21
26.12082030761502
 31
0.0
 12
333.2692483191945
 22
21.81442315770787
 32
0.0
 13
333.2692483191945
 23
21.81442315770787
 33
0.0
  0
SOLID
  5
92C2
  8
0
 10
333.2692483191945
 20
21.81442315770787
 30
0.0
 11
333.0631924471681
 21
26.12082030761502
 31
0.0
 12
333.2692483191945
 22
26.30936722120371
 32
0.0
 13
333.2692483191945
 23
26.30936722120371
 33
0.0
  0
SOLID
  5
92C3
  8
0
 10
333.2692483191945
 20
21.81442315770787
 30
0.0
 11
333.2692483191945
 21
26.30936722120371
 31
0.0
 12
333.4929093527267
 22
21.64687441384306
 32
0.0
 13
333.4929093527267
 23
21.64687441384306
 33
0.0
  0
SOLID
  5
92C4
  8
0
 10
333.4929093527267
 20
21.64687441384306
 30
0.0
 11
333.2692483191945
 21
26.30936722120371
 31
0.0
 12
333.4929093527267
 22
26.47760048690101
 32
0.0
 13
333.4929093527267
 23
26.47760048690101
 33
0.0
  0
SOLID
  5
92C5
  8
0
 10
333.4929093527267
 20
21.64687441384306
 30
0.0
 11
333.4929093527267
 21
26.47760048690101
 31
0.0
 12
333.732776903156
 22
21.50108236389471
 32
0.0
 13
333.732776903156
 23
21.50108236389471
 33
0.0
  0
SOLID
  5
92C6
  8
0
 10
333.732776903156
 20
21.50108236389471
 30
0.0
 11
333.4929093527267
 21
26.47760048690101
 31
0.0
 12
333.732776903156
 22
26.62403265726569
 32
0.0
 13
333.732776903156
 23
26.62403265726569
 33
0.0
  0
SOLID
  5
92C7
  8
0
 10
333.7327769031559
 20
21.50108236389471
 30
0.0
 11
333.7327769031559
 21
26.62403265726569
 31
0.0
 12
333.9874523258732
 22
21.37851225459599
 32
0.0
 13
333.9874523258732
 23
21.37851225459599
 33
0.0
  0
SOLID
  5
92C8
  8
0
 10
333.9874523258732
 20
21.37851225459599
 30
0.0
 11
333.7327769031559
 21
26.62403265726569
 31
0.0
 12
333.9874523258732
 22
26.74717628485652
 32
0.0
 13
333.9874523258732
 23
26.74717628485652
 33
0.0
  0
SOLID
  5
92C9
  8
0
 10
333.9874523258732
 20
21.37851225459599
 30
0.0
 11
333.9874523258732
 21
26.74717628485652
 31
0.0
 12
334.2555369762695
 22
21.28062933268002
 32
0.0
 13
334.2555369762695
 23
21.28062933268002
 33
0.0
  0
SOLID
  5
92CA
  8
0
 10
334.2555369762695
 20
21.28062933268002
 30
0.0
 11
333.9874523258732
 21
26.74717628485652
 31
0.0
 12
334.2555369762695
 22
26.84554392223225
 32
0.0
 13
334.2555369762695
 23
26.84554392223225
 33
0.0
  0
SOLID
  5
92CB
  8
0
 10
334.2555369762695
 20
21.28062933268001
 30
0.0
 11
334.2555369762695
 21
26.84554392223227
 31
0.0
 12
334.5356322097361
 22
21.20889884487996
 32
0.0
 13
334.5356322097361
 23
21.20889884487996
 33
0.0
  0
SOLID
  5
92CC
  8
0
 10
334.5356322097361
 20
21.20889884487996
 30
0.0
 11
334.2555369762695
 21
26.84554392223227
 31
0.0
 12
334.5356322097361
 22
26.91764812195172
 32
0.0
 13
334.5356322097361
 23
26.91764812195172
 33
0.0
  0
SOLID
  5
92CD
  8
0
 10
334.535632209736
 20
21.20889884487996
 30
0.0
 11
334.535632209736
 21
26.91764812195172
 31
0.0
 12
334.8263393816639
 22
21.16478603792895
 32
0.0
 13
334.8263393816639
 23
21.16478603792895
 33
0.0
  0
SOLID
  5
92CE
  8
0
 10
334.8263393816639
 20
21.16478603792895
 30
0.0
 11
334.535632209736
 21
26.91764812195172
 31
0.0
 12
334.8263393816639
 22
26.96200143657362
 32
0.0
 13
334.8263393816639
 23
26.96200143657362
 33
0.0
  0
SOLID
  5
92CF
  8
0
 10
334.8263393816639
 20
21.16478603792895
 30
0.0
 11
334.8263393816639
 21
26.96200143657362
 31
0.0
 12
335.1262598474441
 22
21.14975615856014
 32
0.0
 13
335.1262598474441
 23
21.14975615856014
 33
0.0
  0
SOLID
  5
92D0
  8
0
 10
335.1262598474441
 20
21.14975615856014
 30
0.0
 11
334.8263393816639
 21
26.96200143657362
 31
0.0
 12
335.1262598474441
 22
26.97711641865675
 32
0.0
 13
335.1262598474441
 23
26.97711641865675
 33
0.0
  0
SOLID
  5
92D1
  8
0
 10
335.1262598474441
 20
21.14975615856014
 30
0.0
 11
335.1262598474441
 21
26.97711641865675
 31
0.0
 12
335.423682733565
 22
21.16478603792895
 32
0.0
 13
335.423682733565
 23
21.16478603792895
 33
0.0
  0
SOLID
  5
92D2
  8
0
 10
335.423682733565
 20
21.16478603792895
 30
0.0
 11
335.1262598474441
 21
26.97711641865675
 31
0.0
 12
335.423682733565
 22
26.96200143657362
 32
0.0
 13
335.423682733565
 23
26.96200143657362
 33
0.0
  0
SOLID
  5
92D3
  8
0
 10
335.4236827335649
 20
21.16478603792895
 30
0.0
 11
335.4236827335649
 21
26.96200143657362
 31
0.0
 12
335.7125361463678
 22
21.20889884487996
 32
0.0
 13
335.7125361463678
 23
21.20889884487996
 33
0.0
  0
SOLID
  5
92D4
  8
0
 10
335.7125361463678
 20
21.20889884487996
 30
0.0
 11
335.4236827335649
 21
26.96200143657362
 31
0.0
 12
335.7125361463678
 22
26.91764812195171
 32
0.0
 13
335.7125361463678
 23
26.91764812195171
 33
0.0
  0
SOLID
  5
92D5
  8
0
 10
335.7125361463678
 20
21.20889884487996
 30
0.0
 11
335.7125361463678
 21
26.91764812195171
 31
0.0
 12
335.9913548391194
 22
21.28062933268002
 32
0.0
 13
335.9913548391194
 23
21.28062933268002
 33
0.0
  0
SOLID
  5
92D6
  8
0
 10
335.9913548391194
 20
21.28062933268002
 30
0.0
 11
335.7125361463678
 21
26.91764812195171
 31
0.0
 12
335.9913548391194
 22
26.84554392223229
 32
0.0
 13
335.9913548391194
 23
26.84554392223229
 33
0.0
  0
SOLID
  5
92D7
  8
0
 10
335.9913548391194
 20
21.28062933268004
 30
0.0
 11
335.9913548391194
 21
26.84554392223227
 31
0.0
 12
336.2586735650867
 22
21.37851225459599
 32
0.0
 13
336.2586735650867
 23
21.37851225459599
 33
0.0
  0
SOLID
  5
92D8
  8
0
 10
336.2586735650867
 20
21.37851225459599
 30
0.0
 11
335.9913548391194
 21
26.84554392223227
 31
0.0
 12
336.2586735650867
 22
26.74717628485652
 32
0.0
 13
336.2586735650867
 23
26.74717628485652
 33
0.0
  0
SOLID
  5
92D9
  8
0
 10
336.2586735650866
 20
21.37851225459599
 30
0.0
 11
336.2586735650866
 21
26.74717628485652
 31
0.0
 12
336.5130270775364
 22
21.50108236389472
 32
0.0
 13
336.5130270775364
 23
21.50108236389472
 33
0.0
  0
SOLID
  5
92DA
  8
0
 10
336.5130270775364
 20
21.50108236389472
 30
0.0
 11
336.2586735650866
 21
26.74717628485652
 31
0.0
 12
336.5130270775364
 22
26.62403265726569
 32
0.0
 13
336.5130270775364
 23
26.62403265726569
 33
0.0
  0
SOLID
  5
92DB
  8
0
 10
336.5130270775364
 20
21.50108236389472
 30
0.0
 11
336.5130270775364
 21
26.62403265726569
 31
0.0
 12
336.7529501297355
 22
21.64687441384306
 32
0.0
 13
336.7529501297355
 23
21.64687441384306
 33
0.0
  0
SOLID
  5
92DC
  8
0
 10
336.7529501297355
 20
21.64687441384306
 30
0.0
 11
336.5130270775364
 21
26.62403265726569
 31
0.0
 12
336.7529501297355
 22
26.47760048690101
 32
0.0
 13
336.7529501297355
 23
26.47760048690101
 33
0.0
  0
SOLID
  5
92DD
  8
0
 10
336.7529501297355
 20
21.64687441384306
 30
0.0
 11
336.7529501297355
 21
26.47760048690101
 31
0.0
 12
336.9769774749508
 22
21.81442315770787
 32
0.0
 13
336.9769774749508
 23
21.81442315770787
 33
0.0
  0
SOLID
  5
92DE
  8
0
 10
336.9769774749508
 20
21.81442315770787
 30
0.0
 11
336.7529501297355
 21
26.47760048690101
 31
0.0
 12
336.9769774749508
 22
26.30936722120371
 32
0.0
 13
336.9769774749508
 23
26.30936722120371
 33
0.0
  0
SOLID
  5
92DF
  8
0
 10
336.9769774749508
 20
21.81442315770787
 30
0.0
 11
336.9769774749508
 21
26.30936722120371
 31
0.0
 12
337.1836438664491
 22
22.002263348756
 32
0.0
 13
337.1836438664491
 23
22.002263348756
 33
0.0
  0
SOLID
  5
92E0
  8
0
 10
337.1836438664491
 20
22.002263348756
 30
0.0
 11
336.9769774749508
 21
26.30936722120371
 31
0.0
 12
337.1836438664491
 22
26.12082030761502
 32
0.0
 13
337.1836438664491
 23
26.12082030761502
 33
0.0
  0
SOLID
  5
92E1
  8
0
 10
337.1836438664491
 20
22.002263348756
 30
0.0
 11
337.1836438664491
 21
26.12082030761502
 31
0.0
 12
337.3714840574972
 22
22.20892974025431
 32
0.0
 13
337.3714840574972
 23
22.20892974025431
 33
0.0
  0
SOLID
  5
92E2
  8
0
 10
337.3714840574972
 20
22.20892974025431
 30
0.0
 11
337.1836438664491
 21
26.12082030761502
 31
0.0
 12
337.3714840574972
 22
25.91344719357618
 32
0.0
 13
337.3714840574972
 23
25.91344719357618
 33
0.0
  0
SOLID
  5
92E3
  8
0
 10
337.3714840574972
 20
22.20892974025431
 30
0.0
 11
337.3714840574972
 21
25.91344719357618
 31
0.0
 12
337.5390328013621
 22
22.43295708546966
 32
0.0
 13
337.5390328013621
 23
22.43295708546966
 33
0.0
  0
SOLID
  5
92E4
  8
0
 10
337.5390328013621
 20
22.43295708546966
 30
0.0
 11
337.3714840574972
 21
25.91344719357618
 31
0.0
 12
337.5390328013621
 22
25.68873532652841
 32
0.0
 13
337.5390328013621
 23
25.68873532652841
 33
0.0
  0
SOLID
  5
92E5
  8
0
 10
337.5390328013621
 20
22.43295708546966
 30
0.0
 11
337.5390328013621
 21
25.68873532652841
 31
0.0
 12
337.6848248513105
 22
22.67288013766889
 32
0.0
 13
337.6848248513105
 23
22.67288013766889
 33
0.0
  0
SOLID
  5
92E6
  8
0
 10
337.6848248513105
 20
22.67288013766889
 30
0.0
 11
337.5390328013621
 21
25.68873532652841
 31
0.0
 12
337.6848248513105
 22
25.44817215391303
 32
0.0
 13
337.6848248513105
 23
25.44817215391303
 33
0.0
  0
SOLID
  5
92E7
  8
0
 10
337.6848248513105
 20
22.67288013766901
 30
0.0
 11
337.6848248513105
 21
25.44817215391294
 31
0.0
 12
337.8073949606093
 22
22.92723365011886
 32
0.0
 13
337.8073949606093
 23
22.92723365011886
 33
0.0
  0
SOLID
  5
92E8
  8
0
 10
337.8073949606093
 20
22.92723365011886
 30
0.0
 11
337.6848248513105
 21
25.44817215391294
 31
0.0
 12
337.8073949606093
 22
25.19324512317113
 32
0.0
 13
337.8073949606093
 23
25.19324512317113
 33
0.0
  0
SOLID
  5
92E9
  8
0
 10
337.8073949606093
 20
22.92723365011902
 30
0.0
 11
337.8073949606093
 21
25.19324512317101
 31
0.0
 12
337.9052778825254
 22
23.19455237608643
 32
0.0
 13
337.9052778825254
 23
23.19455237608643
 33
0.0
  0
SOLID
  5
92EA
  8
0
 10
337.9052778825254
 20
23.19455237608643
 30
0.0
 11
337.8073949606093
 21
25.19324512317101
 31
0.0
 12
337.9052778825254
 22
24.92544168174385
 32
0.0
 13
337.9052778825254
 23
24.92544168174385
 33
0.0
  0
SOLID
  5
92EB
  8
0
 10
337.9052778825254
 20
23.19455237608643
 30
0.0
 11
337.9052778825254
 21
24.92544168174385
 31
0.0
 12
337.9770083703256
 22
23.47337106883845
 32
0.0
 13
337.9770083703256
 23
23.47337106883845
 33
0.0
  0
SOLID
  5
92EC
  8
0
 10
337.9770083703256
 20
23.47337106883845
 30
0.0
 11
337.9052778825254
 21
24.92544168174385
 31
0.0
 12
337.9770083703256
 22
24.64624927707268
 32
0.0
 13
337.9770083703256
 23
24.64624927707268
 33
0.0
  0
SOLID
  5
92ED
  8
0
 10
337.9770083703255
 20
23.47337106883845
 30
0.0
 11
337.9770083703255
 21
24.64624927707268
 31
0.0
 12
338.0211211772765
 22
23.76222448164178
 32
0.0
 13
338.0211211772765
 23
23.76222448164178
 33
0.0
  0
SOLID
  5
92EE
  8
0
 10
338.0211211772765
 20
23.76222448164178
 30
0.0
 11
337.9770083703255
 21
24.64624927707268
 31
0.0
 12
338.0211211772765
 22
24.35715535659874
 32
0.0
 13
338.0211211772765
 23
24.35715535659874
 33
0.0
  0
SOLID
  5
92EF
  8
0
 10
338.0211211772765
 20
23.76222448164178
 30
0.0
 11
338.0211211772765
 21
24.35715535659874
 31
0.0
 12
338.0361510566454
 22
24.05964736776326
 32
0.0
 13
338.0361510566454
 23
24.05964736776326
 33
0.0
  0
ENDBLK
  5
92F7
  8
0
  0
ENDSEC
  0
SECTION
  2
ENTITIES
  0
LINE
  5
FCA
  8
図面枠
 10
2870.0
 20
1893.388757552422
 30
0.0
 11
200.0
 21
1893.388757552422
 31
0.0
  0
TEXT
  5
1230
  8
図面枠
 10
250.0
 20
1918.388757552422
 30
0.0
 40
50.0
  1
接続箱　KTN-PVB6C-M
 11
250.0
 21
1943.388757552422
 31
0.0
 73
     2
  0
POLYLINE
  5
8CC7
  8
0
 66
     1
 10
0.0
 20
0.0
 30
0.0
 70
     1
  0
VERTEX
  5
8EF4
  8
0
 10
577.2181710074175
 20
863.9268034354582
 30
0.0
  0
VERTEX
  5
8EF5
  8
0
 10
576.8533226586829
 20
863.9391037240648
 30
0.0
  0
VERTEX
  5
8EF6
  8
0
 10
576.4948924232721
 20
863.9754761582153
 30
0.0
  0
VERTEX
  5
8EF7
  8
0
 10
576.1436899708655
 20
864.0351280904068
 30
0.0
  0
VERTEX
  5
8EF8
  8
0
 10
575.8005249711443
 20
864.1172668731361
 30
0.0
  0
VERTEX
  5
8EF9
  8
0
 10
575.4662070937893
 20
864.2210998588998
 30
0.0
  0
VERTEX
  5
8EFA
  8
0
 10
575.141546008481
 20
864.3458344001948
 30
0.0
  0
VERTEX
  5
8EFB
  8
0
 10
574.8273513849005
 20
864.4906778495176
 30
0.0
  0
VERTEX
  5
8EFC
  8
0
 10
574.5244328927286
 20
864.6548375593654
 30
0.0
  0
VERTEX
  5
8EFD
  8
0
 10
574.2336002016459
 20
864.8375208822348
 30
0.0
  0
VERTEX
  5
8EFE
  8
0
 10
573.9556629813335
 20
865.0379351706223
 30
0.0
  0
VERTEX
  5
8EFF
  8
0
 10
573.6914309014719
 20
865.255287777025
 30
0.0
  0
VERTEX
  5
8F00
  8
0
 10
573.4417136317422
 20
865.4887860539395
 30
0.0
  0
VERTEX
  5
8F01
  8
0
 10
573.2073208418253
 20
865.7376373538627
 30
0.0
  0
VERTEX
  5
8F02
  8
0
 10
572.9890622014017
 20
866.0010490292914
 30
0.0
  0
VERTEX
  5
8F03
  8
0
 10
572.7877473801524
 20
866.2782284327221
 30
0.0
  0
VERTEX
  5
8F04
  8
0
 10
572.604186047758
 20
866.5683829166519
 30
0.0
  0
VERTEX
  5
8F05
  8
0
 10
572.4391878738995
 20
866.8707198335774
 30
0.0
  0
VERTEX
  5
8F06
  8
0
 10
572.2935625282578
 20
867.1844465359952
 30
0.0
  0
VERTEX
  5
8F07
  8
0
 10
572.1681196805137
 20
867.5087703764025
 30
0.0
  0
VERTEX
  5
8F08
  8
0
 10
572.0636690003478
 20
867.8428987072958
 30
0.0
  0
VERTEX
  5
8F09
  8
0
 10
571.981020157441
 20
868.186038881172
 30
0.0
  0
VERTEX
  5
8F0A
  8
0
 10
571.9209828214744
 20
868.5373982505278
 30
0.0
  0
VERTEX
  5
8F0B
  8
0
 10
571.8843666621283
 20
868.8961841678597
 30
0.0
  0
VERTEX
  5
8F0C
  8
0
 10
571.8719813490839
 20
869.2616039856648
 30
0.0
  0
VERTEX
  5
8F0D
  8
0
 10
571.8843666621283
 20
869.6269854318755
 30
0.0
  0
VERTEX
  5
8F0E
  8
0
 10
571.9209828214742
 20
869.9856606197498
 30
0.0
  0
VERTEX
  5
8F0F
  8
0
 10
571.9810201574411
 20
870.336843479772
 30
0.0
  0
VERTEX
  5
8F10
  8
0
 10
572.0636690003477
 20
870.6797479424263
 30
0.0
  0
VERTEX
  5
8F11
  8
0
 10
572.1681196805138
 20
871.0135879381974
 30
0.0
  0
VERTEX
  5
8F12
  8
0
 10
572.2935625282578
 20
871.337577397569
 30
0.0
  0
VERTEX
  5
8F13
  8
0
 10
572.4391878738996
 20
871.6509302510265
 30
0.0
  0
VERTEX
  5
8F14
  8
0
 10
572.6041860477579
 20
871.952860429053
 30
0.0
  0
VERTEX
  5
8F15
  8
0
 10
572.7877473801523
 20
872.2425818621338
 30
0.0
  0
VERTEX
  5
8F16
  8
0
 10
572.9890622014017
 20
872.5193084807528
 30
0.0
  0
VERTEX
  5
8F17
  8
0
 10
573.2073208418253
 20
872.7822542153946
 30
0.0
  0
VERTEX
  5
8F18
  8
0
 10
573.4417136317423
 20
873.0306329965433
 30
0.0
  0
VERTEX
  5
8F19
  8
0
 10
573.691430901472
 20
873.2636587546834
 30
0.0
  0
VERTEX
  5
8F1A
  8
0
 10
573.9556629813335
 20
873.4805454202992
 30
0.0
  0
VERTEX
  5
8F1B
  8
0
 10
574.2336002016459
 20
873.6805069238752
 30
0.0
  0
VERTEX
  5
8F1C
  8
0
 10
574.5244328927286
 20
873.8627571958955
 30
0.0
  0
VERTEX
  5
8F1D
  8
0
 10
574.8273513849005
 20
874.0265101668447
 30
0.0
  0
VERTEX
  5
8F1E
  8
0
 10
575.141546008481
 20
874.1709797672069
 30
0.0
  0
VERTEX
  5
8F1F
  8
0
 10
575.4662070937891
 20
874.2953799274666
 30
0.0
  0
VERTEX
  5
8F20
  8
0
 10
575.8005249711443
 20
874.398924578108
 30
0.0
  0
VERTEX
  5
8F21
  8
0
 10
576.1436899708655
 20
874.4808276496158
 30
0.0
  0
VERTEX
  5
8F22
  8
0
 10
576.494892423272
 20
874.5403030724739
 30
0.0
  0
VERTEX
  5
8F23
  8
0
 10
576.8533226586829
 20
874.576564777167
 30
0.0
  0
VERTEX
  5
8F24
  8
0
 10
577.2181710074175
 20
874.5888266941793
 30
0.0
  0
VERTEX
  5
8F25
  8
0
 10
577.5846836771624
 20
874.5765647771669
 30
0.0
  0
VERTEX
  5
8F26
  8
0
 10
577.9443371940015
 20
874.5403030724739
 30
0.0
  0
VERTEX
  5
8F27
  8
0
 10
578.2963548016555
 20
874.4808276496158
 30
0.0
  0
VERTEX
  5
8F28
  8
0
 10
578.6399597438456
 20
874.3989245781081
 30
0.0
  0
VERTEX
  5
8F29
  8
0
 10
578.9743752642922
 20
874.2953799274666
 30
0.0
  0
VERTEX
  5
8F2A
  8
0
 10
579.2988246067164
 20
874.1709797672069
 30
0.0
  0
VERTEX
  5
8F2B
  8
0
 10
579.6125310148391
 20
874.0265101668447
 30
0.0
  0
VERTEX
  5
8F2C
  8
0
 10
579.9147177323808
 20
873.8627571958954
 30
0.0
  0
VERTEX
  5
8F2D
  8
0
 10
580.2046080030627
 20
873.6805069238752
 30
0.0
  0
VERTEX
  5
8F2E
  8
0
 10
580.4814250706056
 20
873.4805454202994
 30
0.0
  0
VERTEX
  5
8F2F
  8
0
 10
580.7443921787302
 20
873.2636587546835
 30
0.0
  0
VERTEX
  5
8F30
  8
0
 10
580.9927325711573
 20
873.0306329965433
 30
0.0
  0
VERTEX
  5
8F31
  8
0
 10
581.2256694916078
 20
872.7822542153945
 30
0.0
  0
VERTEX
  5
8F32
  8
0
 10
581.4424261838026
 20
872.5193084807528
 30
0.0
  0
VERTEX
  5
8F33
  8
0
 10
581.6422258914624
 20
872.2425818621338
 30
0.0
  0
VERTEX
  5
8F34
  8
0
 10
581.8242918583082
 20
871.9528604290531
 30
0.0
  0
VERTEX
  5
8F35
  8
0
 10
581.9878473280608
 20
871.6509302510262
 30
0.0
  0
VERTEX
  5
8F36
  8
0
 10
582.132115544441
 20
871.3375773975692
 30
0.0
  0
VERTEX
  5
8F37
  8
0
 10
582.2563197511696
 20
871.0135879381972
 30
0.0
  0
VERTEX
  5
8F38
  8
0
 10
582.3596831919675
 20
870.6797479424263
 30
0.0
  0
VERTEX
  5
8F39
  8
0
 10
582.4414291105555
 20
870.3368434797719
 30
0.0
  0
VERTEX
  5
8F3A
  8
0
 10
582.5007807506545
 20
869.9856606197498
 30
0.0
  0
VERTEX
  5
8F3B
  8
0
 10
582.5369613559853
 20
869.6269854318756
 30
0.0
  0
VERTEX
  5
8F3C
  8
0
 10
582.5491941702687
 20
869.2616039856648
 30
0.0
  0
VERTEX
  5
8F3D
  8
0
 10
582.5369613559853
 20
868.8961841678596
 30
0.0
  0
VERTEX
  5
8F3E
  8
0
 10
582.5007807506546
 20
868.5373982505276
 30
0.0
  0
VERTEX
  5
8F3F
  8
0
 10
582.4414291105555
 20
868.1860388811721
 30
0.0
  0
VERTEX
  5
8F40
  8
0
 10
582.3596831919674
 20
867.8428987072957
 30
0.0
  0
VERTEX
  5
8F41
  8
0
 10
582.2563197511698
 20
867.5087703764026
 30
0.0
  0
VERTEX
  5
8F42
  8
0
 10
582.1321155444409
 20
867.1844465359953
 30
0.0
  0
VERTEX
  5
8F43
  8
0
 10
581.9878473280609
 20
866.8707198335774
 30
0.0
  0
VERTEX
  5
8F44
  8
0
 10
581.8242918583082
 20
866.5683829166519
 30
0.0
  0
VERTEX
  5
8F45
  8
0
 10
581.6422258914624
 20
866.2782284327221
 30
0.0
  0
VERTEX
  5
8F46
  8
0
 10
581.4424261838026
 20
866.0010490292914
 30
0.0
  0
VERTEX
  5
8F47
  8
0
 10
581.2256694916077
 20
865.7376373538627
 30
0.0
  0
VERTEX
  5
8F48
  8
0
 10
580.9927325711573
 20
865.4887860539395
 30
0.0
  0
VERTEX
  5
8F49
  8
0
 10
580.7443921787302
 20
865.2552877770249
 30
0.0
  0
VERTEX
  5
8F4A
  8
0
 10
580.4814250706056
 20
865.0379351706223
 30
0.0
  0
VERTEX
  5
8F4B
  8
0
 10
580.2046080030627
 20
864.8375208822346
 30
0.0
  0
VERTEX
  5
8F4C
  8
0
 10
579.914717732381
 20
864.6548375593654
 30
0.0
  0
VERTEX
  5
8F4D
  8
0
 10
579.6125310148391
 20
864.4906778495176
 30
0.0
  0
VERTEX
  5
8F4E
  8
0
 10
579.2988246067165
 20
864.3458344001948
 30
0.0
  0
VERTEX
  5
8F4F
  8
0
 10
578.9743752642922
 20
864.2210998588998
 30
0.0
  0
VERTEX
  5
8F50
  8
0
 10
578.6399597438455
 20
864.117266873136
 30
0.0
  0
VERTEX
  5
8F51
  8
0
 10
578.2963548016555
 20
864.0351280904069
 30
0.0
  0
VERTEX
  5
8F52
  8
0
 10
577.9443371940015
 20
863.9754761582152
 30
0.0
  0
VERTEX
  5
8F53
  8
0
 10
577.5846836771624
 20
863.9391037240647
 30
0.0
  0
SEQEND
  5
92F8
  8
0
  0
POLYLINE
  5
8CC8
  8
0
 66
     1
 10
0.0
 20
0.0
 30
0.0
 70
     1
  0
VERTEX
  5
8F54
  8
0
 10
577.2105877596736
 20
866.3441349347713
 30
0.0
  0
VERTEX
  5
8F55
  8
0
 10
577.0103749888232
 20
866.3508510600893
 30
0.0
  0
VERTEX
  5
8F56
  8
0
 10
576.8138320622575
 20
866.3707100045891
 30
0.0
  0
VERTEX
  5
8F57
  8
0
 10
576.6213901455387
 20
866.403277621091
 30
0.0
  0
VERTEX
  5
8F58
  8
0
 10
576.4334804042286
 20
866.448119762415
 30
0.0
  0
VERTEX
  5
8F59
  8
0
 10
576.2505340038884
 20
866.5048022813803
 30
0.0
  0
VERTEX
  5
8F5A
  8
0
 10
576.0729821100803
 20
866.5728910308069
 30
0.0
  0
VERTEX
  5
8F5B
  8
0
 10
575.9012558883659
 20
866.6519518635148
 30
0.0
  0
VERTEX
  5
8F5C
  8
0
 10
575.7357865043069
 20
866.741550632324
 30
0.0
  0
VERTEX
  5
8F5D
  8
0
 10
575.577005123465
 20
866.8412531900537
 30
0.0
  0
VERTEX
  5
8F5E
  8
0
 10
575.4253429114021
 20
866.9506253895244
 30
0.0
  0
VERTEX
  5
8F5F
  8
0
 10
575.2812310336799
 20
867.0692330835552
 30
0.0
  0
VERTEX
  5
8F60
  8
0
 10
575.14510065586
 20
867.1966421249665
 30
0.0
  0
VERTEX
  5
8F61
  8
0
 10
575.0173829435043
 20
867.3324183665778
 30
0.0
  0
VERTEX
  5
8F62
  8
0
 10
574.8985090621745
 20
867.4761276612091
 30
0.0
  0
VERTEX
  5
8F63
  8
0
 10
574.7889101774322
 20
867.6273358616801
 30
0.0
  0
VERTEX
  5
8F64
  8
0
 10
574.6890174548394
 20
867.7856088208106
 30
0.0
  0
VERTEX
  5
8F65
  8
0
 10
574.5992620599575
 20
867.9505123914204
 30
0.0
  0
VERTEX
  5
8F66
  8
0
 10
574.5200751583485
 20
868.1216124263292
 30
0.0
  0
VERTEX
  5
8F67
  8
0
 10
574.4518879155739
 20
868.2984747783571
 30
0.0
  0
VERTEX
  5
8F68
  8
0
 10
574.3951314971958
 20
868.4806653003238
 30
0.0
  0
VERTEX
  5
8F69
  8
0
 10
574.3502370687758
 20
868.667749845049
 30
0.0
  0
VERTEX
  5
8F6A
  8
0
 10
574.3176357958755
 20
868.8592942653527
 30
0.0
  0
VERTEX
  5
8F6B
  8
0
 10
574.2977588440566
 20
869.0548644140546
 30
0.0
  0
VERTEX
  5
8F6C
  8
0
 10
574.2910373788811
 20
869.2540261439744
 30
0.0
  0
VERTEX
  5
8F6D
  8
0
 10
574.2977588440567
 20
869.453226245488
 30
0.0
  0
VERTEX
  5
8F6E
  8
0
 10
574.3176357958755
 20
869.6489071236472
 30
0.0
  0
VERTEX
  5
8F6F
  8
0
 10
574.3502370687759
 20
869.8406280532839
 30
0.0
  0
VERTEX
  5
8F70
  8
0
 10
574.3951314971957
 20
870.0279483092304
 30
0.0
  0
VERTEX
  5
8F71
  8
0
 10
574.451887915574
 20
870.2104271663192
 30
0.0
  0
VERTEX
  5
8F72
  8
0
 10
574.5200751583485
 20
870.3876238993822
 30
0.0
  0
VERTEX
  5
8F73
  8
0
 10
574.5992620599576
 20
870.5590977832519
 30
0.0
  0
VERTEX
  5
8F74
  8
0
 10
574.6890174548392
 20
870.7244080927603
 30
0.0
  0
VERTEX
  5
8F75
  8
0
 10
574.7889101774322
 20
870.8831141027396
 30
0.0
  0
VERTEX
  5
8F76
  8
0
 10
574.8985090621745
 20
871.0347750880223
 30
0.0
  0
VERTEX
  5
8F77
  8
0
 10
575.0173829435043
 20
871.1789503234404
 30
0.0
  0
VERTEX
  5
8F78
  8
0
 10
575.14510065586
 20
871.3151990838262
 30
0.0
  0
VERTEX
  5
8F79
  8
0
 10
575.2812310336799
 20
871.443080644012
 30
0.0
  0
VERTEX
  5
8F7A
  8
0
 10
575.4253429114021
 20
871.5621542788299
 30
0.0
  0
VERTEX
  5
8F7B
  8
0
 10
575.577005123465
 20
871.6719792631122
 30
0.0
  0
VERTEX
  5
8F7C
  8
0
 10
575.7357865043069
 20
871.7721148716912
 30
0.0
  0
VERTEX
  5
8F7D
  8
0
 10
575.9012558883658
 20
871.8621203793989
 30
0.0
  0
VERTEX
  5
8F7E
  8
0
 10
576.0729821100804
 20
871.9415550610677
 30
0.0
  0
VERTEX
  5
8F7F
  8
0
 10
576.2505340038883
 20
872.0099781915299
 30
0.0
  0
VERTEX
  5
8F80
  8
0
 10
576.4334804042285
 20
872.0669490456175
 30
0.0
  0
VERTEX
  5
8F81
  8
0
 10
576.6213901455387
 20
872.1120268981629
 30
0.0
  0
VERTEX
  5
8F82
  8
0
 10
576.8138320622575
 20
872.1447710239981
 30
0.0
  0
VERTEX
  5
8F83
  8
0
 10
577.0103749888231
 20
872.164740697956
 30
0.0
  0
VERTEX
  5
8F84
  8
0
 10
577.2105877596736
 20
872.1714951948679
 30
0.0
  0
VERTEX
  5
8F85
  8
0
 10
577.4099299710506
 20
872.1647406979558
 30
0.0
  0
VERTEX
  5
8F86
  8
0
 10
577.6057504484501
 20
872.1447710239983
 30
0.0
  0
VERTEX
  5
8F87
  8
0
 10
577.7976081522899
 20
872.112026898163
 30
0.0
  0
VERTEX
  5
8F88
  8
0
 10
577.9850620429874
 20
872.0669490456175
 30
0.0
  0
VERTEX
  5
8F89
  8
0
 10
578.1676710809606
 20
872.00997819153
 30
0.0
  0
VERTEX
  5
8F8A
  8
0
 10
578.3449942266275
 20
871.9415550610677
 30
0.0
  0
VERTEX
  5
8F8B
  8
0
 10
578.5165904404055
 20
871.8621203793989
 30
0.0
  0
VERTEX
  5
8F8C
  8
0
 10
578.6820186827125
 20
871.7721148716911
 30
0.0
  0
VERTEX
  5
8F8D
  8
0
 10
578.8408379139663
 20
871.6719792631122
 30
0.0
  0
VERTEX
  5
8F8E
  8
0
 10
578.9926070945846
 20
871.5621542788298
 30
0.0
  0
VERTEX
  5
8F8F
  8
0
 10
579.1368851849853
 20
871.443080644012
 30
0.0
  0
VERTEX
  5
8F90
  8
0
 10
579.2732311455861
 20
871.3151990838262
 30
0.0
  0
VERTEX
  5
8F91
  8
0
 10
579.4012039368047
 20
871.1789503234404
 30
0.0
  0
VERTEX
  5
8F92
  8
0
 10
579.5203625190588
 20
871.0347750880221
 30
0.0
  0
VERTEX
  5
8F93
  8
0
 10
579.6302658527663
 20
870.8831141027397
 30
0.0
  0
VERTEX
  5
8F94
  8
0
 10
579.7304728983452
 20
870.7244080927602
 30
0.0
  0
VERTEX
  5
8F95
  8
0
 10
579.8205426162127
 20
870.5590977832518
 30
0.0
  0
VERTEX
  5
8F96
  8
0
 10
579.900033966787
 20
870.3876238993822
 30
0.0
  0
VERTEX
  5
8F97
  8
0
 10
579.9685059104856
 20
870.210427166319
 30
0.0
  0
VERTEX
  5
8F98
  8
0
 10
580.0255174077266
 20
870.0279483092304
 30
0.0
  0
VERTEX
  5
8F99
  8
0
 10
580.0706274189275
 20
869.8406280532838
 30
0.0
  0
VERTEX
  5
8F9A
  8
0
 10
580.1033949045062
 20
869.6489071236472
 30
0.0
  0
VERTEX
  5
8F9B
  8
0
 10
580.1233788248804
 20
869.4532262454882
 30
0.0
  0
VERTEX
  5
8F9C
  8
0
 10
580.1301381404678
 20
869.2540261439744
 30
0.0
  0
VERTEX
  5
8F9D
  8
0
 10
580.1233788248804
 20
869.0548644140546
 30
0.0
  0
VERTEX
  5
8F9E
  8
0
 10
580.1033949045062
 20
868.8592942653528
 30
0.0
  0
VERTEX
  5
8F9F
  8
0
 10
580.0706274189275
 20
868.6677498450491
 30
0.0
  0
VERTEX
  5
8FA0
  8
0
 10
580.0255174077265
 20
868.4806653003237
 30
0.0
  0
VERTEX
  5
8FA1
  8
0
 10
579.9685059104858
 20
868.2984747783572
 30
0.0
  0
VERTEX
  5
8FA2
  8
0
 10
579.9000339667871
 20
868.1216124263293
 30
0.0
  0
VERTEX
  5
8FA3
  8
0
 10
579.8205426162127
 20
867.9505123914204
 30
0.0
  0
VERTEX
  5
8FA4
  8
0
 10
579.730472898345
 20
867.7856088208106
 30
0.0
  0
VERTEX
  5
8FA5
  8
0
 10
579.6302658527663
 20
867.62733586168
 30
0.0
  0
VERTEX
  5
8FA6
  8
0
 10
579.5203625190588
 20
867.4761276612091
 30
0.0
  0
VERTEX
  5
8FA7
  8
0
 10
579.4012039368046
 20
867.3324183665777
 30
0.0
  0
VERTEX
  5
8FA8
  8
0
 10
579.273231145586
 20
867.1966421249665
 30
0.0
  0
VERTEX
  5
8FA9
  8
0
 10
579.1368851849853
 20
867.0692330835552
 30
0.0
  0
VERTEX
  5
8FAA
  8
0
 10
578.9926070945846
 20
866.9506253895242
 30
0.0
  0
VERTEX
  5
8FAB
  8
0
 10
578.8408379139664
 20
866.8412531900537
 30
0.0
  0
VERTEX
  5
8FAC
  8
0
 10
578.6820186827126
 20
866.741550632324
 30
0.0
  0
VERTEX
  5
8FAD
  8
0
 10
578.5165904404055
 20
866.6519518635148
 30
0.0
  0
VERTEX
  5
8FAE
  8
0
 10
578.3449942266275
 20
866.572891030807
 30
0.0
  0
VERTEX
  5
8FAF
  8
0
 10
578.1676710809606
 20
866.5048022813801
 30
0.0
  0
VERTEX
  5
8FB0
  8
0
 10
577.9850620429874
 20
866.4481197624148
 30
0.0
  0
VERTEX
  5
8FB1
  8
0
 10
577.7976081522899
 20
866.4032776210911
 30
0.0
  0
VERTEX
  5
8FB2
  8
0
 10
577.6057504484502
 20
866.370710004589
 30
0.0
  0
VERTEX
  5
8FB3
  8
0
 10
577.4099299710507
 20
866.3508510600891
 30
0.0
  0
SEQEND
  5
92F9
  8
0
  0
INSERT
  5
8CC9
  8
0
  2
*U9
 10
0.0
 20
0.0
 30
0.0
  0
POLYLINE
  5
8CCA
  8
0
 66
     1
 10
0.0
 20
0.0
 30
0.0
 70
     1
  0
VERTEX
  5
8FF3
  8
0
 10
897.834093928821
 20
863.9268034354582
 30
0.0
  0
VERTEX
  5
8FF4
  8
0
 10
897.4675428601074
 20
863.9391037240648
 30
0.0
  0
VERTEX
  5
8FF5
  8
0
 10
897.1077785348162
 20
863.9754761582153
 30
0.0
  0
VERTEX
  5
8FF6
  8
0
 10
896.7555842919063
 20
864.0351280904068
 30
0.0
  0
VERTEX
  5
8FF7
  8
0
 10
896.4117434703379
 20
864.1172668731361
 30
0.0
  0
VERTEX
  5
8FF8
  8
0
 10
896.0770394090699
 20
864.2210998588998
 30
0.0
  0
VERTEX
  5
8FF9
  8
0
 10
895.7522554470619
 20
864.3458344001948
 30
0.0
  0
VERTEX
  5
8FFA
  8
0
 10
895.4381749232738
 20
864.4906778495176
 30
0.0
  0
VERTEX
  5
8FFB
  8
0
 10
895.1355811766648
 20
864.6548375593654
 30
0.0
  0
VERTEX
  5
8FFC
  8
0
 10
894.845257546194
 20
864.8375208822348
 30
0.0
  0
VERTEX
  5
8FFD
  8
0
 10
894.5679873708218
 20
865.0379351706223
 30
0.0
  0
VERTEX
  5
8FFE
  8
0
 10
894.304553989507
 20
865.255287777025
 30
0.0
  0
VERTEX
  5
8FFF
  8
0
 10
894.0557407412092
 20
865.4887860539395
 30
0.0
  0
VERTEX
  5
9000
  8
0
 10
893.822330964888
 20
865.7376373538627
 30
0.0
  0
VERTEX
  5
9001
  8
0
 10
893.6051079995029
 20
866.0010490292914
 30
0.0
  0
VERTEX
  5
9002
  8
0
 10
893.4048551840135
 20
866.2782284327221
 30
0.0
  0
VERTEX
  5
9003
  8
0
 10
893.2223558573791
 20
866.5683829166519
 30
0.0
  0
VERTEX
  5
9004
  8
0
 10
893.0583933585592
 20
866.8707198335774
 30
0.0
  0
VERTEX
  5
9005
  8
0
 10
892.9137510265134
 20
867.1844465359952
 30
0.0
  0
VERTEX
  5
9006
  8
0
 10
892.7892122002011
 20
867.5087703764025
 30
0.0
  0
VERTEX
  5
9007
  8
0
 10
892.6855602185819
 20
867.8428987072958
 30
0.0
  0
VERTEX
  5
9008
  8
0
 10
892.6035784206153
 20
868.186038881172
 30
0.0
  0
VERTEX
  5
9009
  8
0
 10
892.5440501452608
 20
868.5373982505278
 30
0.0
  0
VERTEX
  5
900A
  8
0
 10
892.5077587314777
 20
868.8961841678597
 30
0.0
  0
VERTEX
  5
900B
  8
0
 10
892.4954875182257
 20
869.2616039856648
 30
0.0
  0
VERTEX
  5
900C
  8
0
 10
892.5077587314777
 20
869.6269854318755
 30
0.0
  0
VERTEX
  5
900D
  8
0
 10
892.5440501452608
 20
869.9856606197498
 30
0.0
  0
VERTEX
  5
900E
  8
0
 10
892.6035784206153
 20
870.336843479772
 30
0.0
  0
VERTEX
  5
900F
  8
0
 10
892.6855602185818
 20
870.6797479424263
 30
0.0
  0
VERTEX
  5
9010
  8
0
 10
892.7892122002012
 20
871.0135879381974
 30
0.0
  0
VERTEX
  5
9011
  8
0
 10
892.9137510265134
 20
871.337577397569
 30
0.0
  0
VERTEX
  5
9012
  8
0
 10
893.0583933585593
 20
871.6509302510265
 30
0.0
  0
VERTEX
  5
9013
  8
0
 10
893.222355857379
 20
871.952860429053
 30
0.0
  0
VERTEX
  5
9014
  8
0
 10
893.4048551840134
 20
872.2425818621338
 30
0.0
  0
VERTEX
  5
9015
  8
0
 10
893.6051079995028
 20
872.5193084807528
 30
0.0
  0
VERTEX
  5
9016
  8
0
 10
893.822330964888
 20
872.7822542153946
 30
0.0
  0
VERTEX
  5
9017
  8
0
 10
894.0557407412092
 20
873.0306329965433
 30
0.0
  0
VERTEX
  5
9018
  8
0
 10
894.3045539895069
 20
873.2636587546834
 30
0.0
  0
VERTEX
  5
9019
  8
0
 10
894.5679873708218
 20
873.4805454202992
 30
0.0
  0
VERTEX
  5
901A
  8
0
 10
894.8452575461941
 20
873.6805069238752
 30
0.0
  0
VERTEX
  5
901B
  8
0
 10
895.1355811766647
 20
873.8627571958955
 30
0.0
  0
VERTEX
  5
901C
  8
0
 10
895.4381749232737
 20
874.0265101668447
 30
0.0
  0
VERTEX
  5
901D
  8
0
 10
895.752255447062
 20
874.1709797672069
 30
0.0
  0
VERTEX
  5
901E
  8
0
 10
896.0770394090698
 20
874.2953799274666
 30
0.0
  0
VERTEX
  5
901F
  8
0
 10
896.4117434703378
 20
874.398924578108
 30
0.0
  0
VERTEX
  5
9020
  8
0
 10
896.7555842919064
 20
874.4808276496158
 30
0.0
  0
VERTEX
  5
9021
  8
0
 10
897.107778534816
 20
874.5403030724739
 30
0.0
  0
VERTEX
  5
9022
  8
0
 10
897.4675428601075
 20
874.576564777167
 30
0.0
  0
VERTEX
  5
9023
  8
0
 10
897.834093928821
 20
874.5888266941793
 30
0.0
  0
VERTEX
  5
9024
  8
0
 10
898.2006449975343
 20
874.5765647771669
 30
0.0
  0
VERTEX
  5
9025
  8
0
 10
898.5604093228256
 20
874.5403030724739
 30
0.0
  0
VERTEX
  5
9026
  8
0
 10
898.9126035657353
 20
874.4808276496158
 30
0.0
  0
VERTEX
  5
9027
  8
0
 10
899.2564443873038
 20
874.3989245781081
 30
0.0
  0
VERTEX
  5
9028
  8
0
 10
899.5911484485715
 20
874.2953799274666
 30
0.0
  0
VERTEX
  5
9029
  8
0
 10
899.9159324105793
 20
874.1709797672069
 30
0.0
  0
VERTEX
  5
902A
  8
0
 10
900.2300129343674
 20
874.0265101668447
 30
0.0
  0
VERTEX
  5
902B
  8
0
 10
900.5326066809762
 20
873.8627571958954
 30
0.0
  0
VERTEX
  5
902C
  8
0
 10
900.8229303114466
 20
873.6805069238752
 30
0.0
  0
VERTEX
  5
902D
  8
0
 10
901.1002004868187
 20
873.4805454202994
 30
0.0
  0
VERTEX
  5
902E
  8
0
 10
901.3636338681334
 20
873.2636587546835
 30
0.0
  0
VERTEX
  5
902F
  8
0
 10
901.6124471164309
 20
873.0306329965433
 30
0.0
  0
VERTEX
  5
9030
  8
0
 10
901.8458568927518
 20
872.7822542153945
 30
0.0
  0
VERTEX
  5
9031
  8
0
 10
902.0630798581366
 20
872.5193084807528
 30
0.0
  0
VERTEX
  5
9032
  8
0
 10
902.2633326736259
 20
872.2425818621338
 30
0.0
  0
VERTEX
  5
9033
  8
0
 10
902.4458320002602
 20
871.9528604290531
 30
0.0
  0
VERTEX
  5
9034
  8
0
 10
902.6097944990797
 20
871.6509302510262
 30
0.0
  0
VERTEX
  5
9035
  8
0
 10
902.7544368311255
 20
871.3375773975692
 30
0.0
  0
VERTEX
  5
9036
  8
0
 10
902.8789756574374
 20
871.0135879381972
 30
0.0
  0
VERTEX
  5
9037
  8
0
 10
902.9826276390565
 20
870.6797479424263
 30
0.0
  0
VERTEX
  5
9038
  8
0
 10
903.0646094370231
 20
870.3368434797719
 30
0.0
  0
VERTEX
  5
9039
  8
0
 10
903.1241377123777
 20
869.9856606197498
 30
0.0
  0
VERTEX
  5
903A
  8
0
 10
903.1604291261606
 20
869.6269854318756
 30
0.0
  0
VERTEX
  5
903B
  8
0
 10
903.1727003394126
 20
869.2616039856648
 30
0.0
  0
VERTEX
  5
903C
  8
0
 10
903.1604291261606
 20
868.8961841678596
 30
0.0
  0
VERTEX
  5
903D
  8
0
 10
903.1241377123775
 20
868.5373982505276
 30
0.0
  0
VERTEX
  5
903E
  8
0
 10
903.064609437023
 20
868.1860388811721
 30
0.0
  0
VERTEX
  5
903F
  8
0
 10
902.9826276390565
 20
867.8428987072957
 30
0.0
  0
VERTEX
  5
9040
  8
0
 10
902.8789756574376
 20
867.5087703764026
 30
0.0
  0
VERTEX
  5
9041
  8
0
 10
902.7544368311255
 20
867.1844465359953
 30
0.0
  0
VERTEX
  5
9042
  8
0
 10
902.6097944990798
 20
866.8707198335774
 30
0.0
  0
VERTEX
  5
9043
  8
0
 10
902.4458320002603
 20
866.5683829166519
 30
0.0
  0
VERTEX
  5
9044
  8
0
 10
902.263332673626
 20
866.2782284327221
 30
0.0
  0
VERTEX
  5
9045
  8
0
 10
902.0630798581367
 20
866.0010490292914
 30
0.0
  0
VERTEX
  5
9046
  8
0
 10
901.8458568927517
 20
865.7376373538627
 30
0.0
  0
VERTEX
  5
9047
  8
0
 10
901.612447116431
 20
865.4887860539395
 30
0.0
  0
VERTEX
  5
9048
  8
0
 10
901.3636338681334
 20
865.2552877770249
 30
0.0
  0
VERTEX
  5
9049
  8
0
 10
901.1002004868188
 20
865.0379351706223
 30
0.0
  0
VERTEX
  5
904A
  8
0
 10
900.8229303114466
 20
864.8375208822346
 30
0.0
  0
VERTEX
  5
904B
  8
0
 10
900.5326066809763
 20
864.6548375593654
 30
0.0
  0
VERTEX
  5
904C
  8
0
 10
900.2300129343676
 20
864.4906778495176
 30
0.0
  0
VERTEX
  5
904D
  8
0
 10
899.9159324105794
 20
864.3458344001948
 30
0.0
  0
VERTEX
  5
904E
  8
0
 10
899.5911484485717
 20
864.2210998588998
 30
0.0
  0
VERTEX
  5
904F
  8
0
 10
899.2564443873038
 20
864.117266873136
 30
0.0
  0
VERTEX
  5
9050
  8
0
 10
898.9126035657355
 20
864.0351280904069
 30
0.0
  0
VERTEX
  5
9051
  8
0
 10
898.5604093228258
 20
863.9754761582152
 30
0.0
  0
VERTEX
  5
9052
  8
0
 10
898.2006449975345
 20
863.9391037240647
 30
0.0
  0
SEQEND
  5
92FA
  8
0
  0
POLYLINE
  5
8CCB
  8
0
 66
     1
 10
0.0
 20
0.0
 30
0.0
 70
     1
  0
VERTEX
  5
9053
  8
0
 10
897.834093928821
 20
866.3441349347713
 30
0.0
  0
VERTEX
  5
9054
  8
0
 10
897.6330489974649
 20
866.3508510600893
 30
0.0
  0
VERTEX
  5
9055
  8
0
 10
897.435894430185
 20
866.3707100045891
 30
0.0
  0
VERTEX
  5
9056
  8
0
 10
897.2430449358422
 20
866.403277621091
 30
0.0
  0
VERTEX
  5
9057
  8
0
 10
897.0549152232975
 20
866.448119762415
 30
0.0
  0
VERTEX
  5
9058
  8
0
 10
896.8719200014115
 20
866.5048022813803
 30
0.0
  0
VERTEX
  5
9059
  8
0
 10
896.694473979045
 20
866.5728910308069
 30
0.0
  0
VERTEX
  5
905A
  8
0
 10
896.5229918650595
 20
866.6519518635148
 30
0.0
  0
VERTEX
  5
905B
  8
0
 10
896.3578883683156
 20
866.741550632324
 30
0.0
  0
VERTEX
  5
905C
  8
0
 10
896.1995781976741
 20
866.8412531900537
 30
0.0
  0
VERTEX
  5
905D
  8
0
 10
896.048476061996
 20
866.9506253895244
 30
0.0
  0
VERTEX
  5
905E
  8
0
 10
895.904996670142
 20
867.0692330835552
 30
0.0
  0
VERTEX
  5
905F
  8
0
 10
895.7695547309736
 20
867.1966421249665
 30
0.0
  0
VERTEX
  5
9060
  8
0
 10
895.642564953351
 20
867.3324183665778
 30
0.0
  0
VERTEX
  5
9061
  8
0
 10
895.5244420461356
 20
867.4761276612091
 30
0.0
  0
VERTEX
  5
9062
  8
0
 10
895.4156007181883
 20
867.6273358616801
 30
0.0
  0
VERTEX
  5
9063
  8
0
 10
895.3164556783696
 20
867.7856088208106
 30
0.0
  0
VERTEX
  5
9064
  8
0
 10
895.2274216355408
 20
867.9505123914204
 30
0.0
  0
VERTEX
  5
9065
  8
0
 10
895.1489132985625
 20
868.1216124263292
 30
0.0
  0
VERTEX
  5
9066
  8
0
 10
895.081345376296
 20
868.2984747783571
 30
0.0
  0
VERTEX
  5
9067
  8
0
 10
895.025132577602
 20
868.4806653003238
 30
0.0
  0
VERTEX
  5
9068
  8
0
 10
894.9806896113413
 20
868.667749845049
 30
0.0
  0
VERTEX
  5
9069
  8
0
 10
894.9484311863749
 20
868.8592942653527
 30
0.0
  0
VERTEX
  5
906A
  8
0
 10
894.9287720115638
 20
869.0548644140546
 30
0.0
  0
VERTEX
  5
906B
  8
0
 10
894.9221267957687
 20
869.2540261439744
 30
0.0
  0
VERTEX
  5
906C
  8
0
 10
894.9287720115636
 20
869.453226245488
 30
0.0
  0
VERTEX
  5
906D
  8
0
 10
894.9484311863749
 20
869.6489071236472
 30
0.0
  0
VERTEX
  5
906E
  8
0
 10
894.9806896113413
 20
869.8406280532839
 30
0.0
  0
VERTEX
  5
906F
  8
0
 10
895.0251325776019
 20
870.0279483092304
 30
0.0
  0
VERTEX
  5
9070
  8
0
 10
895.0813453762961
 20
870.2104271663192
 30
0.0
  0
VERTEX
  5
9071
  8
0
 10
895.1489132985625
 20
870.3876238993822
 30
0.0
  0
VERTEX
  5
9072
  8
0
 10
895.227421635541
 20
870.5590977832519
 30
0.0
  0
VERTEX
  5
9073
  8
0
 10
895.3164556783696
 20
870.7244080927603
 30
0.0
  0
VERTEX
  5
9074
  8
0
 10
895.4156007181882
 20
870.8831141027396
 30
0.0
  0
VERTEX
  5
9075
  8
0
 10
895.5244420461357
 20
871.0347750880223
 30
0.0
  0
VERTEX
  5
9076
  8
0
 10
895.6425649533511
 20
871.1789503234404
 30
0.0
  0
VERTEX
  5
9077
  8
0
 10
895.7695547309736
 20
871.3151990838262
 30
0.0
  0
VERTEX
  5
9078
  8
0
 10
895.904996670142
 20
871.443080644012
 30
0.0
  0
VERTEX
  5
9079
  8
0
 10
896.0484760619959
 20
871.5621542788299
 30
0.0
  0
VERTEX
  5
907A
  8
0
 10
896.199578197674
 20
871.6719792631122
 30
0.0
  0
VERTEX
  5
907B
  8
0
 10
896.3578883683156
 20
871.7721148716912
 30
0.0
  0
VERTEX
  5
907C
  8
0
 10
896.5229918650596
 20
871.8621203793989
 30
0.0
  0
VERTEX
  5
907D
  8
0
 10
896.6944739790451
 20
871.9415550610677
 30
0.0
  0
VERTEX
  5
907E
  8
0
 10
896.8719200014114
 20
872.0099781915299
 30
0.0
  0
VERTEX
  5
907F
  8
0
 10
897.0549152232973
 20
872.0669490456175
 30
0.0
  0
VERTEX
  5
9080
  8
0
 10
897.2430449358422
 20
872.1120268981629
 30
0.0
  0
VERTEX
  5
9081
  8
0
 10
897.435894430185
 20
872.1447710239981
 30
0.0
  0
VERTEX
  5
9082
  8
0
 10
897.633048997465
 20
872.164740697956
 30
0.0
  0
VERTEX
  5
9083
  8
0
 10
897.834093928821
 20
872.1714951948679
 30
0.0
  0
VERTEX
  5
9084
  8
0
 10
898.0333977412286
 20
872.1647406979558
 30
0.0
  0
VERTEX
  5
9085
  8
0
 10
898.2291074101754
 20
872.1447710239983
 30
0.0
  0
VERTEX
  5
9086
  8
0
 10
898.420788478759
 20
872.112026898163
 30
0.0
  0
VERTEX
  5
9087
  8
0
 10
898.6080064900775
 20
872.0669490456175
 30
0.0
  0
VERTEX
  5
9088
  8
0
 10
898.7903269872294
 20
872.00997819153
 30
0.0
  0
VERTEX
  5
9089
  8
0
 10
898.9673155133122
 20
871.9415550610677
 30
0.0
  0
VERTEX
  5
908A
  8
0
 10
899.1385376114246
 20
871.8621203793989
 30
0.0
  0
VERTEX
  5
908B
  8
0
 10
899.3035588246642
 20
871.7721148716911
 30
0.0
  0
VERTEX
  5
908C
  8
0
 10
899.4619446961293
 20
871.6719792631122
 30
0.0
  0
VERTEX
  5
908D
  8
0
 10
899.613260768918
 20
871.5621542788298
 30
0.0
  0
VERTEX
  5
908E
  8
0
 10
899.7570725861284
 20
871.443080644012
 30
0.0
  0
VERTEX
  5
908F
  8
0
 10
899.8929456908586
 20
871.3151990838262
 30
0.0
  0
VERTEX
  5
9090
  8
0
 10
900.0204456262067
 20
871.1789503234404
 30
0.0
  0
VERTEX
  5
9091
  8
0
 10
900.1391379352707
 20
871.0347750880221
 30
0.0
  0
VERTEX
  5
9092
  8
0
 10
900.2485881611487
 20
870.8831141027397
 30
0.0
  0
VERTEX
  5
9093
  8
0
 10
900.3483618469389
 20
870.7244080927602
 30
0.0
  0
VERTEX
  5
9094
  8
0
 10
900.4380245357395
 20
870.5590977832518
 30
0.0
  0
VERTEX
  5
9095
  8
0
 10
900.5171417706483
 20
870.3876238993822
 30
0.0
  0
VERTEX
  5
9096
  8
0
 10
900.5852790947633
 20
870.210427166319
 30
0.0
  0
VERTEX
  5
9097
  8
0
 10
900.6420020511832
 20
870.0279483092304
 30
0.0
  0
VERTEX
  5
9098
  8
0
 10
900.6868761830056
 20
869.8406280532838
 30
0.0
  0
VERTEX
  5
9099
  8
0
 10
900.7194670333288
 20
869.6489071236472
 30
0.0
  0
VERTEX
  5
909A
  8
0
 10
900.7393401452507
 20
869.4532262454882
 30
0.0
  0
VERTEX
  5
909B
  8
0
 10
900.7460610618696
 20
869.2540261439744
 30
0.0
  0
VERTEX
  5
909C
  8
0
 10
900.7393401452508
 20
869.0548644140546
 30
0.0
  0
VERTEX
  5
909D
  8
0
 10
900.7194670333287
 20
868.8592942653528
 30
0.0
  0
VERTEX
  5
909E
  8
0
 10
900.6868761830056
 20
868.6677498450491
 30
0.0
  0
VERTEX
  5
909F
  8
0
 10
900.6420020511832
 20
868.4806653003237
 30
0.0
  0
VERTEX
  5
90A0
  8
0
 10
900.5852790947635
 20
868.2984747783572
 30
0.0
  0
VERTEX
  5
90A1
  8
0
 10
900.5171417706482
 20
868.1216124263293
 30
0.0
  0
VERTEX
  5
90A2
  8
0
 10
900.4380245357394
 20
867.9505123914204
 30
0.0
  0
VERTEX
  5
90A3
  8
0
 10
900.3483618469389
 20
867.7856088208106
 30
0.0
  0
VERTEX
  5
90A4
  8
0
 10
900.2485881611487
 20
867.62733586168
 30
0.0
  0
VERTEX
  5
90A5
  8
0
 10
900.1391379352707
 20
867.4761276612091
 30
0.0
  0
VERTEX
  5
90A6
  8
0
 10
900.0204456262065
 20
867.3324183665777
 30
0.0
  0
VERTEX
  5
90A7
  8
0
 10
899.8929456908586
 20
867.1966421249665
 30
0.0
  0
VERTEX
  5
90A8
  8
0
 10
899.7570725861285
 20
867.0692330835552
 30
0.0
  0
VERTEX
  5
90A9
  8
0
 10
899.6132607689179
 20
866.9506253895242
 30
0.0
  0
VERTEX
  5
90AA
  8
0
 10
899.4619446961292
 20
866.8412531900537
 30
0.0
  0
VERTEX
  5
90AB
  8
0
 10
899.3035588246643
 20
866.741550632324
 30
0.0
  0
VERTEX
  5
90AC
  8
0
 10
899.1385376114247
 20
866.6519518635148
 30
0.0
  0
VERTEX
  5
90AD
  8
0
 10
898.9673155133123
 20
866.572891030807
 30
0.0
  0
VERTEX
  5
90AE
  8
0
 10
898.7903269872295
 20
866.5048022813801
 30
0.0
  0
VERTEX
  5
90AF
  8
0
 10
898.6080064900775
 20
866.4481197624148
 30
0.0
  0
VERTEX
  5
90B0
  8
0
 10
898.420788478759
 20
866.4032776210911
 30
0.0
  0
VERTEX
  5
90B1
  8
0
 10
898.2291074101754
 20
866.370710004589
 30
0.0
  0
VERTEX
  5
90B2
  8
0
 10
898.0333977412289
 20
866.3508510600891
 30
0.0
  0
SEQEND
  5
92FB
  8
0
  0
INSERT
  5
8CCC
  8
0
  2
*U10
 10
0.0
 20
0.0
 30
0.0
  0
LINE
  5
8CCD
  8
0
 10
562.4687541486051
 20
845.1943787762111
 30
0.0
 11
562.4687541486051
 21
1148.194378776211
 31
0.0
  0
LINE
  5
8CCE
  8
0
 10
562.4687541486051
 20
1148.194378776211
 30
0.0
 11
911.4687733695121
 21
1148.194378776211
 31
0.0
  0
LINE
  5
8CCF
  8
0
 10
911.4687733695121
 20
1148.194378776211
 30
0.0
 11
911.4687733695121
 21
845.1943787762111
 31
0.0
  0
LINE
  5
8CD0
  8
0
 10
911.4687733695121
 20
845.1943787762111
 30
0.0
 11
562.4687541486051
 21
845.1943787762111
 31
0.0
  0
LINE
  5
8D84
  8
0
 10
1061.531273369512
 20
845.1943787762111
 30
0.0
 11
1061.531273369512
 21
1148.194378776211
 31
0.0
  0
LINE
  5
8D85
  8
0
 10
1061.531273369512
 20
1148.194378776211
 30
0.0
 11
1085.910914805565
 21
1148.194378776211
 31
0.0
  0
LINE
  5
8D86
  8
0
 10
1085.910914805565
 20
1148.194378776211
 30
0.0
 11
1085.910914805565
 21
845.1943787762111
 31
0.0
  0
LINE
  5
8D87
  8
0
 10
1085.910914805565
 20
845.1943787762111
 30
0.0
 11
1061.531273369512
 21
845.1943787762111
 31
0.0
  0
LINE
  5
8D88
  8
0
 10
1085.910914805565
 20
849.7941286824253
 30
0.0
 11
1085.910914805565
 21
1136.569969622778
 31
0.0
  0
LINE
  5
8D89
  8
0
 10
1085.910914805565
 20
1136.182049152601
 30
0.0
 11
1172.531245851395
 21
1136.182049152601
 31
0.0
  0
LINE
  5
8D8B
  8
0
 10
1172.531245851395
 20
850.1820491526014
 30
0.0
 11
1085.910914805565
 21
850.1820491526014
 31
0.0
  0
LINE
  5
8D8C
  8
0
 10
1058.260274455835
 20
863.9192255937678
 30
0.0
 11
1058.260274455835
 21
874.5888266941793
 31
0.0
  0
LINE
  5
8D8D
  8
0
 10
1058.260274455835
 20
874.5888266941793
 30
0.0
 11
1061.531273369512
 21
874.5888266941793
 31
0.0
  0
LINE
  5
8D8E
  8
0
 10
1061.531273369512
 20
874.5888266941793
 30
0.0
 11
1061.531273369512
 21
863.9192255937678
 31
0.0
  0
LINE
  5
8D8F
  8
0
 10
1061.531273369512
 20
863.9192255937678
 30
0.0
 11
1058.260274455835
 21
863.9192255937678
 31
0.0
  0
LINE
  5
8DC8
  8
0
 10
1172.531245851395
 20
850.1820491526014
 30
0.0
 11
1172.531245851395
 21
1136.182049152601
 31
0.0
  0
LINE
  5
8E54
  8
0
 10
1172.593745851395
 20
850.1820491526014
 30
0.0
 11
1222.711245851395
 21
850.1820491526014
 31
0.0
  0
LINE
  5
8E55
  8
0
 10
1172.593745851395
 20
1136.182049152601
 30
0.0
 11
1222.711245851395
 21
1136.182049152601
 31
0.0
  0
LINE
  5
8E56
  8
0
 10
1222.531245851395
 20
885.1820491526014
 30
0.0
 11
1222.531245851395
 21
1101.182049152601
 31
0.0
  0
LINE
  5
8E5A
  8
0
 10
1061.531273369512
 20
1148.256878776211
 30
0.0
 11
1061.531273369512
 21
1248.374378776211
 31
0.0
  0
LINE
  5
8E5B
  8
0
 10
1172.531245851395
 20
1136.244549152601
 30
0.0
 11
1172.531245851395
 21
1248.374378776211
 31
0.0
  0
LINE
  5
8E5C
  8
0
 10
1096.531273369512
 20
1248.194378776211
 30
0.0
 11
1137.531245851395
 21
1248.194378776211
 31
0.0
  0
LINE
  5
8E60
  8
0
 10
911.5312733695121
 20
1148.194378776211
 30
0.0
 11
961.648773369512
 21
1148.194378776211
 31
0.0
  0
LINE
  5
8E61
  8
0
 10
911.5312733695121
 20
845.1943787762111
 30
0.0
 11
961.648773369512
 21
845.1943787762111
 31
0.0
  0
LINE
  5
8E62
  8
0
 10
961.4687733695121
 20
1113.194378776211
 30
0.0
 11
961.4687733695121
 21
880.1943787762111
 31
0.0
  0
LINE
  5
8E66
  8
0
 10
562.4687541486051
 20
1148.256878776211
 30
0.0
 11
562.4687541486051
 21
1248.374378776211
 31
0.0
  0
LINE
  5
8E67
  8
0
 10
911.4687733695121
 20
1148.256878776211
 30
0.0
 11
911.4687733695121
 21
1248.374378776211
 31
0.0
  0
LINE
  5
8E68
  8
0
 10
597.4687541486051
 20
1248.194378776211
 30
0.0
 11
876.4687733695121
 21
1248.194378776211
 31
0.0
  0
LINE
  5
8E8C
  8
0
 10
1803.798985262572
 20
1346.694378776211
 30
0.0
 11
2603.798985262572
 21
1346.694378776211
 31
0.0
  0
LINE
  5
8E8D
  8
0
 10
1803.798985262572
 20
1296.694378776211
 30
0.0
 11
2603.798985262572
 21
1296.694378776211
 31
0.0
  0
LINE
  5
8E8E
  8
0
 10
1803.798985262572
 20
1246.694378776211
 30
0.0
 11
2603.798985262572
 21
1246.694378776211
 31
0.0
  0
LINE
  5
8E8F
  8
0
 10
1803.798985262572
 20
1196.694378776211
 30
0.0
 11
2603.798985262572
 21
1196.694378776211
 31
0.0
  0
LINE
  5
8E90
  8
0
 10
2003.798985262572
 20
1146.694378776211
 30
0.0
 11
2603.798985262572
 21
1146.694378776211
 31
0.0
  0
LINE
  5
8E91
  8
0
 10
2003.798985262572
 20
1096.694378776211
 30
0.0
 11
2603.798985262572
 21
1096.694378776211
 31
0.0
  0
LINE
  5
8E92
  8
0
 10
1803.798985262572
 20
1046.694378776211
 30
0.0
 11
2603.798985262572
 21
1046.694378776211
 31
0.0
  0
LINE
  5
8E93
  8
0
 10
2003.798985262572
 20
996.6943787762111
 30
0.0
 11
2603.798985262572
 21
996.6943787762111
 31
0.0
  0
LINE
  5
8E94
  8
0
 10
1803.798985262572
 20
946.6943787762111
 30
0.0
 11
2603.798985262572
 21
946.6943787762111
 31
0.0
  0
LINE
  5
8E95
  8
0
 10
1803.798985262572
 20
896.6943787762111
 30
0.0
 11
2603.798985262572
 21
896.6943787762111
 31
0.0
  0
LINE
  5
8E96
  8
0
 10
1803.798985262572
 20
846.6943787762111
 30
0.0
 11
2603.798985262572
 21
846.6943787762111
 31
0.0
  0
LINE
  5
8E97
  8
0
 10
1803.798985262572
 20
796.6943787762111
 30
0.0
 11
2603.798985262572
 21
796.6943787762111
 31
0.0
  0
LINE
  5
8E98
  8
0
 10
1803.798985262572
 20
746.6943787762111
 30
0.0
 11
2603.798985262572
 21
746.6943787762111
 31
0.0
  0
LINE
  5
8E99
  8
0
 10
1803.798985262572
 20
696.6943787762111
 30
0.0
 11
2603.798985262572
 21
696.6943787762111
 31
0.0
  0
LINE
  5
8E9A
  8
0
 10
1803.798985262572
 20
646.6943787762111
 30
0.0
 11
2603.798985262572
 21
646.6943787762111
 31
0.0
  0
LINE
  5
8E9B
  8
0
 10
1803.798985262572
 20
1346.694378776211
 30
0.0
 11
1803.798985262572
 21
646.6943787762111
 31
0.0
  0
LINE
  5
8E9C
  8
0
 10
2003.798985262572
 20
1296.694378776211
 30
0.0
 11
2003.798985262572
 21
946.6943787762111
 31
0.0
  0
LINE
  5
8E9D
  8
0
 10
2203.798985262572
 20
1346.694378776211
 30
0.0
 11
2203.798985262572
 21
646.6943787762111
 31
0.0
  0
LINE
  5
8E9E
  8
0
 10
2603.798985262572
 20
1346.694378776211
 30
0.0
 11
2603.798985262572
 21
646.6943787762111
 31
0.0
  0
LINE
  5
8E9F
  8
0
 62
     8
 10
-14430.39188210058
 20
-10773.55503020969
 30
0.0
 11
-14430.39188210058
 21
-10773.55503020969
 31
0.0
  0
LINE
  5
8EA0
  8
図面枠
 10
2870.0
 20
100.0
 30
0.0
 11
2870.0
 21
2000.0
 31
0.0
  0
LINE
  5
8EA1
  8
図面枠
 10
2870.0
 20
2000.0
 30
0.0
 11
200.0
 21
2000.0
 31
0.0
  0
LINE
  5
8EA2
  8
図面枠
 10
200.0
 20
2000.0
 30
0.0
 11
200.0
 21
100.0
 31
0.0
  0
LINE
  5
8EA3
  8
図面枠
 10
200.0
 20
100.0
 30
0.0
 11
2870.0
 21
100.0
 31
0.0
  0
LINE
  5
8EA4
  8
用紙枠
 10
0.0
 20
0.0
 30
0.0
 11
2970.0
 21
0.0
 31
0.0
  0
LINE
  5
8EA5
  8
用紙枠
 10
2970.0
 20
0.0
 30
0.0
 11
2970.0
 21
2100.0
 31
0.0
  0
LINE
  5
8EA6
  8
用紙枠
 10
2970.0
 20
2100.0
 30
0.0
 11
0.0
 21
2100.0
 31
0.0
  0
LINE
  5
8EA7
  8
用紙枠
 10
0.0
 20
2100.0
 30
0.0
 11
0.0
 21
0.0
 31
0.0
  0
TEXT
  5
8EA8
  8
0
 10
2332.037621626209
 20
661.2398333216656
 30
0.0
 40
20.0
  1
屋外／屋内
  0
TEXT
  5
8EA9
  8
0
 10
1805.298985262572
 20
661.6375605943929
 30
0.0
 40
20.0
  1
  設置場所
  0
TEXT
  5
8EAA
  8
0
 10
2357.548985262572
 20
711.8080151398475
 30
0.0
 40
20.0
  1
約5.0kg
  0
TEXT
  5
8EAB
  8
0
 10
1805.298985262572
 20
711.5239242307565
 30
0.0
 40
20.0
  1
  質量
  0
TEXT
  5
8EAC
  8
0
 10
2298.060348898936
 20
761.6943787762111
 30
0.0
 40
20.0
  1
349x303x111ｍｍ
  0
TEXT
  5
8EAD
  8
0
 10
1805.298985262572
 20
761.5239242307565
 30
0.0
 40
20.0
  1
  外形寸法（WxHxD）
  0
TEXT
  5
8EAE
  8
0
 10
2281.071712535299
 20
811.8080151398475
 30
0.0
 40
20.0
  1
電気亜鉛メッキ鋼板
  0
TEXT
  5
8EAF
  8
0
 10
1805.298985262572
 20
810.6148333216657
 30
0.0
 40
20.0
  1
  キャビネット素材
  0
TEXT
  5
8EB0
  8
0
 10
2248.230803444391
 20
861.5239242307566
 30
0.0
 40
20.0
  1
25～85%%%RH(結露なきこと)
  0
TEXT
  5
8EB1
  8
0
 10
1805.298985262572
 20
861.1830151398475
 30
0.0
 40
20.0
  1
  使用湿度範囲
  0
TEXT
  5
8EB2
  8
0
 10
2245.162621626209
 20
911.1261969580294
 30
0.0
 40
20.0
  1
-10～+50℃(氷結なきこと)
  0
TEXT
  5
8EB3
  8
0
 10
1805.298985262572
 20
911.1830151398475
 30
0.0
 40
20.0
  1
  使用温度範囲
  0
TEXT
  5
8EB4
  8
0
 10
2379.480803444391
 20
961.6943787762111
 30
0.0
 40
20.0
  1
30A
  0
TEXT
  5
8EB5
  8
0
 10
2005.298985262572
 20
961.2398333216657
 30
0.0
 40
20.0
  1
 出力電流
  0
TEXT
  5
8EB6
  8
0
 10
2372.321712535299
 20
1011.694378776211
 30
0.0
 40
20.0
  1
800V
  0
TEXT
  5
8EB7
  8
0
 10
2005.298985262572
 20
1011.069378776211
 30
0.0
 40
20.0
  1
 逆耐圧
  0
TEXT
  5
8EB8
  8
0
 10
1805.298985262572
 20
1004.781499988332
 30
0.0
 40
20.0
  1
  逆流防止
  0
TEXT
  5
8EB9
  8
0
 10
1805.298985262572
 20
967.0163484731808
 30
0.0
 40
20.0
  1
  ダイオード
  0
TEXT
  5
8EBA
  8
0
 10
2382.037621626209
 20
1061.069378776211
 30
0.0
 40
20.0
  1
2極
  0
TEXT
  5
8EBB
  8
0
 10
2005.298985262572
 20
1061.296651503484
 30
0.0
 40
20.0
  1
 極数
  0
TEXT
  5
8EBC
  8
0
 10
2360.162621626209
 20
1111.694378776211
 30
0.0
 40
20.0
  1
DC10A
  0
TEXT
  5
8EBD
  8
0
 10
2005.298985262572
 20
1111.239833321666
 30
0.0
 40
20.0
  1
 定格電流
  0
TEXT
  5
8EBE
  8
0
 10
2352.9467125353
 20
1161.694378776211
 30
0.0
 40
20.0
  1
DC300V
  0
TEXT
  5
8EBF
  8
0
 10
2005.298985262572
 20
1161.239833321666
 30
0.0
 40
20.0
  1
 定格電圧
  0
TEXT
  5
8EC0
  8
0
 10
1805.298985262572
 20
1129.781499988332
 30
0.0
 40
20.0
  1
  入力分岐
  0
TEXT
  5
8EC1
  8
0
 10
1805.298985262572
 20
1092.925439382272
 30
0.0
 40
20.0
  1
  開閉器性能
  0
TEXT
  5
8EC2
  8
0
 10
2366.298985262572
 20
1211.069378776211
 30
0.0
 40
20.0
  1
1回路
  0
TEXT
  5
8EC3
  8
0
 10
2005.298985262572
 20
1211.183015139848
 30
0.0
 40
20.0
  1
 回路数
  0
TEXT
  5
8EC4
  8
0
 10
1805.298985262572
 20
1211.069378776211
 30
0.0
 40
20.0
  1
  出力回路
  0
TEXT
  5
8EC5
  8
0
 10
2367.037621626209
 20
1261.069378776211
 30
0.0
 40
20.0
  1
6回路
  0
TEXT
  5
8EC6
  8
0
 10
2005.298985262572
 20
1261.183015139848
 30
0.0
 40
20.0
  1
 回路数
  0
TEXT
  5
8EC7
  8
0
 10
1805.298985262572
 20
1261.069378776211
 30
0.0
 40
20.0
  1
  入力回路
  0
TEXT
  5
8EC8
  8
0
 10
2307.492167080754
 20
1311.694378776211
 30
0.0
 40
20.0
  1
KTN-PVB6C-M
  0
TEXT
  5
8EC9
  8
0
 10
1805.298985262572
 20
1310.955742412575
 30
0.0
 40
20.0
  1
  型式
  0
TEXT
  5
8ECA
  8
0
 10
698.8863773954222
 20
1258.194378776211
 30
0.0
 40
35.0
  1
349
  0
LINE
  5
8ECB
  8
0
 10
876.4687733695121
 20
1254.027712109544
 30
0.0
 11
911.4687733695121
 21
1248.194378776211
 31
0.0
  0
LINE
  5
8ECC
  8
0
 10
876.4687733695121
 20
1242.361045442878
 30
0.0
 11
911.4687733695121
 21
1248.194378776211
 31
0.0
  0
LINE
  5
8ECD
  8
0
 10
911.4687733695121
 20
1248.194378776211
 30
0.0
 11
876.4687733695121
 21
1248.194378776211
 31
0.0
  0
LINE
  5
8ECE
  8
0
 10
597.4687541486051
 20
1242.361045442878
 30
0.0
 11
562.4687541486051
 21
1248.194378776211
 31
0.0
  0
LINE
  5
8ECF
  8
0
 10
597.4687541486051
 20
1254.027712109544
 30
0.0
 11
562.4687541486051
 21
1248.194378776211
 31
0.0
  0
LINE
  5
8ED0
  8
0
 10
562.4687541486051
 20
1248.194378776211
 30
0.0
 11
597.4687541486051
 21
1248.194378776211
 31
0.0
  0
TEXT
  5
8ED1
  8
0
 10
951.468773369512
 20
958.5125605943931
 30
0.0
 40
35.0
  1
303
 50
90.0
  0
LINE
  5
8ED2
  8
0
 10
967.3021067028454
 20
880.1943787762111
 30
0.0
 11
961.4687733695121
 21
845.1943787762111
 31
0.0
  0
LINE
  5
8ED3
  8
0
 10
955.6354400361787
 20
880.1943787762111
 30
0.0
 11
961.4687733695121
 21
845.1943787762111
 31
0.0
  0
LINE
  5
8ED4
  8
0
 10
961.4687733695121
 20
845.1943787762111
 30
0.0
 11
961.4687733695121
 21
880.1943787762111
 31
0.0
  0
LINE
  5
8ED5
  8
0
 10
955.6354400361787
 20
1113.194378776211
 30
0.0
 11
961.4687733695121
 21
1148.194378776211
 31
0.0
  0
LINE
  5
8ED6
  8
0
 10
967.3021067028454
 20
1113.194378776211
 30
0.0
 11
961.4687733695121
 21
1148.194378776211
 31
0.0
  0
LINE
  5
8ED7
  8
0
 10
961.4687733695121
 20
1148.194378776211
 30
0.0
 11
961.4687733695121
 21
1113.194378776211
 31
0.0
  0
TEXT
  5
8ED8
  8
0
 10
1080.937509610454
 20
1258.194378776211
 30
0.0
 40
35.0
  1
111
  0
LINE
  5
8ED9
  8
0
 10
1137.531245851395
 20
1254.027712109544
 30
0.0
 11
1172.531245851395
 21
1248.194378776211
 31
0.0
  0
LINE
  5
8EDA
  8
0
 10
1137.531245851395
 20
1242.361045442878
 30
0.0
 11
1172.531245851395
 21
1248.194378776211
 31
0.0
  0
LINE
  5
8EDB
  8
0
 10
1172.531245851395
 20
1248.194378776211
 30
0.0
 11
1137.531245851395
 21
1248.194378776211
 31
0.0
  0
LINE
  5
8EDC
  8
0
 10
1096.531273369512
 20
1242.361045442878
 30
0.0
 11
1061.531273369512
 21
1248.194378776211
 31
0.0
  0
LINE
  5
8EDD
  8
0
 10
1096.531273369512
 20
1254.027712109544
 30
0.0
 11
1061.531273369512
 21
1248.194378776211
 31
0.0
  0
LINE
  5
8EDE
  8
0
 10
1061.531273369512
 20
1248.194378776211
 30
0.0
 11
1096.531273369512
 21
1248.194378776211
 31
0.0
  0
TEXT
  5
8EDF
  8
0
 10
1212.531245851395
 20
955.0996627889651
 30
0.0
 40
35.0
  1
286
 50
90.0
  0
LINE
  5
8EE0
  8
0
 10
1216.697912518062
 20
1101.182049152601
 30
0.0
 11
1222.531245851395
 21
1136.182049152601
 31
0.0
  0
LINE
  5
8EE1
  8
0
 10
1228.364579184728
 20
1101.182049152601
 30
0.0
 11
1222.531245851395
 21
1136.182049152601
 31
0.0
  0
LINE
  5
8EE2
  8
0
 10
1222.531245851395
 20
1136.182049152601
 30
0.0
 11
1222.531245851395
 21
1101.182049152601
 31
0.0
  0
LINE
  5
8EE3
  8
0
 10
1228.364579184728
 20
885.1820491526014
 30
0.0
 11
1222.531245851395
 21
850.1820491526014
 31
0.0
  0
LINE
  5
8EE4
  8
0
 10
1216.697912518062
 20
885.1820491526014
 30
0.0
 11
1222.531245851395
 21
850.1820491526014
 31
0.0
  0
LINE
  5
8EE5
  8
0
 10
1222.531245851395
 20
850.1820491526014
 30
0.0
 11
1222.531245851395
 21
885.1820491526014
 31
0.0
  0
VIEWPORT
  5
2C13
 67
     1
  8
0
  6
CONTINUOUS
 10
145.330337524414
 20
141.1905255588052
 30
0.0
 40
366.1848134449208
 41
300.9119599272723
 68
     1
 69
     1
1001
ACAD
1000
MVIEW
1002
{
1070
    16
1010
0.0
1020
0.0
1030
0.0
1020
0.0
1030
0.0
1010
0.0
1020
0.0
1030
1.0
1020
0.0
1030
1.0
1040
0.0
1040
300.9119599272723
1040
145.330337524414
1040
141.1905255588052
1040
50.0
1040
0.0
1040
0.0
1070
     0
1070
   100
1070
     0
1070
     1
1070
     0
1070
     0
1070
     0
1070
     0
1040
0.0
1040
0.0
1040
0.0
1040
10.0
1040
10.0
1040
10.0
1040
10.0
1070
     0
1002
{
1002
}
1002
}
  0
VIEWPORT
  5
2C17
 67
     1
  8
0
  6
CONTINUOUS
 10
145.3303314447403
 20
101.8328338861465
 30
0.0
 40
232.5285303115845
 41
162.9325342178345
 68
     2
 69
     2
1001
ACAD
1000
MVIEW
1002
{
1070
    16
1010
0.0
1020
0.0
1030
0.0
1020
0.0
1030
0.0
1010
0.0
1020
0.0
1030
1.0
1020
0.0
1030
1.0
1040
0.0
1040
8205.767713711226
1040
5809.965151642898
1040
1137.040193552135
1040
50.0
1040
0.0
1040
0.0
1070
     0
1070
   100
1070
     0
1070
     1
1070
     0
1070
     0
1070
     0
1070
     0
1040
0.0
1040
0.0
1040
0.0
1040
10.0
1040
10.0
1040
10.0
1040
10.0
1070
     0
1002
{
1002
}
1002
}
  0
ENDSEC
  0
EOF
